  0
SECTION
  2
HEADER
  9
$ACADVER
  1
AC1027
  9
$ACADMAINTVER
 70
    55
  9
$DWGCODEPAGE
  3
ANSI_932
  9
$LASTSAVEDBY
  1
User
  9
$REQUIREDVERSIONS
160
                 0
  9
$INSBASE
 10
0.0
 20
0.0
 30
0.0
  9
$EXTMIN
 10
33.69690043117965
 20
28.79090953850062
 30
-0.0000000349181948
  9
$EXTMAX
 10
353.0419930874393
 20
199.9592748705289
 30
0.0000000814935747
  9
$LIMMIN
 10
0.0
 20
0.0
  9
$LIMMAX
 10
420.0
 20
297.0
  9
$ORTHOMODE
 70
     0
  9
$REGENMODE
 70
     1
  9
$FILLMODE
 70
     1
  9
$QTEXTMODE
 70
     0
  9
$MIRRTEXT
 70
     1
  9
$LTSCALE
 40
1.0
  9
$ATTMODE
 70
     1
  9
$TEXTSIZE
 40
3.5
  9
$TRACEWID
 40
1.0
  9
$TEXTSTYLE
  7
Standard
  9
$CLAYER
  8
0
  9
$CELTYPE
  6
ByLayer
  9
$CECOLOR
 62
   256
  9
$CELTSCALE
 40
1.0
  9
$DISPSILH
 70
     0
  9
$DIMSCALE
 40
1.0
  9
$DIMASZ
 40
6.0
  9
$DIMEXO
 40
1.0
  9
$DIMDLI
 40
3.75
  9
$DIMRND
 40
0.0
  9
$DIMDLE
 40
0.0
  9
$DIMEXE
 40
1.0
  9
$DIMTP
 40
0.0
  9
$DIMTM
 40
0.0
  9
$DIMTXT
 40
3.5
  9
$DIMCEN
 40
2.5
  9
$DIMTSZ
 40
0.0
  9
$DIMTOL
 70
     0
  9
$DIMLIM
 70
     0
  9
$DIMTIH
 70
     1
  9
$DIMTOH
 70
     1
  9
$DIMSE1
 70
     0
  9
$DIMSE2
 70
     0
  9
$DIMTAD
 70
     1
  9
$DIMZIN
 70
     0
  9
$DIMBLK
  1

  9
$DIMASO
 70
     1
  9
$DIMSHO
 70
     1
  9
$DIMPOST
  1

  9
$DIMAPOST
  1

  9
$DIMALT
 70
     0
  9
$DIMALTD
 70
     3
  9
$DIMALTF
 40
0.0393700787401575
  9
$DIMLFAC
 40
1.0
  9
$DIMTOFL
 70
     1
  9
$DIMTVP
 40
0.0
  9
$DIMTIX
 70
     0
  9
$DIMSOXD
 70
     0
  9
$DIMSAH
 70
     0
  9
$DIMBLK1
  1

  9
$DIMBLK2
  1

  9
$DIMSTYLE
  2
ISO-25
  9
$DIMCLRD
 70
     0
  9
$DIMCLRE
 70
     0
  9
$DIMCLRT
 70
     0
  9
$DIMTFAC
 40
1.0
  9
$DIMGAP
 40
1.524
  9
$DIMJUST
 70
     0
  9
$DIMSD1
 70
     0
  9
$DIMSD2
 70
     0
  9
$DIMTOLJ
 70
     0
  9
$DIMTZIN
 70
     0
  9
$DIMALTZ
 70
     0
  9
$DIMALTTZ
 70
     0
  9
$DIMUPT
 70
     0
  9
$DIMDEC
 70
     2
  9
$DIMTDEC
 70
     2
  9
$DIMALTU
 70
     2
  9
$DIMALTTD
 70
     3
  9
$DIMTXSTY
  7
Standard
  9
$DIMAUNIT
 70
     0
  9
$DIMADEC
 70
     2
  9
$DIMALTRND
 40
0.0
  9
$DIMAZIN
 70
     0
  9
$DIMDSEP
 70
    44
  9
$DIMATFIT
 70
     3
  9
$DIMFRAC
 70
     0
  9
$DIMLDRBLK
  1

  9
$DIMLUNIT
 70
     2
  9
$DIMLWD
 70
    -2
  9
$DIMLWE
 70
    -2
  9
$DIMTMOVE
 70
     0
  9
$DIMFXL
 40
1.0
  9
$DIMFXLON
 70
     0
  9
$DIMJOGANG
 40
0.7853981633974483
  9
$DIMTFILL
 70
     0
  9
$DIMTFILLCLR
 70
     0
  9
$DIMARCSYM
 70
     0
  9
$DIMLTYPE
  6

  9
$DIMLTEX1
  6

  9
$DIMLTEX2
  6

  9
$DIMTXTDIRECTION
 70
     0
  9
$LUNITS
 70
     2
  9
$LUPREC
 70
     2
  9
$SKETCHINC
 40
1.0
  9
$FILLETRAD
 40
10.0
  9
$AUNITS
 70
     0
  9
$AUPREC
 70
     2
  9
$MENU
  1
.
  9
$ELEVATION
 40
0.0
  9
$PELEVATION
 40
0.0
  9
$THICKNESS
 40
0.0
  9
$LIMCHECK
 70
     0
  9
$CHAMFERA
 40
0.0
  9
$CHAMFERB
 40
0.0
  9
$CHAMFERC
 40
0.0
  9
$CHAMFERD
 40
0.0
  9
$SKPOLY
 70
     0
  9
$TDCREATE
 40
2459249.556874630
  9
$TDUCREATE
 40
2459249.181874630
  9
$TDUPDATE
 40
2459249.560648391
  9
$TDUUPDATE
 40
2459249.185648391
  9
$TDINDWG
 40
0.0023760417
  9
$TDUSRTIMER
 40
0.0023760417
  9
$USRTIMER
 70
     1
  9
$ANGBASE
 50
0.0
  9
$ANGDIR
 70
     0
  9
$PDMODE
 70
     0
  9
$PDSIZE
 40
-1.0
  9
$PLINEWID
 40
0.0
  9
$SPLFRAME
 70
     0
  9
$SPLINETYPE
 70
     6
  9
$SPLINESEGS
 70
     8
  9
$HANDSEED
  5
78A
  9
$SURFTAB1
 70
     6
  9
$SURFTAB2
 70
     6
  9
$SURFTYPE
 70
     6
  9
$SURFU
 70
     6
  9
$SURFV
 70
     6
  9
$UCSBASE
  2

  9
$UCSNAME
  2

  9
$UCSORG
 10
0.0
 20
0.0
 30
0.0
  9
$UCSXDIR
 10
1.0
 20
0.0
 30
0.0
  9
$UCSYDIR
 10
0.0
 20
1.0
 30
0.0
  9
$UCSORTHOREF
  2

  9
$UCSORTHOVIEW
 70
     0
  9
$UCSORGTOP
 10
0.0
 20
0.0
 30
0.0
  9
$UCSORGBOTTOM
 10
0.0
 20
0.0
 30
0.0
  9
$UCSORGLEFT
 10
0.0
 20
0.0
 30
0.0
  9
$UCSORGRIGHT
 10
0.0
 20
0.0
 30
0.0
  9
$UCSORGFRONT
 10
0.0
 20
0.0
 30
0.0
  9
$UCSORGBACK
 10
0.0
 20
0.0
 30
0.0
  9
$PUCSBASE
  2

  9
$PUCSNAME
  2

  9
$PUCSORG
 10
0.0
 20
0.0
 30
0.0
  9
$PUCSXDIR
 10
1.0
 20
0.0
 30
0.0
  9
$PUCSYDIR
 10
0.0
 20
1.0
 30
0.0
  9
$PUCSORTHOREF
  2

  9
$PUCSORTHOVIEW
 70
     0
  9
$PUCSORGTOP
 10
0.0
 20
0.0
 30
0.0
  9
$PUCSORGBOTTOM
 10
0.0
 20
0.0
 30
0.0
  9
$PUCSORGLEFT
 10
0.0
 20
0.0
 30
0.0
  9
$PUCSORGRIGHT
 10
0.0
 20
0.0
 30
0.0
  9
$PUCSORGFRONT
 10
0.0
 20
0.0
 30
0.0
  9
$PUCSORGBACK
 10
0.0
 20
0.0
 30
0.0
  9
$USERI1
 70
     0
  9
$USERI2
 70
     0
  9
$USERI3
 70
     0
  9
$USERI4
 70
     0
  9
$USERI5
 70
     0
  9
$USERR1
 40
0.0
  9
$USERR2
 40
0.0
  9
$USERR3
 40
0.0
  9
$USERR4
 40
0.0
  9
$USERR5
 40
0.0
  9
$WORLDVIEW
 70
     1
  9
$SHADEDGE
 70
     3
  9
$SHADEDIF
 70
    70
  9
$TILEMODE
 70
     1
  9
$MAXACTVP
 70
    64
  9
$PINSBASE
 10
0.0
 20
0.0
 30
0.0
  9
$PLIMCHECK
 70
     0
  9
$PEXTMIN
 10
1.000000000000000E+20
 20
1.000000000000000E+20
 30
1.000000000000000E+20
  9
$PEXTMAX
 10
-1.000000000000000E+20
 20
-1.000000000000000E+20
 30
-1.000000000000000E+20
  9
$PLIMMIN
 10
0.0
 20
0.0
  9
$PLIMMAX
 10
420.0
 20
297.0
  9
$UNITMODE
 70
     0
  9
$VISRETAIN
 70
     1
  9
$PLINEGEN
 70
     0
  9
$PSLTSCALE
 70
     1
  9
$TREEDEPTH
 70
  3020
  9
$CMLSTYLE
  2
Standard
  9
$CMLJUST
 70
     0
  9
$CMLSCALE
 40
20.0
  9
$PROXYGRAPHICS
 70
     1
  9
$MEASUREMENT
 70
     1
  9
$CELWEIGHT
370
    -1
  9
$ENDCAPS
280
     0
  9
$JOINSTYLE
280
     0
  9
$LWDISPLAY
290
     1
  9
$INSUNITS
 70
     4
  9
$HYPERLINKBASE
  1

  9
$STYLESHEET
  1

  9
$XEDIT
290
     1
  9
$CEPSNTYPE
380
     0
  9
$PSTYLEMODE
290
     1
  9
$FINGERPRINTGUID
  2
{FB80D319-F0F1-448D-B25F-376090029837}
  9
$VERSIONGUID
  2
{497DEC16-F3E6-416A-A2A4-B950383AA44A}
  9
$EXTNAMES
290
     1
  9
$PSVPSCALE
 40
0.0
  9
$OLESTARTUP
290
     0
  9
$SORTENTS
280
   127
  9
$INDEXCTL
280
     0
  9
$HIDETEXT
280
     0
  9
$XCLIPFRAME
280
     2
  9
$HALOGAP
280
     0
  9
$OBSCOLOR
 70
   257
  9
$OBSLTYPE
280
     0
  9
$INTERSECTIONDISPLAY
280
     0
  9
$INTERSECTIONCOLOR
 70
   257
  9
$DIMASSOC
280
     1
  9
$PROJECTNAME
  1

  9
$CAMERADISPLAY
290
     0
  9
$LENSLENGTH
 40
50.0
  9
$CAMERAHEIGHT
 40
0.0
  9
$STEPSPERSEC
 40
2.0
  9
$STEPSIZE
 40
6.0
  9
$3DDWFPREC
 40
2.0
  9
$PSOLWIDTH
 40
0.25
  9
$PSOLHEIGHT
 40
4.0
  9
$LOFTANG1
 40
1.570796326794896
  9
$LOFTANG2
 40
1.570796326794896
  9
$LOFTMAG1
 40
0.0
  9
$LOFTMAG2
 40
0.0
  9
$LOFTPARAM
 70
     7
  9
$LOFTNORMALS
280
     1
  9
$LATITUDE
 40
37.795
  9
$LONGITUDE
 40
-122.394
  9
$NORTHDIRECTION
 40
0.0
  9
$TIMEZONE
 70
 -8000
  9
$LIGHTGLYPHDISPLAY
280
     1
  9
$TILEMODELIGHTSYNCH
280
     1
  9
$CMATERIAL
347
6CF
  9
$SOLIDHIST
280
     0
  9
$SHOWHIST
280
     1
  9
$DWFFRAME
280
     2
  9
$DGNFRAME
280
     0
  9
$REALWORLDSCALE
290
     1
  9
$INTERFERECOLOR
 62
     1
  9
$INTERFEREOBJVS
345
6F1
  9
$INTERFEREVPVS
346
6EE
  9
$CSHADOW
280
     0
  9
$SHADOWPLANELOCATION
 40
0.0
  0
ENDSEC
  0
SECTION
  2
CLASSES
  0
CLASS
  1
ACDBDICTIONARYWDFLT
  2
AcDbDictionaryWithDefault
  3
ObjectDBX Classes
 90
        0
 91
        1
280
     0
281
     0
  0
CLASS
  1
VISUALSTYLE
  2
AcDbVisualStyle
  3
ObjectDBX Classes
 90
     4095
 91
       24
280
     0
281
     0
  0
CLASS
  1
MATERIAL
  2
AcDbMaterial
  3
ObjectDBX Classes
 90
     1153
 91
        3
280
     0
281
     0
  0
CLASS
  1
SCALE
  2
AcDbScale
  3
ObjectDBX Classes
 90
     1153
 91
       33
280
     0
281
     0
  0
CLASS
  1
TABLESTYLE
  2
AcDbTableStyle
  3
ObjectDBX Classes
 90
     4095
 91
        1
280
     0
281
     0
  0
CLASS
  1
MLEADERSTYLE
  2
AcDbMLeaderStyle
  3
ACDB_MLEADERSTYLE_CLASS
 90
     4095
 91
        1
280
     0
281
     0
  0
CLASS
  1
SUN
  2
AcDbSun
  3
SCENEOE
 90
     1153
 91
        0
280
     0
281
     0
  0
CLASS
  1
ACDBSECTIONVIEWSTYLE
  2
AcDbSectionViewStyle
  3
ObjectDBX Classes
 90
     1025
 91
        1
280
     0
281
     0
  0
CLASS
  1
ACDBDETAILVIEWSTYLE
  2
AcDbDetailViewStyle
  3
ObjectDBX Classes
 90
     1025
 91
        1
280
     0
281
     0
  0
CLASS
  1
CELLSTYLEMAP
  2
AcDbCellStyleMap
  3
ObjectDBX Classes
 90
     1152
 91
        2
280
     0
281
     0
  0
CLASS
  1
DICTIONARYVAR
  2
AcDbDictionaryVar
  3
ObjectDBX Classes
 90
        0
 91
        9
280
     0
281
     0
  0
ENDSEC
  0
SECTION
  2
TABLES
  0
TABLE
  2
VPORT
  5
8
330
0
100
AcDbSymbolTable
 70
     1
  0
VPORT
  5
29
330
8
100
AcDbSymbolTableRecord
100
AcDbViewportTableRecord
  2
*Active
 70
     0
 10
0.0
 20
0.0
 11
1.0
 21
1.0
 12
193.3694467593094
 22
114.3750922045147
 13
0.0
 23
0.0
 14
10.0
 24
10.0
 15
10.0
 25
10.0
 16
0.0
 26
0.0
 36
1.0
 17
0.0
 27
0.0
 37
0.0
 40
172.4570296097079
 41
1.865577889447236
 42
50.0
 43
0.0
 44
0.0
 50
0.0
 51
0.0
 71
     0
 72
  2000
 73
     1
 74
     3
 75
     0
 76
     0
 77
     0
 78
     0
281
     0
 65
     1
110
0.0
120
0.0
130
0.0
111
1.0
121
0.0
131
0.0
112
0.0
122
1.0
132
0.0
 79
     0
146
0.0
348
6ED
 60
     3
 61
     5
292
     1
282
     1
141
0.0
142
0.0
 63
   250
421
  3355443
1001
ACAD_NAV_VCDISPLAY
1070
     3
  0
ENDTAB
  0
TABLE
  2
LTYPE
  5
5
330
0
100
AcDbSymbolTable
 70
     7
  0
LTYPE
  5
14
330
5
100
AcDbSymbolTableRecord
100
AcDbLinetypeTableRecord
  2
ByBlock
 70
     0
  3

 72
    65
 73
     0
 40
0.0
  0
LTYPE
  5
15
330
5
100
AcDbSymbolTableRecord
100
AcDbLinetypeTableRecord
  2
ByLayer
 70
     0
  3

 72
    65
 73
     0
 40
0.0
  0
LTYPE
  5
16
330
5
100
AcDbSymbolTableRecord
100
AcDbLinetypeTableRecord
  2
Continuous
 70
     0
  3
Solid line
 72
    65
 73
     0
 40
0.0
  0
LTYPE
  5
6E
330
5
100
AcDbSymbolTableRecord
100
AcDbLinetypeTableRecord
  2
HIDDEN
 70
     0
  3
Hidden __ __ __ __ __ __ __ __ __ __ __ __ __ __
 72
    65
 73
     2
 40
1.905
 49
1.27
 74
     0
 49
-0.635
 74
     0
  0
LTYPE
  5
6F
330
5
100
AcDbSymbolTableRecord
100
AcDbLinetypeTableRecord
  2
PHANTOM
 70
     0
  3
Phantom ______  __  __  ______  __  __  ______
 72
    65
 73
     6
 40
12.7
 49
6.349999999999998
 74
     0
 49
-1.27
 74
     0
 49
1.27
 74
     0
 49
-1.27
 74
     0
 49
1.27
 74
     0
 49
-1.27
 74
     0
  0
LTYPE
  5
70
330
5
100
AcDbSymbolTableRecord
100
AcDbLinetypeTableRecord
  2
CENTER
 70
     0
  3
Center ____ _ ____ _ ____ _ ____ _ ____ _ ____
 72
    65
 73
     4
 40
10.16
 49
6.349999999999998
 74
     0
 49
-1.27
 74
     0
 49
1.27
 74
     0
 49
-1.27
 74
     0
  0
LTYPE
  5
71
330
5
100
AcDbSymbolTableRecord
100
AcDbLinetypeTableRecord
  2
CENTERX2
 70
     0
  3
Center (2x) ________  __  ________  __  _____
 72
    65
 73
     4
 40
20.32
 49
12.7
 74
     0
 49
-2.54
 74
     0
 49
2.54
 74
     0
 49
-2.54
 74
     0
  0
LTYPE
  5
72
330
5
100
AcDbSymbolTableRecord
100
AcDbLinetypeTableRecord
  2
DOT2
 70
     0
  3
Dot (.5x) ........................................
 72
    65
 73
     2
 40
0.635
 49
0.0
 74
     0
 49
-0.635
 74
     0
  0
ENDTAB
  0
TABLE
  2
LAYER
  5
2
102
{ACAD_XDICTIONARY
360
77B
102
}
330
0
100
AcDbSymbolTable
 70
     3
  0
LAYER
  5
10
102
{ACAD_XDICTIONARY
360
70D
102
}
330
2
100
AcDbSymbolTableRecord
100
AcDbLayerTableRecord
  2
0
 70
     0
 62
     7
  6
Continuous
370
    -3
390
F
347
6DF
348
0
  0
LAYER
  5
73
102
{ACAD_XDICTIONARY
360
70F
102
}
330
2
100
AcDbSymbolTableRecord
100
AcDbLayerTableRecord
  2
FORMAT
 70
     0
 62
     7
  6
Continuous
370
    -3
390
F
347
6DF
348
0
  0
LAYER
  5
779
102
{ACAD_XDICTIONARY
360
77A
102
}
330
2
100
AcDbSymbolTableRecord
100
AcDbLayerTableRecord
  2
7：文字
 70
     0
 62
     2
  6
Continuous
370
    -3
390
F
347
6DF
348
0
  0
ENDTAB
  0
TABLE
  2
STYLE
  5
3
330
0
100
AcDbSymbolTable
 70
     3
  0
STYLE
  5
11
330
3
100
AcDbSymbolTableRecord
100
AcDbTextStyleTableRecord
  2
Standard
 70
     0
 40
0.0
 41
1.0
 50
0.0
 71
     0
 42
3.5
  3
txt
  4
bigfont
  0
STYLE
  5
A9
330
3
100
AcDbSymbolTableRecord
100
AcDbTextStyleTableRecord
  2
SLDTEXTSTYLE0
 70
     0
 40
0.0
 41
0.75
 50
0.0
 71
     0
 42
3.5
  3
TXT
  4
bigfont
  0
STYLE
  5
C3
330
3
100
AcDbSymbolTableRecord
100
AcDbTextStyleTableRecord
  2
SLDTEXTSTYLE1
 70
     0
 40
0.0
 41
0.6875
 50
0.0
 71
     0
 42
3.5
  3
TXT
  4
bigfont
  0
ENDTAB
  0
TABLE
  2
VIEW
  5
6
330
0
100
AcDbSymbolTable
 70
     0
  0
ENDTAB
  0
TABLE
  2
UCS
  5
7
330
0
100
AcDbSymbolTable
 70
     0
  0
ENDTAB
  0
TABLE
  2
APPID
  5
9
330
0
100
AcDbSymbolTable
 70
     3
  0
APPID
  5
12
330
9
100
AcDbSymbolTableRecord
100
AcDbRegAppTableRecord
  2
ACAD
 70
     0
  0
APPID
  5
711
330
9
100
AcDbSymbolTableRecord
100
AcDbRegAppTableRecord
  2
ACAD_NAV_VCDISPLAY
 70
     0
  0
APPID
  5
784
330
9
100
AcDbSymbolTableRecord
100
AcDbRegAppTableRecord
  2
ACAD_EXEMPT_FROM_CAD_STANDARDS
 70
     0
  0
ENDTAB
  0
TABLE
  2
DIMSTYLE
  5
A
330
0
100
AcDbSymbolTable
 70
     1
100
AcDbDimStyleTable
 71
     0
  0
DIMSTYLE
105
27
330
A
100
AcDbSymbolTableRecord
100
AcDbDimStyleTableRecord
  2
ISO-25
 70
     0
 41
2.5
 42
0.625
 43
3.75
 44
1.25
 73
     0
 74
     0
 77
     1
 78
     8
140
2.5
141
2.5
143
0.03937007874016
147
0.625
171
     3
172
     1
271
     2
272
     2
274
     3
278
    44
283
     0
284
     8
340
11
  0
ENDTAB
  0
TABLE
  2
BLOCK_RECORD
  5
1
330
0
100
AcDbSymbolTable
 70
     4
  0
BLOCK_RECORD
  5
1F
330
1
100
AcDbSymbolTableRecord
100
AcDbBlockTableRecord
  2
*Model_Space
340
22
 70
     0
280
     1
281
     0
  0
BLOCK_RECORD
  5
1B
330
1
100
AcDbSymbolTableRecord
100
AcDbBlockTableRecord
  2
*Paper_Space
340
1E
 70
     0
280
     1
281
     0
  0
BLOCK_RECORD
  5
23
330
1
100
AcDbSymbolTableRecord
100
AcDbBlockTableRecord
  2
*Paper_Space0
340
26
 70
     0
280
     1
281
     0
  0
BLOCK_RECORD
  5
CE
330
1
100
AcDbSymbolTableRecord
100
AcDbBlockTableRecord
  2
SW_NOTE_0
340
0
 70
     0
280
     1
281
     0
  0
BLOCK_RECORD
  5
D6
330
1
100
AcDbSymbolTableRecord
100
AcDbBlockTableRecord
  2
SW_NOTE_0_1
340
0
 70
     0
280
     1
281
     0
  0
ENDTAB
  0
ENDSEC
  0
SECTION
  2
BLOCKS
  0
BLOCK
  5
20
330
1F
100
AcDbEntity
  8
0
100
AcDbBlockBegin
  2
*Model_Space
 70
     0
 10
0.0
 20
0.0
 30
0.0
  3
*Model_Space
  1

  0
ENDBLK
  5
21
330
1F
100
AcDbEntity
  8
0
100
AcDbBlockEnd
  0
BLOCK
  5
1C
330
1B
100
AcDbEntity
 67
     1
  8
0
100
AcDbBlockBegin
  2
*Paper_Space
 70
     0
 10
0.0
 20
0.0
 30
0.0
  3
*Paper_Space
  1

  0
ENDBLK
  5
1D
330
1B
100
AcDbEntity
 67
     1
  8
0
100
AcDbBlockEnd
  0
BLOCK
  5
24
330
23
100
AcDbEntity
 67
     1
  8
0
100
AcDbBlockBegin
  2
*Paper_Space0
 70
     0
 10
0.0
 20
0.0
 30
0.0
  3
*Paper_Space0
  1

  0
ENDBLK
  5
25
330
23
100
AcDbEntity
 67
     1
  8
0
100
AcDbBlockEnd
  0
BLOCK
  5
CF
330
CE
100
AcDbEntity
  8
0
100
AcDbBlockBegin
  2
SW_NOTE_0
 70
     0
 10
0.0
 20
0.0
 30
0.0
  3
SW_NOTE_0
  1

  0
MTEXT
  5
D1
330
CE
100
AcDbEntity
  8
0
  6
Continuous
 62
     0
370
     0
100
AcDbMText
 10
0.0
 20
1.933601609657948
 30
0.0
 40
1.5
 41
0.0
 46
0.0
 71
     1
 72
     1
  1
DEBUR AND
  7
SLDTEXTSTYLE0
 73
     1
 44
1.0
  0
MTEXT
  5
D2
330
CE
100
AcDbEntity
  8
0
  6
Continuous
 62
     0
370
     0
100
AcDbMText
 10
0.0
 20
-0.5663983344626964
 30
0.0
 40
1.5
 41
0.0
 46
0.0
 71
     1
 72
     1
  1
BREAK SHARP
  7
SLDTEXTSTYLE0
 73
     1
 44
1.0
  0
MTEXT
  5
D3
330
CE
100
AcDbEntity
  8
0
  6
Continuous
 62
     0
370
     0
100
AcDbMText
 10
0.0
 20
-3.066398278583341
 30
0.0
 40
1.5
 41
0.0
 46
0.0
 71
     1
 72
     1
  1
EDGES
  7
SLDTEXTSTYLE0
 73
     1
 44
1.0
  0
ENDBLK
  5
D0
330
CE
100
AcDbEntity
  8
0
100
AcDbBlockEnd
  0
BLOCK
  5
D7
330
D6
100
AcDbEntity
  8
0
100
AcDbBlockBegin
  2
SW_NOTE_0_1
 70
     0
 10
0.0
 20
0.0
 30
0.0
  3
SW_NOTE_0_1
  1

  0
MTEXT
  5
D9
330
D6
100
AcDbEntity
  8
0
  6
Continuous
 62
     0
370
     0
100
AcDbMText
 10
0.0
 20
1.933601609657948
 30
0.0
 40
1.5
 41
0.0
 46
0.0
 71
     1
 72
     1
  1
UNLESS OTHERWISE SPECIFIED:
  7
SLDTEXTSTYLE0
 73
     1
 44
1.0
  0
MTEXT
  5
DA
330
D6
100
AcDbEntity
  8
0
  6
Continuous
 62
     0
370
     0
100
AcDbMText
 10
0.0
 20
-0.5663983344626964
 30
0.0
 40
1.5
 41
0.0
 46
0.0
 71
     1
 72
     1
  1
DIMENSIONS ARE IN MILLIMETERS
  7
SLDTEXTSTYLE0
 73
     1
 44
1.0
  0
MTEXT
  5
DB
330
D6
100
AcDbEntity
  8
0
  6
Continuous
 62
     0
370
     0
100
AcDbMText
 10
0.0
 20
-3.066398278583341
 30
0.0
 40
1.5
 41
0.0
 46
0.0
 71
     1
 72
     1
  1
SURFACE FINISH:
  7
SLDTEXTSTYLE0
 73
     1
 44
1.0
  0
MTEXT
  5
DC
330
D6
100
AcDbEntity
  8
0
  6
Continuous
 62
     0
370
     0
100
AcDbMText
 10
0.0
 20
-5.566398222703987
 30
0.0
 40
1.5
 41
0.0
 46
0.0
 71
     1
 72
     1
  1
TOLERANCES:
  7
SLDTEXTSTYLE0
 73
     1
 44
1.0
  0
MTEXT
  5
DD
330
D6
100
AcDbEntity
  8
0
  6
Continuous
 62
     0
370
     0
100
AcDbMText
 10
1.687500000000007
 20
-8.066398166824633
 30
0.0
 40
1.5
 41
0.0
 46
0.0
 71
     1
 72
     1
  1
LINEAR:
  7
SLDTEXTSTYLE0
 73
     1
 44
1.0
  0
MTEXT
  5
DE
330
D6
100
AcDbEntity
  8
0
  6
Continuous
 62
     0
370
     0
100
AcDbMText
 10
1.687500000000007
 20
-10.56639811094528
 30
0.0
 40
1.5
 41
0.0
 46
0.0
 71
     1
 72
     1
  1
ANGULAR:
  7
SLDTEXTSTYLE0
 73
     1
 44
1.0
  0
ENDBLK
  5
D8
330
D6
100
AcDbEntity
  8
0
100
AcDbBlockEnd
  0
ENDSEC
  0
SECTION
  2
ENTITIES
  0
LINE
  5
5B8
330
1F
100
AcDbEntity
  8
0
  6
Continuous
 62
     7
370
    25
100
AcDbLine
 10
349.0113354654924
 20
75.16093726869155
 30
0.0
 11
349.7613354654924
 21
75.16093726869155
 31
0.0
  0
LINE
  5
5B9
330
1F
100
AcDbEntity
  8
0
  6
Continuous
 62
     7
370
    25
100
AcDbLine
 10
330.2613354654923
 20
75.16093726869155
 30
0.0
 11
331.0113354654923
 21
75.16093726869155
 31
0.0
  0
SPLINE
  5
5BA
330
1F
100
AcDbEntity
  8
0
  6
Continuous
 62
     7
370
    25
100
AcDbSpline
210
0.0
220
0.0
230
1.0
 70
     8
 71
     3
 72
    37
 73
    33
 74
     0
 42
0.000000001
 43
0.0000000001
 40
0.0
 40
0.0
 40
0.0
 40
0.0
 40
0.043061213696433
 40
0.0788571520162214
 40
0.1053183176930187
 40
0.1256654244020791
 40
0.1447998369456916
 40
0.1628516664885894
 40
0.2094250457532111
 40
0.2537922142018838
 40
0.2940588856733606
 40
0.335162384800347
 40
0.360191761796363
 40
0.3916571076834057
 40
0.4254916932940097
 40
0.453606321816927
 40
0.4759554367874613
 40
0.4964642161842889
 40
0.5312822814348576
 40
0.5688773625627464
 40
0.6095692753395418
 40
0.652751045383404
 40
0.7010765636493839
 40
0.7531075207462429
 40
0.785557139440908
 40
0.8156176262412682
 40
0.8412656082757388
 40
0.8628869576182095
 40
0.8856270372156885
 40
0.9170377282021286
 40
0.9572979926255534
 40
1.0
 40
1.0
 40
1.0
 40
1.0
 10
54.41705212842737
 20
183.4091523180601
 30
0.0
 10
55.05342494272031
 20
182.2269073723773
 30
0.0
 10
56.2188019362593
 20
180.0618855023634
 30
0.0
 10
57.86902777721536
 20
177.1552606138144
 30
0.0
 10
59.197078250569
 20
174.8886674636207
 30
0.0
 10
60.27417124669341
 20
173.0997258541514
 30
0.0
 10
61.2295205979691
 20
171.5481244760539
 30
0.0
 10
62.63680011478846
 20
169.3113042466233
 30
0.0
 10
64.51270021813275
 20
166.4390228910692
 30
0.0
 10
66.86298650118556
 20
163.0306789553934
 30
0.0
 10
69.18926596918936
 20
159.8267834305301
 30
0.0
 10
71.21765325288141
 20
157.1692527179538
 30
0.0
 10
73.12004506228447
 20
154.7765711662458
 30
0.0
 10
74.91307923348109
 20
152.5994473667827
 30
0.0
 10
76.82183536118623
 20
150.375142950415
 30
0.0
 10
78.59127689787669
 20
148.3933054494046
 30
0.0
 10
80.10449505561007
 20
146.7525949722887
 30
0.0
 10
81.78209461005691
 20
144.9829083971931
 30
0.0
 10
83.82614895380129
 20
142.9022804684043
 30
0.0
 10
86.36975357557275
 20
140.4326435275314
 30
0.0
 10
89.16782719645357
 20
137.8524189878364
 30
0.0
 10
92.28468036438767
 20
135.1337778618506
 30
0.0
 10
95.75130435441042
 20
132.2889337812245
 30
0.0
 10
99.0429183583609
 20
129.762739091279
 30
0.0
 10
101.9376068051858
 20
127.6643685759318
 30
0.0
 10
104.1933003432916
 20
126.0991639664573
 30
0.0
 10
106.199268536433
 20
124.761612070175
 30
0.0
 10
108.0335517760643
 20
123.5802720334578
 30
0.0
 10
110.0313211858978
 20
122.334957144996
 30
0.0
 10
112.5490739551908
 20
120.8307512633059
 30
0.0
 10
115.6383438028318
 20
119.0727850817044
 30
0.0
 10
117.9287113436455
 20
117.8855141500613
 30
0.0
 10
119.1076001264438
 20
117.2744068240467
 30
0.0
  0
SPLINE
  5
5BB
330
1F
100
AcDbEntity
  8
0
  6
Continuous
 62
     7
370
    25
100
AcDbSpline
210
0.0
220
0.0
230
1.0
 70
     8
 71
     3
 72
    11
 73
     7
 74
     0
 42
0.000000001
 43
0.0000000001
 40
0.0
 40
0.0
 40
0.0
 40
0.0
 40
0.1042480398032907
 40
0.2197637511061786
 40
0.4695913045425263
 40
1.0
 40
1.0
 40
1.0
 40
1.0
 10
64.99706605457288
 20
186.186140827297
 30
0.0
 10
65.0433392608711
 20
186.1529707754444
 30
0.0
 10
65.14088712278817
 20
186.0830454796473
 30
0.0
 10
65.35314415107302
 20
185.8775415726363
 30
0.0
 10
65.7336185597087
 20
185.4231915009591
 30
0.0
 10
65.98861168201176
 20
184.9610453363872
 30
0.0
 10
66.16195734435916
 20
184.646875949091
 30
0.0
  0
LINE
  5
5BC
330
1F
100
AcDbEntity
  8
0
  6
Continuous
 62
     7
370
    25
100
AcDbLine
 10
68.57124395883613
 20
177.8950618018222
 30
0.0
 11
68.57294071680121
 21
177.7255349583803
 31
0.0
  0
SPLINE
  5
5BD
330
1F
100
AcDbEntity
  8
0
  6
Continuous
 62
     7
370
    25
100
AcDbSpline
210
0.0
220
0.0
230
1.0
 70
     8
 71
     3
 72
    11
 73
     7
 74
     0
 42
0.000000001
 43
0.0000000001
 40
0.0
 40
0.0
 40
0.0
 40
0.0
 40
0.2792019011996746
 40
0.5562755667968938
 40
0.8300976480546605
 40
1.0
 40
1.0
 40
1.0
 40
1.0
 10
67.03781985457658
 20
182.9433252222535
 30
0.0
 10
67.29140189647011
 20
182.4280646001759
 30
0.0
 10
67.79663303378504
 20
181.4014709653803
 30
0.0
 10
68.30169240581676
 20
179.9326662341398
 30
0.0
 10
68.59851185582932
 20
178.7124305533639
 30
0.0
 10
68.57879395493103
 20
178.1213766835299
 30
0.0
 10
68.57124395883613
 20
177.8950618018222
 30
0.0
  0
LINE
  5
5BE
330
1F
100
AcDbEntity
  8
0
  6
Continuous
 62
     7
370
    25
100
AcDbLine
 10
66.15509171740836
 20
184.6602360968957
 30
0.0
 11
67.03781831757464
 21
182.9434528984942
 31
0.0
  0
SPLINE
  5
5BF
330
1F
100
AcDbEntity
  8
0
  6
Continuous
 62
     7
370
    25
100
AcDbSpline
210
0.0
220
0.0
230
1.0
 70
     8
 71
     3
 72
    19
 73
    15
 74
     0
 42
0.000000001
 43
0.0000000001
 40
0.0
 40
0.0
 40
0.0
 40
0.0
 40
0.0813531195846225
 40
0.1482386986766704
 40
0.2006572967711143
 40
0.2388178790023123
 40
0.2794481790718976
 40
0.3331282000784798
 40
0.399856847002946
 40
0.4883276763277451
 40
0.5925826251638517
 40
0.7126175712109341
 40
0.8484264037415623
 40
1.0
 40
1.0
 40
1.0
 40
1.0
 10
119.8551749974324
 20
116.9019758871881
 30
0.0
 10
121.126752757641
 20
116.3344476189326
 30
0.0
 10
123.4437755516285
 20
115.3003182287142
 30
0.0
 10
126.583991540005
 20
113.899187341626
 30
0.0
 10
129.0486938063626
 20
112.7996084533558
 30
0.0
 10
131.0992750690795
 20
111.8848523096173
 30
0.0
 10
133.1652048092998
 20
110.9632700076854
 30
0.0
 10
135.677730664817
 20
109.8425115316383
 30
0.0
 10
138.9382361727424
 20
108.3881575453985
 30
0.0
 10
142.992173877831
 20
106.5799366312984
 30
0.0
 10
147.8848344371056
 20
104.3975652544455
 30
0.0
 10
153.5249078481388
 20
101.8813682898343
 30
0.0
 10
159.912809548729
 20
99.03070049489825
 30
0.0
 10
164.4207896058997
 20
97.0165830532944
 30
0.0
 10
166.7984253994514
 20
95.95428072257389
 30
0.0
  0
SPLINE
  5
5C0
330
1F
100
AcDbEntity
  8
0
  6
Continuous
 62
     7
370
    25
100
AcDbSpline
210
0.0
220
0.0
230
1.0
 70
     8
 71
     3
 72
    12
 73
     8
 74
     0
 42
0.000000001
 43
0.0000000001
 40
0.0
 40
0.0
 40
0.0
 40
0.0
 40
0.1938388101389739
 40
0.4270288069712528
 40
0.6030200815556077
 40
0.7943052063503347
 40
1.0
 40
1.0
 40
1.0
 40
1.0
 10
285.853745904637
 20
52.77496678094974
 30
0.0
 10
286.7581039580896
 20
52.81613639137635
 30
0.0
 10
288.7504136527473
 20
52.9068334484381
 30
0.0
 10
291.5709048291153
 20
53.44341544400982
 30
0.0
 10
294.4408324829933
 20
54.26601707451664
 30
0.0
 10
297.2348219375333
 20
55.30420284467641
 30
0.0
 10
299.2310444095563
 20
56.29116662587049
 30
0.0
 10
300.2653853179593
 20
56.80256103621744
 30
0.0
  0
SPLINE
  5
5C1
330
1F
100
AcDbEntity
  8
0
  6
Continuous
 62
     7
370
    25
100
AcDbSpline
210
0.0
220
0.0
230
1.0
 70
     8
 71
     3
 72
    22
 73
    18
 74
     0
 42
0.000000001
 43
0.0000000001
 40
0.0
 40
0.0
 40
0.0
 40
0.0
 40
0.1043513763285967
 40
0.2014787937591707
 40
0.2919032508333719
 40
0.3760837486391129
 40
0.4515970643546161
 40
0.5129031085927628
 40
0.5495045772506956
 40
0.5780916769846653
 40
0.5936485956159672
 40
0.6158288477912297
 40
0.646949547884921
 40
0.7102596580609908
 40
0.7932739372594151
 40
0.8955946886880726
 40
1.0
 40
1.0
 40
1.0
 40
1.0
 10
300.2161652179801
 20
56.77686050325419
 30
0.0
 10
301.3764262104439
 20
57.41703160367126
 30
0.0
 10
303.6166265166797
 20
58.65305651919675
 30
0.0
 10
306.9131371445418
 20
60.88289104923936
 30
0.0
 10
309.9678780800959
 20
63.18213922469098
 30
0.0
 10
312.7439729395973
 20
65.47470399627655
 30
0.0
 10
315.1586256252422
 20
67.61387687244971
 30
0.0
 10
317.0489321494645
 20
69.38411236683322
 30
0.0
 10
318.4191069166415
 20
70.7147916474849
 30
0.0
 10
319.2902627056721
 20
71.58057155627426
 30
0.0
 10
320.0035225160223
 20
72.30019351403232
 30
0.0
 10
320.7447719380604
 20
73.05759476314904
 30
0.0
 10
321.9953475066834
 20
74.35785578682234
 30
0.0
 10
323.8836637308484
 20
76.37965750233121
 30
0.0
 10
326.4875123151344
 20
79.29219742422185
 30
0.0
 10
329.4640823315342
 20
82.77293686801106
 30
0.0
 10
331.5070651044916
 20
85.32628456313341
 30
0.0
 10
332.5388568853045
 20
86.61583198382492
 30
0.0
  0
SPLINE
  5
5C2
330
1F
100
AcDbEntity
  8
0
  6
Continuous
 62
     7
370
    25
100
AcDbSpline
210
0.0
220
0.0
230
1.0
 70
     8
 71
     3
 72
    17
 73
    13
 74
     0
 42
0.000000001
 43
0.0000000001
 40
0.0
 40
0.0
 40
0.0
 40
0.0
 40
0.0953221249903393
 40
0.1910523530773959
 40
0.2840350489497505
 40
0.3714360727504525
 40
0.4561124058606251
 40
0.5356643117751513
 40
0.6298272165503108
 40
0.7386030597220933
 40
0.8619934851811049
 40
1.0
 40
1.0
 40
1.0
 40
1.0
 10
166.8017802874675
 20
95.95278160380804
 30
0.0
 10
168.5110716952883
 20
95.1889250089871
 30
0.0
 10
171.936972508895
 20
93.65794151623513
 30
0.0
 10
177.0726083325835
 20
91.35930912678487
 30
0.0
 10
182.0643247957093
 20
89.12280880617734
 30
0.0
 10
186.831277444048
 20
86.984572669372
 30
0.0
 10
191.3289460462276
 20
84.96508194296655
 30
0.0
 10
195.9685900958527
 20
82.88017623856461
 30
0.0
 10
201.0505504850093
 20
80.59456514964074
 30
0.0
 10
206.9302372922258
 20
77.94762059264716
 30
0.0
 10
213.606417689052
 20
74.93923848432903
 30
0.0
 10
218.3248584160272
 20
72.81015132537774
 30
0.0
 10
220.815995303157
 20
71.68608346811769
 30
0.0
  0
LINE
  5
5C3
330
1F
100
AcDbEntity
  8
0
  6
Continuous
 62
     7
370
    25
100
AcDbLine
 10
285.5791566775202
 20
52.77294253429224
 30
0.0
 11
285.8491156059717
 21
52.77491187606916
 31
0.0
  0
LINE
  5
5C4
330
1F
100
AcDbEntity
  8
0
  6
Continuous
 62
     7
370
    25
100
AcDbLine
 10
281.0828066713114
 20
52.77319390808708
 30
0.0
 11
285.5997721371718
 21
52.77315494466975
 31
0.0
  0
SPLINE
  5
5C5
330
1F
100
AcDbEntity
  8
0
  6
Continuous
 62
     7
370
    25
100
AcDbSpline
210
0.0
220
0.0
230
1.0
 70
     8
 71
     3
 72
    10
 73
     6
 74
     0
 42
0.000000001
 43
0.0000000001
 40
0.0
 40
0.0
 40
0.0
 40
0.0
 40
0.0295898684523118
 40
0.6243986005584349
 40
1.0
 40
1.0
 40
1.0
 40
1.0
 10
263.4359423072579
 20
57.46298929551153
 30
0.0
 10
263.4355478487071
 20
57.46361319047764
 30
0.0
 10
263.4272240750686
 20
57.476778478602
 30
0.0
 10
263.4537882327809
 20
57.42683934433026
 30
0.0
 10
263.4292333142576
 20
57.37981788708509
 30
0.0
 10
263.4197292278299
 20
57.36161803058021
 30
0.0
  0
SPLINE
  5
5C6
330
1F
100
AcDbEntity
  8
0
  6
Continuous
 62
     7
370
    25
100
AcDbSpline
210
0.0
220
0.0
230
1.0
 70
     8
 71
     3
 72
    14
 73
    10
 74
     0
 42
0.000000001
 43
0.0000000001
 40
0.0
 40
0.0
 40
0.0
 40
0.0
 40
0.0727017378563675
 40
0.185733412382615
 40
0.3437338147979436
 40
0.5284063366926242
 40
0.7215679559674081
 40
0.8987158419714129
 40
1.0
 40
1.0
 40
1.0
 40
1.0
 10
263.2331142566755
 20
56.66671071209009
 30
0.0
 10
263.2109849118458
 20
56.59594208001187
 30
0.0
 10
263.1544503797941
 20
56.41514723365634
 30
0.0
 10
263.2897737348856
 20
56.12808024927486
 30
0.0
 10
263.5228121815357
 20
55.86347656867406
 30
0.0
 10
263.9498331783979
 20
55.54505661643801
 30
0.0
 10
264.5635604677313
 20
55.19414000718396
 30
0.0
 10
265.2045607108853
 20
54.88005160426633
 30
0.0
 10
265.6495221850253
 20
54.69260385670421
 30
0.0
 10
265.811384115896
 20
54.62441670765617
 30
0.0
  0
LINE
  5
5C7
330
1F
100
AcDbEntity
  8
0
  6
Continuous
 62
     7
370
    25
100
AcDbLine
 10
263.4317953051911
 20
57.36583820373425
 30
0.0
 11
263.2096467056829
 21
56.66106873819268
 31
0.0
  0
LINE
  5
5C8
330
1F
100
AcDbEntity
  8
0
  6
Continuous
 62
     7
370
    25
100
AcDbLine
 10
221.2051630789489
 20
71.52122075677221
 30
0.0
 11
261.7170676958666
 21
54.56348166876356
 31
0.0
  0
SPLINE
  5
5C9
330
1F
100
AcDbEntity
  8
0
  6
Continuous
 62
     7
370
    25
100
AcDbSpline
210
0.0
220
0.0
230
1.0
 70
     8
 71
     3
 72
    10
 73
     6
 74
     0
 42
0.000000001
 43
0.0000000001
 40
0.0
 40
0.0
 40
0.0
 40
0.0
 40
0.3732772554007542
 40
0.8845257863082956
 40
1.0
 40
1.0
 40
1.0
 40
1.0
 10
269.5863710860272
 20
55.03045016454144
 30
0.0
 10
269.7232520596763
 20
54.98085842702983
 30
0.0
 10
270.047608149139
 20
54.86334478272886
 30
0.0
 10
270.4008983142953
 20
54.72569648892045
 30
0.0
 10
270.5976681779789
 20
54.64016046569423
 30
0.0
 10
270.6339231974155
 20
54.62440037862305
 30
0.0
  0
SPLINE
  5
5CA
330
1F
100
AcDbEntity
  8
0
  6
Continuous
 62
     7
370
    25
100
AcDbSpline
210
0.0
220
0.0
230
1.0
 70
     8
 71
     3
 72
    11
 73
     7
 74
     0
 42
0.000000001
 43
0.0000000001
 40
0.0
 40
0.0
 40
0.0
 40
0.0
 40
0.1581402126056448
 40
0.4372671939672605
 40
0.8996691568866101
 40
1.0
 40
1.0
 40
1.0
 40
1.0
 10
268.6888392926217
 20
55.33296157535435
 30
0.0
 10
268.7368801902
 20
55.31773266830595
 30
0.0
 10
268.869716159835
 20
55.27562382487815
 30
0.0
 10
269.1410865265264
 20
55.18625735385658
 30
0.0
 10
269.3952180226149
 20
55.10079181617976
 30
0.0
 10
269.5574469427108
 20
55.04109384441128
 30
0.0
 10
269.5863710860272
 20
55.03045016454144
 30
0.0
  0
SPLINE
  5
5CB
330
1F
100
AcDbEntity
  8
0
  6
Continuous
 62
     7
370
    25
100
AcDbSpline
210
0.0
220
0.0
230
1.0
 70
     8
 71
     3
 72
    14
 73
    10
 74
     0
 42
0.000000001
 43
0.0000000001
 40
0.0
 40
0.0
 40
0.0
 40
0.0
 40
0.2393612518323759
 40
0.4565488337049785
 40
0.6136966382588405
 40
0.7261206454701057
 40
0.806084785206799
 40
0.8627948985888298
 40
0.9999999999999998
 40
0.9999999999999998
 40
0.9999999999999998
 40
0.9999999999999998
 10
266.9929965884783
 20
55.80003936149026
 30
0.0
 10
267.1226214092142
 20
55.76932619582624
 30
0.0
 10
267.3698630169223
 20
55.71074503510814
 30
0.0
 10
267.7169838121147
 20
55.61860255745751
 30
0.0
 10
267.9950183102778
 20
55.54121144903607
 30
0.0
 10
268.1961073460245
 20
55.48300691934347
 30
0.0
 10
268.3397400302297
 20
55.44034530087071
 30
0.0
 10
268.4978112221978
 20
55.39261610028294
 30
0.0
 10
268.6096836972316
 20
55.35768040033094
 30
0.0
 10
268.6888392926217
 20
55.33296157535435
 30
0.0
  0
SPLINE
  5
5CC
330
1F
100
AcDbEntity
  8
0
  6
Continuous
 62
     7
370
    25
100
AcDbSpline
210
0.0
220
0.0
230
1.0
 70
     8
 71
     3
 72
    14
 73
    10
 74
     0
 42
0.000000001
 43
0.0000000001
 40
0.0
 40
0.0
 40
0.0
 40
0.0
 40
0.0109480966193244
 40
0.1846545903327644
 40
0.3919767219572731
 40
0.6104392287083456
 40
0.8109887245888202
 40
0.9764343769356978
 40
1.0
 40
1.0
 40
1.0
 40
1.0
 10
264.6374333958512
 20
56.07252594999846
 30
0.0
 10
264.6359420685749
 20
56.0710676456699
 30
0.0
 10
264.6107887988542
 20
56.04647135302283
 30
0.0
 10
264.7582812252798
 20
56.11638523348151
 30
0.0
 10
265.1008054600713
 20
56.1085501139259
 30
0.0
 10
265.6459760000712
 20
56.06378639824578
 30
0.0
 10
266.2671512351243
 20
55.95816025204436
 30
0.0
 10
266.7246567683396
 20
55.86543186122856
 30
0.0
 10
266.9632492589244
 20
55.80728857347486
 30
0.0
 10
266.9929965884783
 20
55.80003936149026
 30
0.0
  0
SPLINE
  5
5CD
330
1F
100
AcDbEntity
  8
0
  6
Continuous
 62
     7
370
    25
100
AcDbSpline
210
0.0
220
0.0
230
1.0
 70
     8
 71
     3
 72
     9
 73
     5
 74
     0
 42
0.000000001
 43
0.0000000001
 40
0.0
 40
0.0
 40
0.0
 40
0.0
 40
0.4745234355620026
 40
1.0
 40
1.0
 40
1.0
 40
1.0
 10
278.4305441461327
 20
51.46699671125069
 30
0.0
 10
278.5275001542043
 20
51.45315833130607
 30
0.0
 10
278.73182306179
 20
51.42399564110466
 30
0.0
 10
278.9725583432845
 20
51.37829401514735
 30
0.0
 10
279.0990590919435
 20
51.35427888175008
 30
0.0
  0
SPLINE
  5
5CE
330
1F
100
AcDbEntity
  8
0
  6
Continuous
 62
     7
370
    25
100
AcDbSpline
210
0.0
220
0.0
230
1.0
 70
     8
 71
     3
 72
    11
 73
     7
 74
     0
 42
0.000000001
 43
0.0000000001
 40
0.0
 40
0.0
 40
0.0
 40
0.0
 40
0.2501176876070049
 40
0.4997903538348856
 40
0.7495251507322739
 40
1.0
 40
1.0
 40
1.0
 40
1.0
 10
278.2443404856644
 20
51.63313151136541
 30
0.0
 10
278.6022362274104
 20
51.51527221462782
 30
0.0
 10
279.317390925643
 20
51.27976332206291
 30
0.0
 10
280.4391658712252
 20
51.3125813360117
 30
0.0
 10
281.5344036060909
 20
51.6053656481964
 30
0.0
 10
282.1658156477509
 20
52.05763293773992
 30
0.0
 10
282.4819887507149
 20
52.28410114371249
 30
0.0
  0
LINE
  5
5CF
330
1F
100
AcDbEntity
  8
0
  6
Continuous
 62
     7
370
    25
100
AcDbLine
 10
282.785965005281
 20
52.54107192236339
 30
0.0
 11
283.038292419832
 21
52.77317704003539
 31
0.0
  0
LINE
  5
5D0
330
1F
100
AcDbEntity
  8
0
  6
Continuous
 62
     7
370
    25
100
AcDbLine
 10
282.470596070165
 20
52.27154401873599
 30
0.0
 11
282.782845430311
 21
52.53801661744882
 31
0.0
  0
LINE
  5
5D1
330
1F
100
AcDbEntity
  8
0
  6
Continuous
 62
     7
370
    25
100
AcDbLine
 10
265.8041518739434
 20
54.62433496817107
 30
0.0
 11
272.9478781624265
 21
51.62199391597946
 31
0.0
  0
SPLINE
  5
5D2
330
1F
100
AcDbEntity
  8
0
  6
Continuous
 62
     7
370
    25
100
AcDbSpline
210
0.0
220
0.0
230
1.0
 70
     8
 71
     3
 72
    10
 73
     6
 74
     0
 42
0.000000001
 43
0.0000000001
 40
0.0
 40
0.0
 40
0.0
 40
0.0
 40
0.3009141773468055
 40
0.6421145751925256
 40
1.0
 40
1.0
 40
1.0
 40
1.0
 10
261.7186379695906
 20
54.56698693583871
 30
0.0
 10
262.5697236750367
 20
54.245121017114
 30
0.0
 10
264.3858379605899
 20
53.55829795183623
 30
0.0
 10
267.1752152375084
 20
52.94619990523301
 30
0.0
 10
269.157565050671
 20
52.84187265102136
 30
0.0
 10
270.172396251665
 20
52.78846403868411
 30
0.0
  0
LINE
  5
5D3
330
1F
100
AcDbEntity
  8
0
  6
Continuous
 62
     7
370
    25
100
AcDbLine
 10
306.8282059949449
 20
136.3380380496216
 30
0.0
 11
302.1871251364412
 21
138.3405257776959
 31
0.0
  0
SPLINE
  5
5D4
330
1F
100
AcDbEntity
  8
0
  6
Continuous
 62
     7
370
    25
100
AcDbSpline
210
0.0
220
0.0
230
1.0
 70
     8
 71
     3
 72
    23
 73
    19
 74
     0
 42
0.000000001
 43
0.0000000001
 40
0.0
 40
0.0
 40
0.0
 40
0.0
 40
0.0920856085763747
 40
0.1846323886996463
 40
0.2683186089026215
 40
0.3431168053898995
 40
0.4089730473556522
 40
0.4658447174091899
 40
0.5136985762217701
 40
0.5525163246360158
 40
0.5828838993017459
 40
0.617044393376445
 40
0.6599004622485976
 40
0.7114239645918575
 40
0.7714596049325802
 40
0.8397170138701845
 40
0.9159456571844895
 40
1.0
 40
1.0
 40
1.0
 40
1.0
 10
176.5950691283384
 20
194.0877108381629
 30
0.0
 10
174.7748575865953
 20
194.4357551082534
 30
0.0
 10
171.1253187489172
 20
195.1335866799125
 30
0.0
 10
165.7945318320521
 20
196.0202975365641
 30
0.0
 10
160.7977796257228
 20
196.7737071630637
 30
0.0
 10
156.3311686778973
 20
197.3772339971151
 30
0.0
 10
152.3951134526323
 20
197.8556766862307
 30
0.0
 10
148.9925661176767
 20
198.2284638963326
 30
0.0
 10
146.1278732306744
 20
198.5130903915892
 30
0.0
 10
143.7866142915698
 20
198.7258720579872
 30
0.0
 10
141.7272006486256
 20
198.8991301705311
 30
0.0
 10
139.5300491592709
 20
199.0705298494528
 30
0.0
 10
136.8643610991148
 20
199.2581679608744
 30
0.0
 10
133.636541443831
 20
199.4549035290489
 30
0.0
 10
129.8597401837936
 20
199.6436070721873
 30
0.0
 10
125.5534250326177
 20
199.8033718279432
 30
0.0
 10
120.7372968417817
 20
199.9194900590428
 30
0.0
 10
117.3696413036929
 20
199.9347246437062
 30
0.0
 10
115.6036018760658
 20
199.9427138447616
 30
0.0
  0
LINE
  5
5D5
330
1F
100
AcDbEntity
  8
0
  6
Continuous
 62
     7
370
    25
100
AcDbLine
 10
54.65854651153756
 20
191.5335840133244
 30
0.0
 11
51.79417143863895
 21
184.6910145792161
 31
0.0
  0
SPLINE
  5
5D6
330
1F
100
AcDbEntity
  8
0
  6
Continuous
 62
     7
370
    25
100
AcDbSpline
210
0.0
220
0.0
230
1.0
 70
     8
 71
     3
 72
    12
 73
     8
 74
     0
 42
0.000000001
 43
0.0000000001
 40
0.0
 40
0.0
 40
0.0
 40
0.0
 40
0.3289690689208131
 40
0.6387585580284792
 40
0.7864474188984749
 40
0.9306491120386104
 40
1.0
 40
1.0
 40
1.0
 40
1.0
 10
72.63935465163251
 20
195.869264263759
 30
0.0
 10
71.26118433302599
 20
195.7651091909862
 30
0.0
 10
68.58519388711932
 20
195.5628715024585
 30
0.0
 10
65.15054201863961
 20
194.9117035700677
 30
0.0
 10
62.53532666713749
 20
194.2561132740465
 30
0.0
 10
60.97600789926878
 20
193.8114199112352
 30
0.0
 10
60.10453326124935
 20
193.5217397400563
 30
0.0
 10
59.82152314884195
 20
193.4276665287076
 30
0.0
  0
SPLINE
  5
5D7
330
1F
100
AcDbEntity
  8
0
  6
Continuous
 62
     7
370
    25
100
AcDbSpline
210
0.0
220
0.0
230
1.0
 70
     8
 71
     3
 72
    10
 73
     6
 74
     0
 42
0.000000001
 43
0.0000000001
 40
0.0
 40
0.0
 40
0.0
 40
0.0
 40
0.2836008198431503
 40
0.5509359449955607
 40
1.0
 40
1.0
 40
1.0
 40
1.0
 10
77.90739364320484
 20
197.768870785522
 30
0.0
 10
77.63184415887701
 20
197.7356019648177
 30
0.0
 10
77.09654910710288
 20
197.6709724296006
 30
0.0
 10
76.23514012945986
 20
197.5649847056692
 30
0.0
 10
75.64946205349269
 20
197.4915699790457
 30
0.0
 10
75.28233855725511
 20
197.4455510614538
 30
0.0
  0
SPLINE
  5
5D8
330
1F
100
AcDbEntity
  8
0
  6
Continuous
 62
     7
370
    25
100
AcDbSpline
210
0.0
220
0.0
230
1.0
 70
     8
 71
     3
 72
    10
 73
     6
 74
     0
 42
0.000000001
 43
0.0000000001
 40
0.0
 40
0.0
 40
0.0
 40
0.0
 40
0.4695682334754907
 40
0.7232512266549324
 40
0.9999999999999998
 40
0.9999999999999998
 40
0.9999999999999998
 40
0.9999999999999998
 10
82.67490587635029
 20
198.3041747268814
 30
0.0
 10
81.84244626786494
 20
198.215381192818
 30
0.0
 10
80.5602525629772
 20
198.0786171873931
 30
0.0
 10
78.90516685825957
 20
197.8871073294904
 30
0.0
 10
78.20312999709256
 20
197.803836203212
 30
0.0
 10
77.83684755996785
 20
197.7603901211578
 30
0.0
  0
LINE
  5
5D9
330
1F
100
AcDbEntity
  8
0
  6
Continuous
 62
     7
370
    25
100
AcDbLine
 10
115.602471366589
 20
199.9427138389537
 30
0.0
 11
113.3968159682973
 21
199.9232215432505
 31
0.0
  0
SPLINE
  5
5DA
330
1F
100
AcDbEntity
  8
0
  6
Continuous
 62
     7
370
    25
100
AcDbSpline
210
0.0
220
0.0
230
1.0
 70
     8
 71
     3
 72
    19
 73
    15
 74
     0
 42
0.000000001
 43
0.0000000001
 40
0.0
 40
0.0
 40
0.0
 40
0.0
 40
0.053906404614773
 40
0.2193472732063117
 40
0.3625060704651608
 40
0.4820179521777089
 40
0.5323527792471462
 40
0.5764020783344827
 40
0.6192888160232153
 40
0.6650575894771316
 40
0.7149808326488807
 40
0.7874189137871866
 40
0.8846293199930086
 40
1.0
 40
1.0
 40
1.0
 40
1.0
 10
111.4606615705124
 20
199.9061109401718
 30
0.0
 10
110.914604014901
 20
199.9022172395727
 30
0.0
 10
108.6926744187228
 20
199.8863736192238
 30
0.0
 10
105.1071764155708
 20
199.7844442102297
 30
0.0
 10
101.0836758280988
 20
199.6393714734921
 30
0.0
 10
98.13982827906784
 20
199.4950325236548
 30
0.0
 10
96.09234672365142
 20
199.3800455810037
 30
0.0
 10
94.7579893335569
 20
199.2994584234577
 30
0.0
 10
93.46109038620431
 20
199.2160164174125
 30
0.0
 10
92.11531332336404
 20
199.1238686318274
 30
0.0
 10
90.49461246793805
 20
199.0056618294184
 30
0.0
 10
88.36136879753894
 20
198.8369130196735
 30
0.0
 10
85.6219241602513
 20
198.5991681991204
 30
0.0
 10
83.69937681315468
 20
198.4066846405202
 30
0.0
 10
82.65598391902813
 20
198.3022211652342
 30
0.0
  0
SPLINE
  5
5DB
330
1F
100
AcDbEntity
  8
0
  6
Continuous
 62
     7
370
    25
100
AcDbSpline
210
0.0
220
0.0
230
1.0
 70
     8
 71
     3
 72
    18
 73
    14
 74
     0
 42
0.000000001
 43
0.0000000001
 40
0.0
 40
0.0
 40
0.0
 40
0.0
 40
0.0998414366180707
 40
0.185521278944504
 40
0.2489477375320258
 40
0.3190530484712687
 40
0.379045310461157
 40
0.4218735254232806
 40
0.4883528517493517
 40
0.5794298029928413
 40
0.6951101440664411
 40
0.8353370519217362
 40
1.0
 40
1.0
 40
1.0
 40
1.0
 10
207.1546613070295
 20
187.4907834600998
 30
0.0
 10
206.1141250482003
 20
187.7247047717902
 30
0.0
 10
204.1806430785392
 20
188.1593677973552
 30
0.0
 10
201.5833063975811
 20
188.7479695351881
 30
0.0
 10
199.2934868381263
 20
189.2657532617451
 30
0.0
 10
197.281784838403
 20
189.7189672562618
 30
0.0
 10
195.4858680859261
 20
190.1209865521193
 30
0.0
 10
193.7501769661168
 20
190.5069171266739
 30
0.0
 10
191.7397237268948
 20
190.95000184083
 30
0.0
 10
189.0173723161804
 20
191.5415872246998
 30
0.0
 10
185.5823605158232
 20
192.2725720421103
 30
0.0
 10
181.4335526294248
 20
193.1341682890584
 30
0.0
 10
178.4353115788481
 20
193.7290977211256
 30
0.0
 10
176.8160408788583
 20
194.0504033738924
 30
0.0
  0
SPLINE
  5
5DC
330
1F
100
AcDbEntity
  8
0
  6
Continuous
 62
     7
370
    25
100
AcDbSpline
210
0.0
220
0.0
230
1.0
 70
     8
 71
     3
 72
    10
 73
     6
 74
     0
 42
0.000000001
 43
0.0000000001
 40
0.0
 40
0.0
 40
0.0
 40
0.0
 40
0.2224016496402982
 40
0.4696436638866601
 40
1.0
 40
1.0
 40
1.0
 40
1.0
 10
246.5708704024721
 20
180.8590688140699
 30
0.0
 10
244.869217487437
 20
181.134702129011
 30
0.0
 10
241.2758515615411
 20
181.7167546458317
 30
0.0
 10
233.6485296839257
 20
182.9607497094036
 30
0.0
 10
227.6851786554989
 20
183.944884188434
 30
0.0
 10
223.6179105074491
 20
184.6161072643316
 30
0.0
  0
LINE
  5
5DD
330
1F
100
AcDbEntity
  8
0
  6
Continuous
 62
     7
370
    25
100
AcDbLine
 10
216.3934770438004
 20
185.8174099235286
 30
0.0
 11
206.7711125480335
 21
187.5834642434375
 31
0.0
  0
SPLINE
  5
5DE
330
1F
100
AcDbEntity
  8
0
  6
Continuous
 62
     7
370
    25
100
AcDbSpline
210
0.0
220
0.0
230
1.0
 70
     8
 71
     3
 72
    20
 73
    16
 74
     0
 42
0.000000001
 43
0.0000000001
 40
0.0
 40
0.0
 40
0.0
 40
0.0
 40
0.0675688733360583
 40
0.1604538173572449
 40
0.2336166817620292
 40
0.291439498280738
 40
0.3454727179329345
 40
0.3963121978302648
 40
0.4323873510987481
 40
0.4752463108009418
 40
0.5310547272514829
 40
0.5997684051824598
 40
0.7112559867886941
 40
0.8448939802082053
 40
1.0
 40
1.0
 40
1.0
 40
1.0
 10
333.8301021020722
 20
94.71534303046295
 30
0.0
 10
333.4320857037949
 20
95.29760862449126
 30
0.0
 10
332.4869278623029
 20
96.68029761521882
 30
0.0
 10
331.2364446364643
 20
98.97118839876098
 30
0.0
 10
330.0964836591422
 20
101.2719687913648
 30
0.0
 10
329.2038896131155
 20
103.2638551990215
 30
0.0
 10
328.4572402363658
 20
105.0565361978756
 30
0.0
 10
327.8377789758863
 20
106.6448666287072
 30
0.0
 10
327.2897342527672
 20
108.1209593235431
 30
0.0
 10
326.7277977442375
 20
109.7019162754564
 30
0.0
 10
326.0461808703653
 20
111.7221109013781
 30
0.0
 10
325.1202314588468
 20
114.6309976465672
 30
0.0
 10
323.9459571241928
 20
118.5836483497686
 30
0.0
 10
322.5102399319367
 20
123.7080439375425
 30
0.0
 10
321.4708205909529
 20
127.4379148195752
 30
0.0
 10
320.9124706702687
 20
129.4415076228173
 30
0.0
  0
LINE
  5
5DF
330
1F
100
AcDbEntity
  8
0
  6
Continuous
 62
     7
370
    25
100
AcDbLine
 10
334.2259835148693
 20
85.10545730532157
 30
0.0
 11
335.8032301828999
 21
92.35433039086137
 31
0.0
  0
SPLINE
  5
5E0
330
1F
100
AcDbEntity
  8
0
  6
Continuous
 62
     7
370
    25
100
AcDbSpline
210
0.0
220
0.0
230
1.0
 70
     8
 71
     3
 72
    22
 73
    18
 74
     0
 42
0.000000001
 43
0.0000000001
 40
0.0
 40
0.0
 40
0.0
 40
0.0
 40
0.0860139862048169
 40
0.1792538996060991
 40
0.2444077627760689
 40
0.2954333376194239
 40
0.3561128981041663
 40
0.4267750637464692
 40
0.5208695189175078
 40
0.6043881540290705
 40
0.6670336361798832
 40
0.6905984759843467
 40
0.7192568930444919
 40
0.7642751078220977
 40
0.8257988067963154
 40
0.9041602150094975
 40
1.0
 40
1.0
 40
1.0
 40
1.0
 10
318.1677915268623
 20
131.5445287688816
 30
0.0
 10
317.9099540032368
 20
132.2237549107948
 30
0.0
 10
317.3726183487238
 20
133.6392681316612
 30
0.0
 10
316.5176160829008
 20
135.5059744780235
 30
0.0
 10
315.7376188317209
 20
137.0784783902146
 30
0.0
 10
315.0377835424073
 20
138.389806043339
 30
0.0
 10
314.2832898079778
 20
139.7152609314836
 30
0.0
 10
313.3026526843744
 20
141.312808532831
 30
0.0
 10
312.1622496260409
 20
143.0058725990039
 30
0.0
 10
310.9926419831464
 20
144.5802169900984
 30
0.0
 10
310.1280751415554
 20
145.6546124142148
 30
0.0
 10
309.5237603877669
 20
146.370774066354
 30
0.0
 10
309.0032017586545
 20
146.9698111471591
 30
0.0
 10
308.2745380869384
 20
147.7740778730608
 30
0.0
 10
307.2707711109269
 20
148.8158722330125
 30
0.0
 10
305.9884085855714
 20
150.0521488578092
 30
0.0
 10
305.0591677330763
 20
150.8393470332137
 30
0.0
 10
304.547929882923
 20
151.2724376595647
 30
0.0
  0
LINE
  5
5E1
330
1F
100
AcDbEntity
  8
0
  6
Continuous
 62
     7
370
    25
100
AcDbLine
 10
329.5771220455105
 20
75.24510821359064
 30
0.0
 11
330.3271220455104
 21
75.24510821359064
 31
0.0
  0
LINE
  5
5E2
330
1F
100
AcDbEntity
  8
0
  6
Continuous
 62
     7
370
    25
100
AcDbLine
 10
324.0731123335038
 20
76.61484559161516
 30
0.0
 11
329.5771220455105
 21
75.24510821359064
 31
0.0
  0
LINE
  5
5E3
330
1F
100
AcDbEntity
  8
0
  6
Continuous
 62
     7
370
    25
100
AcDbLine
 10
327.573600206188
 20
80.59651185632692
 30
0.0
 11
349.0771220455105
 21
75.24510821359064
 31
0.0
  0
LINE
  5
5E4
330
1F
100
AcDbEntity
  8
0
  6
Continuous
 62
     7
370
    25
100
AcDbLine
 10
348.3271220455105
 20
75.24510821359064
 30
0.0
 11
349.0771220455105
 21
75.24510821359064
 31
0.0
  0
LINE
  5
5E5
330
1F
100
AcDbEntity
  8
0
  6
Continuous
 62
     7
370
    25
100
AcDbLine
 10
327.4422960898348
 20
80.4425421284734
 30
0.0
 11
348.3271220455105
 21
75.24510821359064
 31
0.0
  0
LINE
  5
5E6
330
1F
100
AcDbEntity
  8
0
  6
Continuous
 62
     7
370
    25
100
AcDbLine
 10
324.2097833618609
 20
76.76747970046353
 30
0.0
 11
330.3271220455104
 21
75.24510821359064
 31
0.0
  0
ARC
  5
5E7
330
1F
100
AcDbEntity
  8
0
  6
Continuous
 62
     7
370
    25
100
AcDbCircle
 10
351.5068232894222
 20
131.9311299515133
 30
0.0
 40
1.504021937896531
100
AcDbArc
 50
358.0004633847694
 51
64.46339656558814
  0
LINE
  5
5E8
330
1F
100
AcDbEntity
  8
0
  6
Continuous
 62
     7
370
    25
100
AcDbLine
 10
353.0089307289143
 20
78.91085562369432
 30
0.0
 11
353.0099294422566
 21
131.8786524993555
 31
0.0
  0
ARC
  5
5E9
330
1F
100
AcDbEntity
  8
0
  6
Continuous
 62
     7
370
    25
100
AcDbCircle
 10
349.6146984809802
 20
78.6099783810809
 30
0.0
 40
3.407541587132594
100
AcDbArc
 50
260.9230520046076
 51
5.065668352199795
  0
LINE
  5
5EA
330
1F
100
AcDbEntity
  8
0
  6
Continuous
 62
     7
370
    25
100
AcDbLine
 10
352.1551885359768
 20
133.2882240885333
 30
0.0
 11
334.0527687811944
 21
140.8962479757558
 31
0.0
  0
LWPOLYLINE
  5
5EB
330
1F
100
AcDbEntity
  8
0
  6
Continuous
 62
     7
370
    25
100
AcDbPolyline
 90
       19
 70
   128
 43
0.0
 10
343.4642841188554
 20
128.9594747755978
 10
343.581796494334
 20
129.7290200980805
 10
343.4642841188554
 20
130.4985654205632
 10
343.1259207191993
 20
131.1752922198752
 10
342.6075179150767
 20
131.6775772565955
 10
341.9716027354752
 20
131.9448375423579
 10
341.2948759361634
 20
131.944837542358
 10
340.6589607565619
 20
131.6775772565955
 10
340.1405579524389
 20
131.1752922198752
 10
339.8021945527832
 20
130.4985654205633
 10
339.6846821773042
 20
129.7290200980805
 10
339.8021945527832
 20
128.9594747755978
 10
340.1405579524389
 20
128.2827479762857
 10
340.6589607565619
 20
127.7804629395655
 10
341.2948759361634
 20
127.5132026538029
 10
341.9716027354752
 20
127.5132026538029
 10
342.6075179150767
 20
127.7804629395655
 10
343.1259207191993
 20
128.2827479762857
 10
343.4642841188554
 20
128.9594747755978
  0
LWPOLYLINE
  5
5EC
330
1F
100
AcDbEntity
  8
0
  6
Continuous
 62
     7
370
    25
100
AcDbPolyline
 90
       19
 70
   128
 43
0.0
 10
343.4642841188552
 20
85.83447477559763
 10
343.581796494334
 20
86.60402009808043
 10
343.4642841188552
 20
87.37356542056318
 10
343.1259207191993
 20
88.05029221987513
 10
342.6075179150767
 20
88.55257725659541
 10
341.9716027354752
 20
88.8198375423579
 10
341.2948759361634
 20
88.8198375423579
 10
340.6589607565619
 20
88.55257725659546
 10
340.1405579524389
 20
88.05029221987515
 10
339.8021945527828
 20
87.37356542056321
 10
339.6846821773042
 20
86.60402009808047
 10
339.8021945527828
 20
85.83447477559767
 10
340.1405579524389
 20
85.15774797628578
 10
340.6589607565619
 20
84.65546293956544
 10
341.2948759361634
 20
84.388202653803
 10
341.9716027354752
 20
84.38820265380295
 10
342.6075179150767
 20
84.65546293956544
 10
343.1259207191993
 20
85.15774797628578
 10
343.4642841188552
 20
85.83447477559763
  0
LINE
  5
5ED
330
1F
100
AcDbEntity
  8
0
  6
Continuous
 62
     7
370
    25
100
AcDbLine
 10
341.3184366021858
 20
123.9292820656838
 30
0.0
 11
341.3178426663963
 21
92.42928207314969
 31
0.0
  0
LINE
  5
5EE
330
1F
100
AcDbEntity
  8
0
  6
Continuous
 62
     7
370
    25
100
AcDbLine
 10
341.3178426663963
 20
92.42928207314969
 30
0.0
 11
346.5139950878708
 21
92.42915144115418
 31
0.0
  0
LINE
  5
5EF
330
1F
100
AcDbEntity
  8
0
  6
Continuous
 62
     7
370
    25
100
AcDbLine
 10
346.5139950878708
 20
92.42915144115418
 30
0.0
 11
346.5145890236613
 21
123.9291514336884
 31
0.0
  0
LINE
  5
5F0
330
1F
100
AcDbEntity
  8
0
  6
Continuous
 62
     7
370
    25
100
AcDbLine
 10
346.5145890236613
 20
123.9291514336884
 30
0.0
 11
341.3184366021858
 21
123.9292820656838
 31
0.0
  0
LWPOLYLINE
  5
5F1
330
1F
100
AcDbEntity
  8
0
  6
Continuous
 62
     7
370
    25
100
AcDbPolyline
 90
       19
 70
   128
 43
0.0
 10
349.9495826122615
 20
86.48964042694615
 10
350.0670949877405
 20
87.25918574942895
 10
349.9495826122615
 20
88.02873107191169
 10
349.6112192126053
 20
88.70545787122367
 10
349.0928164084828
 20
89.20774290794396
 10
348.4569012288814
 20
89.47500319370641
 10
347.7801744295693
 20
89.47500319370641
 10
347.1442592499678
 20
89.20774290794392
 10
346.6258564458453
 20
88.70545787122367
 10
346.2874930461894
 20
88.02873107191166
 10
346.1699806707104
 20
87.25918574942895
 10
346.2874930461894
 20
86.48964042694615
 10
346.6258564458453
 20
85.81291362763423
 10
347.1442592499678
 20
85.31062859091397
 10
347.7801744295693
 20
85.04336830515148
 10
348.4569012288814
 20
85.04336830515148
 10
349.0928164084828
 20
85.31062859091397
 10
349.6112192126053
 20
85.81291362763423
 10
349.9495826122615
 20
86.48964042694615
  0
LINE
  5
5F2
330
1F
100
AcDbEntity
  8
0
  6
Continuous
 62
     7
370
    25
100
AcDbLine
 10
345.764589023661
 20
123.9291514336884
 30
0.0
 11
346.5145890236613
 21
123.9291514336884
 31
0.0
  0
LINE
  5
5F3
330
1F
100
AcDbEntity
  8
0
  6
Continuous
 62
     7
370
    25
100
AcDbLine
 10
345.7639950882269
 20
92.42917029625861
 30
0.0
 11
345.764589023661
 21
123.9291514336884
 31
0.0
  0
ARC
  5
5F4
330
1F
100
AcDbEntity
  8
0
  6
Continuous
 62
     7
370
    25
100
AcDbCircle
 10
340.583333984701
 20
86.63716026833048
 30
0.0
 40
2.277114945385297
100
AcDbArc
 50
339.3596307337349
 51
72.75932387141303
  0
ARC
  5
5F5
330
1F
100
AcDbEntity
  8
0
  6
Continuous
 62
     7
370
    25
100
AcDbCircle
 10
340.7335464315803
 20
86.38336412341912
 30
0.0
 40
2.055383492670959
100
AcDbArc
 50
284.7900215850744
 51
344.5112237514253
  0
ARC
  5
5F6
330
1F
100
AcDbEntity
  8
0
  6
Continuous
 62
     7
370
    25
100
AcDbCircle
 10
340.5833339847049
 20
129.7621602683313
 30
0.0
 40
2.277114945381844
100
AcDbArc
 50
339.3596307336857
 51
72.75932387199282
  0
ARC
  5
5F7
330
1F
100
AcDbEntity
  8
0
  6
Continuous
 62
     7
370
    25
100
AcDbCircle
 10
340.7335464315818
 20
129.5083641234181
 30
0.0
 40
2.055383492669331
100
AcDbArc
 50
284.7900215849305
 51
344.511223751447
  0
LINE
  5
5F8
330
1F
100
AcDbEntity
  8
0
  6
Continuous
 62
     7
370
    25
100
AcDbLine
 10
345.764589023661
 20
123.9291514336884
 30
0.0
 11
341.3184366018309
 21
123.9292632105794
 31
0.0
  0
ARC
  5
5F9
330
1F
100
AcDbEntity
  8
0
  6
Continuous
 62
     7
370
    25
100
AcDbCircle
 10
347.0686324781038
 20
87.29232591967891
 30
0.0
 40
2.277114945388172
100
AcDbArc
 50
339.3596307337657
 51
72.7593238707265
  0
ARC
  5
5FA
330
1F
100
AcDbEntity
  8
0
  6
Continuous
 62
     7
370
    25
100
AcDbCircle
 10
347.2188449249818
 20
87.03852977477001
 30
0.0
 40
2.055383492675913
100
AcDbArc
 50
284.7900215863656
 51
344.5112237513937
  0
LINE
  5
5FB
330
1F
100
AcDbEntity
  8
0
  6
Continuous
 62
     7
370
    25
100
AcDbLine
 10
348.3271220455105
 20
75.24510821359064
 30
0.0
 11
349.0113354654924
 21
75.16093726869155
 31
0.0
  0
ARC
  5
5FC
330
1F
100
AcDbEntity
  8
0
  6
Continuous
 62
     7
370
    25
100
AcDbCircle
 10
330.8697206188684
 20
78.59108459445974
 30
0.0
 40
3.389685996245712
100
AcDbArc
 50
260.7888431676517
 51
2.634944744377878
  0
LINE
  5
5FD
330
1F
100
AcDbEntity
  8
0
  6
Continuous
 62
     7
370
    25
100
AcDbLine
 10
329.5771220455105
 20
75.24510821359064
 30
0.0
 11
330.2613354654923
 21
75.16093726869155
 31
0.0
  0
LINE
  5
601
330
1F
100
AcDbEntity
  8
0
  6
Continuous
 62
     7
370
    25
100
AcDbLine
 10
67.62398145785687
 20
175.6935839622015
 30
0.0
 11
69.72558154779074
 21
171.8826899657569
 31
0.0
  0
SPLINE
  5
602
330
1F
100
AcDbEntity
  8
0
  6
Continuous
 62
     7
370
    25
100
AcDbSpline
210
0.0
220
0.0
230
1.0
 70
     8
 71
     3
 72
     9
 73
     5
 74
     0
 42
0.000000001
 43
0.0000000001
 40
0.0
 40
0.0
 40
0.0
 40
0.0
 40
0.5000712700395599
 40
1.0
 40
1.0
 40
1.0
 40
1.0
 10
68.45793005597477
 20
176.110072017531
 30
0.0
 10
68.34958647580993
 20
175.9901184069732
 30
0.0
 10
68.13293019768309
 20
175.7502453773784
 30
0.0
 10
67.79361493277679
 20
175.7124693056761
 30
0.0
 10
67.62398148333557
 20
175.693583962127
 30
0.0
  0
SPLINE
  5
605
330
1F
100
AcDbEntity
  8
0
  6
Continuous
 62
     7
370
    25
100
AcDbSpline
210
0.0
220
0.0
230
1.0
 70
     8
 71
     3
 72
    11
 73
     7
 74
     0
 42
0.000000001
 43
0.0000000001
 40
0.0
 40
0.0
 40
0.0
 40
0.0
 40
0.2502168469619024
 40
0.5003832807405561
 40
0.7503758209518534
 40
1.0
 40
1.0
 40
1.0
 40
1.0
 10
67.17507381703637
 20
182.8923554963006
 30
0.0
 10
67.49384520827743
 20
182.2235464744525
 30
0.0
 10
68.13132376534543
 20
180.8860631810427
 30
0.0
 10
68.68595144587061
 20
178.9709102633453
 30
0.0
 10
68.91329489905809
 20
177.2134627856103
 30
0.0
 10
68.60965344823899
 20
176.4776906080948
 30
0.0
 10
68.45794465835229
 20
176.1100757571526
 30
0.0
  0
LINE
  5
606
330
1F
100
AcDbEntity
  8
0
  6
Continuous
 62
     7
370
    25
100
AcDbLine
 10
66.29198146282897
 20
184.6095039551184
 30
0.0
 11
67.17494956268888
 21
182.8923428854971
 31
0.0
  0
SPLINE
  5
607
330
1F
100
AcDbEntity
  8
0
  6
Continuous
 62
     7
370
    25
100
AcDbSpline
210
0.0
220
0.0
230
1.0
 70
     8
 71
     3
 72
     9
 73
     5
 74
     0
 42
0.000000001
 43
0.0000000001
 40
0.0
 40
0.0
 40
0.0
 40
0.0
 40
0.4999967304047383
 40
0.9999999999999998
 40
0.9999999999999998
 40
0.9999999999999998
 40
0.9999999999999998
 10
66.39367213565856
 20
176.1101077242833
 30
0.0
 10
66.61613080763084
 20
175.9901296910068
 30
0.0
 10
67.0610510609938
 20
175.750172055325
 30
0.0
 10
67.43633664096979
 20
175.7124468249608
 30
0.0
 10
67.6239806579897
 20
175.6935840864324
 30
0.0
  0
LINE
  5
609
330
1F
100
AcDbEntity
  8
0
  6
Continuous
 62
     7
370
    25
100
AcDbLine
 10
119.1354090901541
 20
117.32809414915
 30
0.0
 11
121.6002634460487
 21
116.204499228889
 31
0.0
  0
SPLINE
  5
60A
330
1F
100
AcDbEntity
  8
0
  6
Continuous
 62
     7
370
    25
100
AcDbSpline
210
0.0
220
0.0
230
1.0
 70
     8
 71
     3
 72
    11
 73
     7
 74
     0
 42
0.000000001
 43
0.0000000001
 40
0.0
 40
0.0
 40
0.0
 40
0.0
 40
0.2466809961377296
 40
0.4999999159034171
 40
0.7533188793405481
 40
1.0
 40
1.0
 40
1.0
 40
1.0
 10
68.45796168985964
 20
176.1101077911454
 30
0.0
 10
68.424952239802
 20
176.1553468463745
 30
0.0
 10
68.35804509044226
 20
176.2470422917648
 30
0.0
 10
68.29940840170388
 20
176.403947539747
 30
0.0
 10
68.27360756876283
 20
176.5654182226524
 30
0.0
 10
68.28884788916889
 20
176.6685352537706
 30
0.0
 10
68.29636688653841
 20
176.7194092948046
 30
0.0
  0
LINE
  5
60B
330
1F
100
AcDbEntity
  8
0
  6
Continuous
 62
     7
370
    25
100
AcDbLine
 10
62.40552781689825
 20
184.4379587188887
 30
0.0
 11
62.00664509408511
 21
183.2429799508031
 31
0.0
  0
SPLINE
  5
60C
330
1F
100
AcDbEntity
  8
0
  6
Continuous
 62
     7
370
    25
100
AcDbSpline
210
0.0
220
0.0
230
1.0
 70
     8
 71
     3
 72
     9
 73
     5
 74
     0
 42
0.000000001
 43
0.0000000001
 40
0.0
 40
0.0
 40
0.0
 40
0.0
 40
0.5011551491589789
 40
1.0
 40
1.0
 40
1.0
 40
1.0
 10
68.29636869114984
 20
176.719410319149
 30
0.0
 10
68.1995451132733
 20
176.6041343881522
 30
0.0
 10
68.00634430901334
 20
176.3741139420083
 30
0.0
 10
67.70800893769342
 20
176.3372622315517
 30
0.0
 10
67.55918587388681
 20
176.3188789455456
 30
0.0
  0
SPLINE
  5
60D
330
1F
100
AcDbEntity
  8
0
  6
Continuous
 62
     7
370
    25
100
AcDbSpline
210
0.0
220
0.0
230
1.0
 70
     8
 71
     3
 72
     9
 73
     5
 74
     0
 42
0.000000001
 43
0.0000000001
 40
0.0
 40
0.0
 40
0.0
 40
0.0
 40
0.4989065090024173
 40
0.9999999999999998
 40
0.9999999999999998
 40
0.9999999999999998
 40
0.9999999999999998
 10
67.55918540779134
 20
176.3188772889579
 30
0.0
 10
67.39530119297057
 20
176.3372596032241
 30
0.0
 10
67.06681436855774
 20
176.3741048115637
 30
0.0
 10
66.68564270324385
 20
176.6041395991918
 30
0.0
 10
66.49464006280209
 20
176.7194085339754
 30
0.0
  0
SPLINE
  5
60E
330
1F
100
AcDbEntity
  8
0
  6
Continuous
 62
     7
370
    25
100
AcDbSpline
210
0.0
220
0.0
230
1.0
 70
     8
 71
     3
 72
    13
 73
     9
 74
     0
 42
0.000000001
 43
0.0000000001
 40
0.0
 40
0.0
 40
0.0
 40
0.0
 40
0.2457521947644817
 40
0.4953912364677502
 40
0.7471392521001983
 40
0.8735351797955548
 40
0.9531672449087064
 40
0.9999999999999998
 40
0.9999999999999998
 40
0.9999999999999998
 40
0.9999999999999998
 10
66.49463388280207
 20
176.7193995005068
 30
0.0
 10
66.06014606505891
 20
177.0793381594488
 30
0.0
 10
65.18429851680685
 20
177.8049083114335
 30
0.0
 10
63.95354143684904
 20
179.4971804950082
 30
0.0
 10
63.05369343515804
 20
181.0208531592184
 30
0.0
 10
62.48188928413026
 20
182.1695435717506
 30
0.0
 10
62.19118181517888
 20
182.8064861974841
 30
0.0
 10
62.05651516514092
 20
183.1250198061153
 30
0.0
 10
62.00664508878265
 20
183.2429799349262
 30
0.0
  0
LINE
  5
60F
330
1F
100
AcDbEntity
  8
0
  6
Continuous
 62
     7
370
    25
100
AcDbLine
 10
62.99470093239552
 20
185.118128125782
 30
0.0
 11
60.24565421623606
 21
186.2735266837722
 31
0.0
  0
SPLINE
  5
610
330
1F
100
AcDbEntity
  8
0
  6
Continuous
 62
     7
370
    25
100
AcDbSpline
210
0.0
220
0.0
230
1.0
 70
     8
 71
     3
 72
    14
 73
    10
 74
     0
 42
0.000000001
 43
0.0000000001
 40
0.0
 40
0.0
 40
0.0
 40
0.0
 40
0.15248245492039
 40
0.3049649098408054
 40
0.4574473647612178
 40
0.6099298196816373
 40
0.7624122746020535
 40
0.9148947295224672
 40
1.0
 40
1.0
 40
1.0
 40
1.0
 10
63.29302614292362
 20
185.9437789633418
 30
0.0
 10
63.16457023120211
 20
185.9313737820835
 30
0.0
 10
62.90765840775884
 20
185.9065634195665
 30
0.0
 10
62.96030741070854
 20
185.7155474918758
 30
0.0
 10
63.3407194284091
 20
185.442955152471
 30
0.0
 10
64.02058574551984
 20
185.1171781119701
 30
0.0
 10
64.88021900455158
 20
184.7971014508419
 30
0.0
 10
65.68488675555193
 20
184.5500768184524
 30
0.0
 10
66.10056043972417
 20
184.4649163412148
 30
0.0
 10
66.24945711047018
 20
184.4344113753662
 30
0.0
  0
SPLINE
  5
611
330
1F
100
AcDbEntity
  8
0
  6
Continuous
 62
     7
370
    25
100
AcDbSpline
210
0.0
220
0.0
230
1.0
 70
     8
 71
     3
 72
    11
 73
     7
 74
     0
 42
0.000000001
 43
0.0000000001
 40
0.0
 40
0.0
 40
0.0
 40
0.0
 40
0.030561164626431
 40
0.3537074430842825
 40
0.6768537215421238
 40
1.0
 40
1.0
 40
1.0
 40
1.0
 10
65.70070118951298
 20
185.4042093380899
 30
0.0
 10
65.67420284681531
 20
185.4142197854699
 30
0.0
 10
65.36751751082886
 20
185.5300782545483
 30
0.0
 10
64.7051220669307
 20
185.7134528418857
 30
0.0
 10
63.85717497496637
 20
185.9070871463226
 30
0.0
 10
63.48107575363655
 20
185.9315483577484
 30
0.0
 10
63.29302614297194
 20
185.9437789634614
 30
0.0
  0
ARC
  5
612
330
1F
100
AcDbEntity
  8
0
  6
Continuous
 62
     7
370
    25
100
AcDbCircle
 10
63.2918902334261
 20
184.2654379066057
 30
0.0
 40
0.9029961741469016
100
AcDbArc
 50
109.2150492661892
 51
168.9857988522246
  0
LINE
  5
613
330
1F
100
AcDbEntity
  8
0
  6
Continuous
 62
     7
370
    25
100
AcDbLine
 10
60.21405213691878
 20
184.609503589742
 30
0.0
 11
61.05254305608787
 21
182.8923424882667
 31
0.0
  0
SPLINE
  5
614
330
1F
100
AcDbEntity
  8
0
  6
Continuous
 62
     7
370
    25
100
AcDbSpline
210
0.0
220
0.0
230
1.0
 70
     8
 71
     3
 72
    11
 73
     7
 74
     0
 42
0.000000001
 43
0.0000000001
 40
0.0
 40
0.0
 40
0.0
 40
0.0
 40
0.2502256506779663
 40
0.5004035152789305
 40
0.7504174230130145
 40
1.0
 40
1.0
 40
1.0
 40
1.0
 10
61.05243764897887
 20
182.8923551626767
 30
0.0
 10
61.40336552751159
 20
182.223529376537
 30
0.0
 10
62.10515426720087
 20
180.8860055312131
 30
0.0
 10
63.42247767589538
 20
178.9707575480793
 30
0.0
 10
64.88794204548731
 20
177.2134184169522
 30
0.0
 10
65.89204792054363
 20
176.4776620643598
 30
0.0
 10
66.39366740652554
 20
176.1101014987223
 30
0.0
  0
SPLINE
  5
618
330
1F
100
AcDbEntity
  8
0
  6
Continuous
 62
     7
370
    25
100
AcDbSpline
210
0.0
220
0.0
230
1.0
 70
     8
 71
     3
 72
    11
 73
     7
 74
     0
 42
0.000000001
 43
0.0000000001
 40
0.0
 40
0.0
 40
0.0
 40
0.0
 40
0.2481012697127739
 40
0.5014248033848539
 40
0.754010527122034
 40
1.0
 40
1.0
 40
1.0
 40
1.0
 10
67.62398067812433
 20
175.6935840864296
 30
0.0
 10
67.60200318809257
 20
175.7411049840859
 30
0.0
 10
67.55758560558376
 20
175.8371470430065
 30
0.0
 10
67.5273903239572
 20
175.9981436892859
 30
0.0
 10
67.52416252250646
 20
176.1623509357785
 30
0.0
 10
67.54761233644728
 20
176.2671627172386
 30
0.0
 10
67.55918212052302
 20
176.3188752674173
 30
0.0
  0
SPLINE
  5
619
330
1F
100
AcDbEntity
  8
0
  6
Continuous
 62
     7
370
    25
100
AcDbSpline
210
0.0
220
0.0
230
1.0
 70
     8
 71
     3
 72
    11
 73
     7
 74
     0
 42
0.000000001
 43
0.0000000001
 40
0.0
 40
0.0
 40
0.0
 40
0.0
 40
0.2466810641847331
 40
0.5000000114921603
 40
0.7533189528634298
 40
1.0
 40
1.0
 40
1.0
 40
1.0
 10
66.49464029027922
 20
176.7194084006548
 30
0.0
 10
66.47011646432384
 20
176.6685344795162
 30
0.0
 10
66.42040890650992
 20
176.5654176827812
 30
0.0
 10
66.38061267726311
 20
176.4039472871667
 30
0.0
 10
66.36765055001593
 20
176.2470421873006
 30
0.0
 10
66.38507554009277
 20
176.1553466700529
 30
0.0
 10
66.39367236988755
 20
176.1101075765884
 30
0.0
  0
SPLINE
  5
61A
330
1F
100
AcDbEntity
  8
0
  6
Continuous
 62
     7
370
    25
100
AcDbSpline
210
0.0
220
0.0
230
1.0
 70
     8
 71
     3
 72
    13
 73
     9
 74
     0
 42
0.000000001
 43
0.0000000001
 40
0.0
 40
0.0
 40
0.0
 40
0.0
 40
0.2388330973394886
 40
0.3679599201454161
 40
0.5000008365427402
 40
0.6320416293155635
 40
0.7611680975590513
 40
1.0
 40
1.0
 40
1.0
 40
1.0
 10
62.00664510388515
 20
183.2429797894577
 30
0.0
 10
61.92774231081307
 20
183.1947184904359
 30
0.0
 10
61.80618015815753
 20
183.120364374813
 30
0.0
 10
61.62203852221944
 20
183.0340058005025
 30
0.0
 10
61.47910907305834
 20
182.9760867645177
 30
0.0
 10
61.34363516941994
 20
182.9317063105836
 30
0.0
 10
61.1853081397453
 20
182.8922244772262
 30
0.0
 10
61.10473529308638
 20
182.8923037620061
 30
0.0
 10
61.05243762088775
 20
182.8923552236288
 30
0.0
  0
SPLINE
  5
61B
330
1F
100
AcDbEntity
  8
0
  6
Continuous
 62
     7
370
    25
100
AcDbSpline
210
0.0
220
0.0
230
1.0
 70
     8
 71
     3
 72
    12
 73
     8
 74
     0
 42
0.000000001
 43
0.0000000001
 40
0.0
 40
0.0
 40
0.0
 40
0.0
 40
0.0574847614496821
 40
0.1251536977758061
 40
0.2501519852705015
 40
0.5001592157219493
 40
1.0
 40
1.0
 40
1.0
 40
1.0
 10
60.24565421621923
 20
186.2735266837799
 30
0.0
 10
60.23411386470616
 20
186.2673352608377
 30
0.0
 10
60.20898863796685
 20
186.2538555236661
 30
0.0
 10
60.22288690805715
 20
186.1752917456355
 30
0.0
 10
60.31330194767588
 20
185.9983262124821
 30
0.0
 10
60.60625516781238
 20
185.5885314359818
 30
0.0
 10
60.94419494601675
 20
185.2098734731901
 30
0.0
 10
61.16946204075976
 20
184.957464065714
 30
0.0
  0
SPLINE
  5
61C
330
1F
100
AcDbEntity
  8
0
  6
Continuous
 62
     7
370
    25
100
AcDbSpline
210
0.0
220
0.0
230
1.0
 70
     8
 71
     3
 72
    13
 73
     9
 74
     0
 42
0.000000001
 43
0.0000000001
 40
0.0
 40
0.0
 40
0.0
 40
0.0
 40
0.2388059879101747
 40
0.3679151743564546
 40
0.4999422908399702
 40
0.6319779192428331
 40
0.7611115342945201
 40
0.9999999999999998
 40
0.9999999999999998
 40
0.9999999999999998
 40
0.9999999999999998
 10
61.16946214131008
 20
184.9574641313516
 30
0.0
 10
61.0904544688135
 20
184.9095847229514
 30
0.0
 10
60.96873171865786
 20
184.835819567212
 30
0.0
 10
60.78442574121857
 20
184.7501435373903
 30
0.0
 10
60.64137905369057
 20
184.6926735494498
 30
0.0
 10
60.50579417730728
 20
184.6486226569187
 30
0.0
 10
60.34731638263122
 20
184.6094089708761
 30
0.0
 10
60.26665677338747
 20
184.6094486406305
 30
0.0
 10
60.21429945217187
 20
184.609474390843
 30
0.0
  0
LINE
  5
61D
330
1F
100
AcDbEntity
  8
0
  6
Continuous
 62
     7
370
    25
100
AcDbLine
 10
61.16946204075976
 20
184.957464065714
 30
0.0
 11
62.40552737523376
 21
184.4379573957699
 31
0.0
  0
LINE
  5
61E
330
1F
100
AcDbEntity
  8
0
  6
Continuous
 62
     7
370
    25
100
AcDbLine
 10
62.00664510652507
 20
183.2429799590167
 30
0.0
 11
61.16946214128529
 21
184.9574641313683
 31
0.0
  0
LINE
  5
623
330
1F
100
AcDbEntity
  8
0
  6
Continuous
 62
     7
370
    25
100
AcDbLine
 10
282.9931374127968
 20
53.34038227006027
 30
0.0
 11
282.8029130579929
 21
53.33962589055957
 31
0.0
  0
SPLINE
  5
625
330
1F
100
AcDbEntity
  8
0
  6
Continuous
 62
     7
370
    25
100
AcDbSpline
210
0.0
220
0.0
230
1.0
 70
     8
 71
     3
 72
     9
 73
     5
 74
     0
 42
0.000000001
 43
0.0000000001
 40
0.0
 40
0.0
 40
0.0
 40
0.0
 40
0.5001137542506809
 40
1.0
 40
1.0
 40
1.0
 40
1.0
 10
171.1424494346831
 20
94.66249463704972
 30
0.0
 10
162.8435137431974
 20
98.25378757837018
 30
0.0
 10
146.2494176581576
 20
105.434739733348
 30
0.0
 10
129.8152015044355
 20
112.6146001113905
 30
0.0
 10
121.5999628895185
 20
116.2037135607745
 30
0.0
  0
LINE
  5
628
330
1F
100
AcDbEntity
  8
0
  6
Continuous
 62
     7
370
    25
100
AcDbLine
 10
300.3324504987848
 20
56.85972689720123
 30
0.0
 11
300.1221126045428
 21
56.73760151495975
 31
0.0
  0
LINE
  5
62A
330
1F
100
AcDbEntity
  8
0
  6
Continuous
 62
     7
370
    25
100
AcDbLine
 10
227.3313415679017
 20
70.34730611951596
 30
0.0
 11
171.1424494360549
 21
94.66249463683494
 31
0.0
  0
LINE
  5
62C
330
1F
100
AcDbEntity
  8
0
  6
Continuous
 62
     7
370
    25
100
AcDbLine
 10
227.3321033659227
 20
70.34823697317825
 30
0.0
 11
267.8026598207632
 21
53.33949037949818
 31
0.0
  0
LINE
  5
62D
330
1F
100
AcDbEntity
  8
0
  6
Continuous
 62
     7
370
    25
100
AcDbLine
 10
278.3058240492819
 20
53.33820462363703
 30
0.0
 11
282.8063294020653
 21
53.33803737552151
 31
0.0
  0
LINE
  5
62E
330
1F
100
AcDbEntity
  8
0
  6
Continuous
 62
     7
370
    25
100
AcDbLine
 10
271.9076678296169
 20
56.02719857256847
 30
0.0
 11
278.3057952554467
 21
53.33821528120904
 31
0.0
  0
ARC
  5
62F
330
1F
100
AcDbEntity
  8
0
  6
Continuous
 62
     7
370
    25
100
AcDbCircle
 10
281.094999680252
 20
59.93486016801177
 30
0.0
 40
7.161676639538816
100
AcDbArc
 50
247.0802454107624
 51
269.9024518524764
  0
SPLINE
  5
630
330
1F
100
AcDbEntity
  8
0
  6
Continuous
 62
     7
370
    25
100
AcDbSpline
210
0.0
220
0.0
230
1.0
 70
     8
 71
     3
 72
    11
 73
     7
 74
     0
 42
0.000000001
 43
0.0000000001
 40
0.0
 40
0.0
 40
0.0
 40
0.0
 40
0.2500000000000762
 40
0.4999999999999745
 40
0.7499999999999352
 40
1.0
 40
1.0
 40
1.0
 40
1.0
 10
271.9076678296158
 20
56.02719857256554
 30
0.0
 10
271.8814287578368
 20
56.02190172221753
 30
0.0
 10
271.8289506142781
 20
56.01130802152147
 30
0.0
 10
271.7412875248724
 20
55.9298193476215
 30
0.0
 10
271.661213173056
 20
55.81334029925952
 30
0.0
 10
271.6264666068003
 20
55.72098932045534
 30
0.0
 10
271.6090933236724
 20
55.6748138310532
 30
0.0
  0
LINE
  5
631
330
1F
100
AcDbEntity
  8
0
  6
Continuous
 62
     7
370
    25
100
AcDbLine
 10
265.8383744330399
 20
54.61765937535637
 30
0.0
 11
265.8041518733408
 21
54.62433496846299
 31
0.0
  0
ARC
  5
632
330
1F
100
AcDbEntity
  8
0
  6
Continuous
 62
     7
370
    25
100
AcDbCircle
 10
270.9342111341801
 20
55.05096124923486
 30
0.0
 40
0.4599078666950274
100
AcDbArc
 50
289.5843989256306
 51
349.866547260897
  0
SPLINE
  5
633
330
1F
100
AcDbEntity
  8
0
  6
Continuous
 62
     7
370
    25
100
AcDbSpline
210
0.0
220
0.0
230
1.0
 70
     8
 71
     3
 72
    10
 73
     6
 74
     0
 42
0.000000001
 43
0.0000000001
 40
0.0
 40
0.0
 40
0.0
 40
0.0
 40
0.4435227956996032
 40
0.8870455913992532
 40
1.0
 40
1.0
 40
1.0
 40
1.0
 10
271.08836705029
 20
54.61765962383248
 30
0.0
 10
270.4944408273739
 20
54.84926159115366
 30
0.0
 10
269.3065883815414
 20
55.31246552579611
 30
0.0
 10
267.7283627813273
 20
55.80011918074672
 30
0.0
 10
266.9946384551233
 20
55.95502861061629
 30
0.0
 10
266.8457062136909
 20
55.98647231199777
 30
0.0
  0
LINE
  5
634
330
1F
100
AcDbEntity
  8
0
  6
Continuous
 62
     7
370
    25
100
AcDbLine
 10
271.6090933240016
 20
55.67481383091387
 30
0.0
 11
271.386944724436
 21
54.9700443653279
 31
0.0
  0
SPLINE
  5
635
330
1F
100
AcDbEntity
  8
0
  6
Continuous
 62
     7
370
    25
100
AcDbSpline
210
0.0
220
0.0
230
1.0
 70
     8
 71
     3
 72
    10
 73
     6
 74
     0
 42
0.000000001
 43
0.0000000001
 40
0.0
 40
0.0
 40
0.0
 40
0.0
 40
0.2024737820269141
 40
0.8180567833361591
 40
1.0
 40
1.0
 40
1.0
 40
1.0
 10
266.9910119732697
 20
55.79385960223556
 30
0.0
 10
267.1520432861218
 20
55.75999019854094
 30
0.0
 10
267.8026596597074
 20
55.62314731862574
 30
0.0
 10
268.7769150651278
 20
55.33358702347166
 30
0.0
 10
269.4346387606679
 20
55.08232178888011
 30
0.0
 10
269.5846882037404
 20
55.02499952913848
 30
0.0
  0
LINE
  5
636
330
1F
100
AcDbEntity
  8
0
  6
Continuous
 62
     7
370
    25
100
AcDbLine
 10
273.1401954862223
 20
51.72371619854357
 30
0.0
 11
266.2543799260459
 21
54.61765939911856
 31
0.0
  0
LINE
  5
637
330
1F
100
AcDbEntity
  8
0
  6
Continuous
 62
     7
370
    25
100
AcDbLine
 10
272.9807517817924
 20
51.61588406939147
 30
0.0
 11
273.1401948008886
 21
51.72371653566393
 31
0.0
  0
LINE
  5
638
330
1F
100
AcDbEntity
  8
0
  6
Continuous
 62
     7
370
    25
100
AcDbLine
 10
265.8383710383989
 20
54.61765937504424
 30
0.0
 11
272.9807509838156
 21
51.61588415935148
 31
0.0
  0
LINE
  5
639
330
1F
100
AcDbEntity
  8
0
  6
Continuous
 62
     7
370
    25
100
AcDbLine
 10
278.2307501306177
 20
51.61588451750333
 30
0.0
 11
271.0883704454423
 21
54.61765962383186
 31
0.0
  0
LINE
  5
63A
330
1F
100
AcDbEntity
  8
0
  6
Continuous
 62
     7
370
    25
100
AcDbLine
 10
277.5581571239777
 20
51.72371674237854
 30
0.0
 11
278.2307488686092
 21
51.61588451209451
 31
0.0
  0
LINE
  5
63B
330
1F
100
AcDbEntity
  8
0
  6
Continuous
 62
     7
370
    25
100
AcDbLine
 10
270.6723615464674
 20
54.61765960449318
 30
0.0
 11
277.5581580467292
 21
51.72371640304527
 31
0.0
  0
LINE
  5
63C
330
1F
100
AcDbEntity
  8
0
  6
Continuous
 62
     7
370
    25
100
AcDbLine
 10
267.6129688754975
 20
53.34015996335603
 30
0.0
 11
267.8026325603358
 21
53.33940401367735
 31
0.0
  0
ARC
  5
63D
330
1F
100
AcDbEntity
  8
0
  6
Continuous
 62
     7
370
    25
100
AcDbCircle
 10
266.1401975062852
 20
54.99754755284143
 30
0.0
 40
0.3966781824344739
100
AcDbArc
 50
286.7296971108519
 51
343.4866603445233
  0
LINE
  5
63E
330
1F
100
AcDbEntity
  8
0
  6
Continuous
 62
     7
370
    25
100
AcDbLine
 10
266.5205141342882
 20
54.88479631348349
 30
0.0
 11
266.9125232089805
 21
55.76006642965265
 31
0.0
  0
SPLINE
  5
63F
330
1F
100
AcDbEntity
  8
0
  6
Continuous
 62
     7
370
    25
100
AcDbSpline
210
0.0
220
0.0
230
1.0
 70
     8
 71
     3
 72
    11
 73
     7
 74
     0
 42
0.000000001
 43
0.0000000001
 40
0.0
 40
0.0
 40
0.0
 40
0.0
 40
0.2500000000001038
 40
0.5000000000001066
 40
0.7500000000000499
 40
0.9999999999999998
 40
0.9999999999999998
 40
0.9999999999999998
 40
0.9999999999999998
 10
278.305795255448
 20
53.33821528121276
 30
0.0
 10
278.2795659134292
 20
53.33292218913777
 30
0.0
 10
278.2271072293927
 20
53.32233600498788
 30
0.0
 10
278.1394748610346
 20
53.24090137175739
 30
0.0
 10
278.0594175687077
 20
53.12449252306606
 30
0.0
 10
278.0246601350934
 20
53.0321794567478
 30
0.0
 10
278.0072814182863
 20
52.98602292358876
 30
0.0
  0
LINE
  5
640
330
1F
100
AcDbEntity
  8
0
  6
Continuous
 62
     7
370
    25
100
AcDbLine
 10
271.6090933239709
 20
55.67481383092655
 30
0.0
 11
278.0072814182888
 21
52.98602292358876
 31
0.0
  0
LINE
  5
641
330
1F
100
AcDbEntity
  8
0
  6
Continuous
 62
     7
370
    25
100
AcDbLine
 10
271.386944724436
 20
54.9700443653279
 30
0.0
 11
278.5293463259201
 21
51.96833786273543
 31
0.0
  0
SPLINE
  5
642
330
1F
100
AcDbEntity
  8
0
  6
Continuous
 62
     7
370
    25
100
AcDbSpline
210
0.0
220
0.0
230
1.0
 70
     8
 71
     3
 72
    11
 73
     7
 74
     0
 42
0.000000001
 43
0.0000000001
 40
0.0
 40
0.0
 40
0.0
 40
0.0
 40
0.2500000000000949
 40
0.5000000000001045
 40
0.7500000000000841
 40
1.0
 40
1.0
 40
1.0
 40
1.0
 10
278.5293460646049
 20
51.96833797107434
 30
0.0
 10
278.511974708194
 20
51.92215567490404
 30
0.0
 10
278.477231995372
 20
51.82979108256344
 30
0.0
 10
278.3971514658332
 20
51.71328689736023
 30
0.0
 10
278.3094773220745
 20
51.63177894149939
 30
0.0
 10
278.2569922121198
 20
51.62118265883785
 30
0.0
 10
278.2307496571423
 20
51.61588451750706
 30
0.0
  0
SPLINE
  5
643
330
1F
100
AcDbEntity
  8
0
  6
Continuous
 62
     7
370
    25
100
AcDbSpline
210
0.0
220
0.0
230
1.0
 70
     8
 71
     3
 72
     9
 73
     5
 74
     0
 42
0.000000001
 43
0.0000000001
 40
0.0
 40
0.0
 40
0.0
 40
0.0
 40
0.4999999999995258
 40
1.0
 40
1.0
 40
1.0
 40
1.0
 10
278.0073673238719
 20
52.98620444742127
 30
0.0
 10
278.7296934638749
 20
52.74512247160044
 30
0.0
 10
280.1743457438821
 20
52.2629585199582
 30
0.0
 10
281.6684882970874
 20
52.4593247959979
 30
0.0
 10
282.4155595736909
 20
52.55750793401782
 30
0.0
  0
SPLINE
  5
644
330
1F
100
AcDbEntity
  8
0
  6
Continuous
 62
     7
370
    25
100
AcDbSpline
210
0.0
220
0.0
230
1.0
 70
     8
 71
     3
 72
    11
 73
     7
 74
     0
 42
0.000000001
 43
0.0000000001
 40
0.0
 40
0.0
 40
0.0
 40
0.0
 40
0.2500915310478372
 40
0.5002832760822541
 40
0.7503662888018218
 40
1.0
 40
1.0
 40
1.0
 40
1.0
 10
278.5293682753624
 20
51.96840749732491
 30
0.0
 10
278.8570288365377
 20
51.85990732390502
 30
0.0
 10
279.5124812555018
 20
51.64286350004357
 30
0.0
 10
280.5412762071055
 20
51.67117171363301
 30
0.0
 10
281.5457689557983
 20
51.93737441593919
 30
0.0
 10
282.1258031482723
 20
52.35092070950907
 30
0.0
 10
282.4155594865313
 20
52.55750794398614
 30
0.0
  0
SPLINE
  5
645
330
1F
100
AcDbEntity
  8
0
  6
Continuous
 62
     7
370
    25
100
AcDbSpline
210
0.0
220
0.0
230
1.0
 70
     8
 71
     3
 72
    15
 73
    11
 74
     0
 42
0.000000001
 43
0.0000000001
 40
0.0
 40
0.0
 40
0.0
 40
0.0
 40
0.1250000000000037
 40
0.2499999999999972
 40
0.3749999999999985
 40
0.4999999999999963
 40
0.6249999999999895
 40
0.749999999999988
 40
0.8749999999999824
 40
1.0
 40
1.0
 40
1.0
 40
1.0
 10
270.7387127949598
 20
55.2576531105177
 30
0.0
 10
270.5639469881658
 20
55.2692205801917
 30
0.0
 10
270.214415374577
 20
55.29235551953973
 30
0.0
 10
269.4165096501251
 20
55.47031225241648
 30
0.0
 10
268.5610488145207
 20
55.72468155101802
 30
0.0
 10
267.7533797411598
 20
56.0271983793719
 30
0.0
 10
267.1214405817336
 20
56.32971521590824
 30
0.0
 10
266.7664162015328
 20
56.58408453781072
 30
0.0
 10
266.7174665600858
 20
56.76204130556016
 30
0.0
 10
266.9569042373453
 20
56.78517627233134
 30
0.0
 10
267.0766230759745
 20
56.7967437557169
 30
0.0
  0
SPLINE
  5
646
330
1F
100
AcDbEntity
  8
0
  6
Continuous
 62
     7
370
    25
100
AcDbSpline
210
0.0
220
0.0
230
1.0
 70
     8
 71
     3
 72
     9
 73
     5
 74
     0
 42
0.000000001
 43
0.0000000001
 40
0.0
 40
0.0
 40
0.0
 40
0.0
 40
0.209269394073171
 40
1.0
 40
1.0
 40
1.0
 40
1.0
 10
271.0213974285908
 20
55.36037979576125
 30
0.0
 10
271.0271977554513
 20
55.34466451552493
 30
0.0
 10
271.0549147892111
 20
55.26956858328893
 30
0.0
 10
270.8783377020685
 20
55.26291461047373
 30
0.0
 10
270.7387127949593
 20
55.2576531105177
 30
0.0
  0
LINE
  5
647
330
1F
100
AcDbEntity
  8
0
  6
Continuous
 62
     7
370
    25
100
AcDbLine
 10
278.4390808097978
 20
51.50791295378823
 30
0.0
 11
277.5582017754413
 21
51.72385716438893
 31
0.0
  0
LINE
  5
648
330
1F
100
AcDbEntity
  8
0
  6
Continuous
 62
     7
370
    25
100
AcDbLine
 10
278.2307897852784
 20
51.61602329223921
 30
0.0
 11
279.1046235159919
 21
51.37811362667233
 31
0.0
  0
LINE
  5
649
330
1F
100
AcDbEntity
  8
0
  6
Continuous
 62
     7
370
    25
100
AcDbLine
 10
282.4155595407404
 20
52.55750781486452
 30
0.0
 11
282.7393924630787
 21
52.7301534816641
 31
0.0
  0
LINE
  5
64A
330
1F
100
AcDbEntity
  8
0
  6
Continuous
 62
     7
370
    25
100
AcDbLine
 10
273.3107465892319
 20
53.07128661258921
 30
0.0
 11
266.9125217609246
 21
55.76006319389524
 31
0.0
  0
LINE
  5
64B
330
1F
100
AcDbEntity
  8
0
  6
Continuous
 62
     7
370
    25
100
AcDbLine
 10
274.9759210383895
 20
52.59042022615296
 30
0.0
 11
273.3107465951077
 21
53.07128662920334
 31
0.0
  0
LINE
  5
64C
330
1F
100
AcDbEntity
  8
0
  6
Continuous
 62
     7
370
    25
100
AcDbLine
 10
266.5205133491928
 20
54.88479455783701
 30
0.0
 11
273.4063507129249
 21
51.99092171986354
 31
0.0
  0
SPLINE
  5
64D
330
1F
100
AcDbEntity
  8
0
  6
Continuous
 62
     7
370
    25
100
AcDbSpline
210
0.0
220
0.0
230
1.0
 70
     8
 71
     3
 72
    11
 73
     7
 74
     0
 42
0.000000001
 43
0.0000000001
 40
0.0
 40
0.0
 40
0.0
 40
0.0
 40
0.2499999999998757
 40
0.4999999999997791
 40
0.7499999999997593
 40
1.0
 40
1.0
 40
1.0
 40
1.0
 10
273.3107466016975
 20
53.07128660355553
 30
0.0
 10
273.3293432161226
 20
53.10818662121775
 30
0.0
 10
273.366536444973
 20
53.18198665654222
 30
0.0
 10
273.4374290992901
 20
53.26814979992412
 30
0.0
 10
273.5110602980633
 20
53.32697701178332
 30
0.0
 10
273.5548964511181
 20
53.33446790952058
 30
0.0
 10
273.5768145276451
 20
53.33821335838923
 30
0.0
  0
SPLINE
  5
64E
330
1F
100
AcDbEntity
  8
0
  6
Continuous
 62
     7
370
    25
100
AcDbSpline
210
0.0
220
0.0
230
1.0
 70
     8
 71
     3
 72
    11
 73
     7
 74
     0
 42
0.000000001
 43
0.0000000001
 40
0.0
 40
0.0
 40
0.0
 40
0.0
 40
0.250000000000052
 40
0.5000000000000381
 40
0.7500000000000097
 40
1.0
 40
1.0
 40
1.0
 40
1.0
 10
273.406350334807
 20
51.9909218792005
 30
0.0
 10
273.3877569583358
 20
51.95399451413081
 30
0.0
 10
273.3505702053938
 20
51.88013978399158
 30
0.0
 10
273.2796550086346
 20
51.7938875658865
 30
0.0
 10
273.2059878075445
 20
51.73498683154093
 30
0.0
 10
273.162126058182
 20
51.72747322379016
 30
0.0
 10
273.140195183501
 20
51.72371641991481
 30
0.0
  0
SPLINE
  5
64F
330
1F
100
AcDbEntity
  8
0
  6
Continuous
 62
     7
370
    25
100
AcDbSpline
210
0.0
220
0.0
230
1.0
 70
     8
 71
     3
 72
    11
 73
     7
 74
     0
 42
0.000000001
 43
0.0000000001
 40
0.0
 40
0.0
 40
0.0
 40
0.0
 40
0.16256181117554
 40
0.4416126603217523
 40
0.7207667910065993
 40
1.0
 40
1.0
 40
1.0
 40
1.0
 10
276.8292003569109
 20
52.03008069227639
 30
0.0
 10
276.6440343000383
 20
51.9004392116276
 30
0.0
 10
276.1410153290662
 20
51.54825736311514
 30
0.0
 10
275.185191129505
 20
51.30971661871085
 30
0.0
 10
274.0587074026873
 20
51.26559741598078
 30
0.0
 10
273.3401327633615
 20
51.49920255957295
 30
0.0
 10
272.9807945617538
 20
51.61602167284337
 30
0.0
  0
SPLINE
  5
650
330
1F
100
AcDbEntity
  8
0
  6
Continuous
 62
     7
370
    25
100
AcDbSpline
210
0.0
220
0.0
230
1.0
 70
     8
 71
     3
 72
     9
 73
     5
 74
     0
 42
0.000000001
 43
0.0000000001
 40
0.0
 40
0.0
 40
0.0
 40
0.0
 40
0.5481931993221348
 40
0.9999999999999998
 40
0.9999999999999998
 40
0.9999999999999998
 40
0.9999999999999998
 10
274.3917532969579
 20
51.4384900849347
 30
0.0
 10
274.8352940103217
 20
51.44767982815267
 30
0.0
 10
275.6443896246275
 20
51.46444352246573
 30
0.0
 10
276.3808334824191
 20
51.88752775508155
 30
0.0
 10
276.7135638256871
 20
52.07868008863693
 30
0.0
  0
LINE
  5
651
330
1F
100
AcDbEntity
  8
0
  6
Continuous
 62
     7
370
    25
100
AcDbLine
 10
331.0617870979064
 20
84.11595173538538
 30
0.0
 11
330.5160226328703
 21
84.11595173538504
 31
0.0
  0
SPLINE
  5
652
330
1F
100
AcDbEntity
  8
0
  6
Continuous
 62
     7
370
    25
100
AcDbSpline
210
0.0
220
0.0
230
1.0
 70
     8
 71
     3
 72
    19
 73
    15
 74
     0
 42
0.000000001
 43
0.0000000001
 40
0.0
 40
0.0
 40
0.0
 40
0.0
 40
0.1068109885298876
 40
0.1988900949099242
 40
0.2910515372700926
 40
0.3830694554428525
 40
0.458347956748613
 40
0.5336127813032912
 40
0.6109200220407871
 40
0.6882148267228608
 40
0.7649729519204317
 40
0.8417401671188386
 40
0.920867572638626
 40
1.0
 40
1.0
 40
1.0
 40
1.0
 10
58.25340293959607
 20
176.5091557490015
 30
0.0
 10
57.45243193103215
 20
177.1177154186171
 30
0.0
 10
55.96096366446158
 20
178.2508992989845
 30
0.0
 10
54.26976975852972
 20
179.7930550096695
 30
0.0
 10
52.968624066865
 20
181.1793059138928
 30
0.0
 10
52.12162373448825
 20
182.3819591064357
 30
0.0
 10
51.68372830855128
 20
183.4066003895326
 30
0.0
 10
51.60623579084358
 20
184.270879785492
 30
0.0
 10
51.90922639058135
 20
185.0249689337935
 30
0.0
 10
52.62837137157271
 20
185.6489174885469
 30
0.0
 10
53.76556539220132
 20
186.1269564019717
 30
0.0
 10
55.29876814855277
 20
186.4680212930511
 30
0.0
 10
57.19259048482354
 20
186.6822000757282
 30
0.0
 10
58.75903653665239
 20
186.7087295744033
 30
0.0
 10
59.54228441550594
 20
186.7219947446528
 30
0.0
  0
SPLINE
  5
653
330
1F
100
AcDbEntity
  8
0
  6
Continuous
 62
     7
370
    25
100
AcDbSpline
210
0.0
220
0.0
230
1.0
 70
     8
 71
     3
 72
    30
 73
    26
 74
     0
 42
0.000000001
 43
0.0000000001
 40
0.0
 40
0.0
 40
0.0
 40
0.0
 40
0.0233551867594395
 40
0.0467091633078076
 40
0.0707132984334724
 40
0.0947146698521403
 40
0.1180952605393608
 40
0.1414785803805303
 40
0.1655556255687294
 40
0.1896374593493977
 40
0.224164600561258
 40
0.2587044473345504
 40
0.2941466324915943
 40
0.3295940789412403
 40
0.3815712971035148
 40
0.4335607810018662
 40
0.4869481451471505
 40
0.5403470584202342
 40
0.5968386441257778
 40
0.6533395830257928
 40
0.710430386429549
 40
0.7675269361052905
 40
0.8255940401450079
 40
0.8836653703121315
 40
1.0
 40
1.0
 40
1.0
 40
1.0
 10
59.54228441550594
 20
186.7219947446528
 30
0.0
 10
60.33958349835131
 20
186.7101723321798
 30
0.0
 10
61.93414034987108
 20
186.6865281198435
 30
0.0
 10
64.71125629759308
 20
186.4921404370072
 30
0.0
 10
67.77551107514501
 20
186.1730665045674
 30
0.0
 10
71.11984786601886
 20
185.7161087280574
 30
0.0
 10
74.6949902250733
 20
185.1241810423434
 30
0.0
 10
78.49675975455671
 20
184.4018314876829
 30
0.0
 10
82.5228991198394
 20
183.5522496438542
 30
0.0
 10
87.34127882881921
 20
182.4511610627987
 30
0.0
 10
92.94306097873175
 20
181.0695291341634
 30
0.0
 10
99.37096121339061
 20
179.3719657995657
 30
0.0
 10
105.9431752144841
 20
177.5400074392171
 30
0.0
 10
113.6565495361141
 20
175.2897465254388
 30
0.0
 10
122.4375945279754
 20
172.5972690524464
 30
0.0
 10
132.300910713142
 20
169.4119866999296
 30
0.0
 10
142.1447275070413
 20
166.0829039899761
 30
0.0
 10
152.1128989169938
 20
162.5729641830073
 30
0.0
 10
162.0860508917101
 20
158.9315429554539
 30
0.0
 10
172.0771202518183
 20
155.1641009040986
 30
0.0
 10
181.9037279018546
 20
151.3539139626549
 30
0.0
 10
191.6300169584847
 20
147.4906976940439
 30
0.0
 10
201.2385081101738
 20
143.5954244833753
 30
0.0
 10
213.943596601708
 20
138.3619785945666
 30
0.0
 10
223.3147758636182
 20
134.4337762287283
 30
0.0
 10
229.5656670033434
 20
131.8135333886972
 30
0.0
  0
LINE
  5
654
330
1F
100
AcDbEntity
  8
0
  6
Continuous
 62
     7
370
    25
100
AcDbLine
 10
229.5656670033434
 20
131.8135333886972
 30
0.0
 11
286.094672065168
 21
108.055713900641
 31
0.0
  0
LWPOLYLINE
  5
655
330
1F
100
AcDbEntity
  8
0
  6
Continuous
 62
     7
370
    25
100
AcDbPolyline
 90
        9
 70
   128
 43
0.0
 10
286.094672065168
 20
108.055713900641
 10
290.9649263330259
 20
105.9833641852371
 10
295.8252043333002
 20
103.9111569628205
 10
300.6754568811971
 20
101.8391132036084
 10
305.5156348933764
 20
99.7672538761641
 10
310.3456893884516
 20
97.69559994718404
 10
315.1655714874821
 20
95.62417238128645
 10
319.9752324144703
 20
93.55299214079867
 10
324.7746234968313
 20
91.48208018554607
  0
LWPOLYLINE
  5
656
330
1F
100
AcDbEntity
  8
0
  6
Continuous
 62
     7
370
    25
100
AcDbPolyline
 90
       15
 70
   128
 43
0.0
 10
324.7746234968313
 20
91.48208018554607
 10
326.6432900419022
 20
90.6465766426702
 10
328.3466400868667
 20
89.82493474844309
 10
329.8644034859074
 20
89.02693217660553
 10
331.1785186048314
 20
88.26206528907205
 10
332.2733472574885
 20
87.53943612766139
 10
333.1358608027599
 20
86.86764409830152
 10
333.7557951875327
 20
86.2546836366838
 10
334.1257730906184
 20
85.70784907316284
 10
334.2413917140924
 20
85.2336478290249
 10
334.1012751773093
 20
84.83772297710416
 10
333.7070908901133
 20
84.52478608828698
 10
333.0635297103843
 20
84.29856116304348
 10
332.1782501220573
 20
84.16174031520881
 10
331.0617870979064
 20
84.11595173538538
  0
LWPOLYLINE
  5
657
330
1F
100
AcDbEntity
  8
0
  6
Continuous
 62
     7
370
    25
100
AcDbPolyline
 90
       14
 70
   128
 43
0.0
 10
330.9895310536392
 20
84.52703205113754
 10
331.2795576808389
 20
84.55116695136172
 10
332.1571670254727
 20
84.70179852405934
 10
332.7669820053152
 20
84.95054044604151
 10
333.1005873640214
 20
85.2939601564392
 10
333.1533794517886
 20
85.72731857046035
 10
332.9246297542869
 20
86.24463547728089
 10
332.4174949459292
 20
86.83877206508677
 10
331.6389733287494
 20
87.50152943444874
 10
330.5998082580188
 20
88.22376174057451
 10
329.3143398872989
 20
88.9955024031118
 10
327.8003072787978
 20
89.80610164184595
 10
326.0786036098498
 20
90.64437344034173
 10
324.172987853593
 20
91.4987499094774
  0
LWPOLYLINE
  5
658
330
1F
100
AcDbEntity
  8
0
  6
Continuous
 62
     7
370
    25
100
AcDbPolyline
 90
        9
 70
   128
 43
0.0
 10
324.172987853593
 20
91.4987499094774
 10
319.3773987027639
 20
93.56802218948104
 10
314.5715498896755
 20
95.63756249466269
 10
309.7554900287298
 20
97.7073498902258
 10
304.929267837623
 20
99.77736343887423
 10
300.0929321368488
 20
101.8475822010243
 10
295.2465318492063
 20
103.9179852350163
 10
290.3901159993038
 20
105.9885515973266
 10
285.5237337130653
 20
108.0592603427792
  0
LINE
  5
659
330
1F
100
AcDbEntity
  8
0
  6
Continuous
 62
     7
370
    25
100
AcDbLine
 10
285.5237337130653
 20
108.0592603427792
 30
0.0
 11
229.0047038442084
 21
131.8128874904076
 31
0.0
  0
SPLINE
  5
65A
330
1F
100
AcDbEntity
  8
0
  6
Continuous
 62
     7
370
    25
100
AcDbSpline
210
0.0
220
0.0
230
1.0
 70
     8
 71
     3
 72
    30
 73
    26
 74
     0
 42
0.000000001
 43
0.0000000001
 40
0.0
 40
0.0
 40
0.0
 40
0.0
 40
0.0323505170780384
 40
0.0970620523778556
 40
0.1617697603806536
 40
0.2265236948673447
 40
0.2912698627431038
 40
0.3559909655869242
 40
0.4208707125387975
 40
0.4857330841552018
 40
0.518120963064713
 40
0.5505072568697048
 40
0.6008045172015675
 40
0.6510909348741782
 40
0.6938594201126717
 40
0.7366197230867299
 40
0.7690408630708501
 40
0.8014526406475276
 40
0.8349521947424673
 40
0.8684332054813632
 40
0.8991080341712443
 40
0.9298952268270451
 40
0.9605876725148196
 40
0.9802935394279208
 40
1.0
 40
1.0
 40
1.0
 40
1.0
 10
229.0047038442084
 20
131.8128874904076
 30
0.0
 10
227.2828115118664
 20
132.5349435352661
 30
0.0
 10
222.1165755797597
 20
134.7013460529369
 30
0.0
 10
213.4772252746724
 20
138.311964743598
 30
0.0
 10
203.0012296171106
 20
142.6447497656062
 30
0.0
 10
192.3586030817561
 20
146.9739037393306
 30
0.0
 10
181.5055813519284
 20
151.2920887447843
 30
0.0
 10
170.4041523674095
 20
155.5904563504613
 30
0.0
 10
159.038254569583
 20
159.8516039465347
 30
0.0
 10
149.3411817784501
 20
163.3502416098346
 30
0.0
 10
141.469146084168
 20
166.0955273554832
 30
0.0
 10
134.4173874731202
 20
168.4949248724327
 30
0.0
 10
126.185950348384
 20
171.200811033148
 30
0.0
 10
117.2485945341814
 20
174.0024055442425
 30
0.0
 10
108.78087920236
 20
176.5266150712525
 30
0.0
 10
101.4707251514545
 20
178.5948796432231
 30
0.0
 10
94.88792945718705
 20
180.3576283158339
 30
0.0
 10
88.98251712465128
 20
181.8465712937027
 30
0.0
 10
83.19336187026465
 20
183.1941719307508
 30
0.0
 10
77.76612320425011
 20
184.3272632524795
 30
0.0
 10
72.86925529545761
 20
185.1936482374241
 30
0.0
 10
68.52966574622712
 20
185.8085355852988
 30
0.0
 10
65.10998992622626
 20
186.1501607222865
 30
0.0
 10
62.44768039985331
 20
186.3118020160142
 30
0.0
 10
61.12110466539639
 20
186.3287486425224
 30
0.0
 10
60.45780680721282
 20
186.3372220834081
 30
0.0
  0
SPLINE
  5
65B
330
1F
100
AcDbEntity
  8
0
  6
Continuous
 62
     7
370
    25
100
AcDbSpline
210
0.0
220
0.0
230
1.0
 70
     8
 71
     3
 72
    16
 73
    12
 74
     0
 42
0.000000001
 43
0.0000000001
 40
0.0
 40
0.0
 40
0.0
 40
0.0
 40
0.1125582113061187
 40
0.2191288508855615
 40
0.3260156577922122
 40
0.4325080543178525
 40
0.5364572648642169
 40
0.6407188412708451
 40
0.7448069320455195
 40
0.8796079073524481
 40
1.0
 40
1.0
 40
1.0
 40
1.0
 10
60.45780680721282
 20
186.3372220834081
 30
0.0
 10
59.4534054297319
 20
186.3147862002558
 30
0.0
 10
57.49803214224527
 20
186.2711079182655
 30
0.0
 10
55.32049157309598
 20
185.9142941172625
 30
0.0
 10
53.74887546747789
 20
185.356941004055
 30
0.0
 10
52.85183790018709
 20
184.5737940175524
 30
0.0
 10
52.63973669813549
 20
183.5787507254987
 30
0.0
 10
52.98743176830453
 20
182.4227048514588
 30
0.0
 10
53.9255839005931
 20
180.9948130194659
 30
0.0
 10
55.43521886574854
 20
179.3567522043181
 30
0.0
 10
56.97253804623017
 20
178.0788159256783
 30
0.0
 10
57.69779706164524
 20
177.4759256352449
 30
0.0
  0
LINE
  5
65D
330
1F
100
AcDbEntity
  8
0
  6
Continuous
 62
     7
370
    25
100
AcDbLine
 10
62.31308481344467
 20
193.5388258038002
 30
0.0
 11
59.54228441550594
 21
186.7219947446528
 31
0.0
  0
SPLINE
  5
65E
330
1F
100
AcDbEntity
  8
0
  6
Continuous
 62
     7
370
    25
100
AcDbSpline
210
0.0
220
0.0
230
1.0
 70
     8
 71
     3
 72
    28
 73
    24
 74
     0
 42
0.000000001
 43
0.0000000001
 40
0.0
 40
0.0
 40
0.0
 40
0.0
 40
0.069749545755782
 40
0.1394002723133266
 40
0.2090950544982339
 40
0.2790412499825361
 40
0.3343442549481947
 40
0.3898571054847912
 40
0.4453627714913642
 40
0.5007148189145079
 40
0.5433499164957123
 40
0.5858799666033291
 40
0.6283692860705294
 40
0.6709274304862061
 40
0.7137127896403818
 40
0.7566911182525723
 40
0.7919349729192354
 40
0.8268680092303977
 40
0.861465064618047
 40
0.8958832711829749
 40
0.9304090163442626
 40
0.9651388735066696
 40
1.0
 40
1.0
 40
1.0
 40
1.0
 10
231.44980505481
 20
138.8611634728008
 30
0.0
 10
227.7233025028513
 20
140.4235478509548
 30
0.0
 10
220.2755770031296
 20
143.5461030649392
 30
0.0
 10
209.0057703753128
 20
148.2293422992842
 30
0.0
 10
197.5562078434078
 20
152.9136142691662
 30
0.0
 10
186.6730727990969
 20
157.2670579990238
 30
0.0
 10
176.3683420640456
 20
161.285168847581
 30
0.0
 10
166.7002763090479
 20
164.9576126914921
 30
0.0
 10
156.8361016332848
 20
168.592427159206
 30
0.0
 10
147.5602479459565
 20
171.8927834394335
 30
0.0
 10
138.942690700054
 20
174.8512312316237
 30
0.0
 10
131.0304436978045
 20
177.4747460391072
 30
0.0
 10
123.0652371321121
 20
180.0152670662471
 30
0.0
 10
115.0611866679348
 20
182.4593836713025
 30
0.0
 10
107.0490932116313
 20
184.7894453228023
 30
0.0
 10
99.56489935631385
 20
186.8473239370688
 30
0.0
 10
92.6975972926183
 20
188.614192967516
 30
0.0
 10
86.51691216433063
 20
190.0848432654469
 30
0.0
 10
80.65665523265057
 20
191.3385421610114
 30
0.0
 10
75.21222295151392
 20
192.3348303447903
 30
0.0
 10
70.31076749205396
 20
193.0296717730981
 30
0.0
 10
65.92298282839488
 20
193.4600866677085
 30
0.0
 10
63.51789638831474
 20
193.5125464401822
 30
0.0
 10
62.31308481344467
 20
193.5388258038002
 30
0.0
  0
SPLINE
  5
65F
330
1F
100
AcDbEntity
  8
0
  6
Continuous
 62
     7
370
    25
100
AcDbSpline
210
0.0
220
0.0
230
1.0
 70
     8
 71
     3
 72
    10
 73
     6
 74
     0
 42
0.000000001
 43
0.0000000001
 40
0.0
 40
0.0
 40
0.0
 40
0.0
 40
0.3412598162844352
 40
0.7050534172769326
 40
1.0
 40
1.0
 40
1.0
 40
1.0
 10
53.32394520549906
 20
184.848632657958
 30
0.0
 10
53.40048193447604
 20
184.4979460809377
 30
0.0
 10
53.55860920213877
 20
183.7734166821549
 30
0.0
 10
54.31646686168846
 20
182.590146931245
 30
0.0
 10
55.16738639771472
 20
181.7184916018807
 30
0.0
 10
55.5483800208874
 20
181.3282136636833
 30
0.0
  0
LWPOLYLINE
  5
660
330
1F
100
AcDbEntity
  8
0
  6
Continuous
 62
     7
370
    25
100
AcDbPolyline
 90
        3
 70
   128
 43
0.0
 10
332.8892465217078
 20
86.29659887978448
 10
332.4823243619239
 20
86.15498816091616
 10
332.1258671295517
 20
86.07607307556433
  0
LWPOLYLINE
  5
661
330
1F
100
AcDbEntity
  8
0
  6
Continuous
 62
     7
370
    25
100
AcDbPolyline
 90
        3
 70
   128
 43
0.0
 10
202.3352463557695
 20
175.6460675280767
 10
202.27449240667
 20
175.6657141697288
 10
202.2137340904676
 20
175.6853573354665
  0
SPLINE
  5
662
330
1F
100
AcDbEntity
  8
0
  6
Continuous
 62
     7
370
    25
100
AcDbSpline
210
0.0
220
0.0
230
1.0
 70
     8
 71
     3
 72
     9
 73
     5
 74
     0
 42
0.000000001
 43
0.0000000001
 40
0.0
 40
0.0
 40
0.0
 40
0.0
 40
0.4999971250512444
 40
0.9999999999999998
 40
0.9999999999999998
 40
0.9999999999999998
 40
0.9999999999999998
 10
229.0294414588989
 20
166.5656234838043
 30
0.0
 10
224.6247641564715
 20
168.1181703232964
 30
0.0
 10
215.8153588984399
 20
171.223281856354
 30
0.0
 10
206.8286344275747
 20
174.1717999862768
 30
0.0
 10
202.3352463557695
 20
175.6460675280767
 30
0.0
  0
SPLINE
  5
665
330
1F
100
AcDbEntity
  8
0
  6
Continuous
 62
     7
370
    25
100
AcDbSpline
210
0.0
220
0.0
230
1.0
 70
     8
 71
     3
 72
     9
 73
     5
 74
     0
 42
0.000000001
 43
0.0000000001
 40
0.0
 40
0.0
 40
0.0
 40
0.0
 40
0.5000000004502369
 40
1.0
 40
1.0
 40
1.0
 40
1.0
 10
75.06480507260381
 20
195.9046514838083
 30
0.0
 10
74.2408161375904
 20
195.8013634658499
 30
0.0
 10
72.59283826904709
 20
195.594787430119
 30
0.0
 10
70.95751015575252
 20
195.2816564437872
 30
0.0
 10
70.13984609984186
 20
195.1250909507622
 30
0.0
  0
SPLINE
  5
666
330
1F
100
AcDbEntity
  8
0
  6
Continuous
 62
     7
370
    25
100
AcDbSpline
210
0.0
220
0.0
230
1.0
 70
     8
 71
     3
 72
     9
 73
     5
 74
     0
 42
0.000000001
 43
0.0000000001
 40
0.0
 40
0.0
 40
0.0
 40
0.0
 40
0.4915263365216094
 40
1.0
 40
1.0
 40
1.0
 40
1.0
 10
78.71576025304034
 20
195.8802049545081
 30
0.0
 10
78.03676742592734
 20
195.8871219749688
 30
0.0
 10
76.65537079127648
 20
195.9011945077036
 30
0.0
 10
75.60110402849137
 20
195.9035038140945
 30
0.0
 10
75.0650371453346
 20
195.9046780355752
 30
0.0
  0
SPLINE
  5
667
330
1F
100
AcDbEntity
  8
0
  6
Continuous
 62
     7
370
    25
100
AcDbSpline
210
0.0
220
0.0
230
1.0
 70
     8
 71
     3
 72
    16
 73
    12
 74
     0
 42
0.000000001
 43
0.0000000001
 40
0.0
 40
0.0
 40
0.0
 40
0.0
 40
0.1402085730542143
 40
0.2770484418367833
 40
0.4037970498993816
 40
0.5117972552562833
 40
0.6086821440796878
 40
0.6998747805683181
 40
0.826757811366482
 40
0.9452314586243703
 40
1.0
 40
1.0
 40
1.0
 40
1.0
 10
108.687354202345
 20
195.1646023003829
 30
0.0
 10
107.1666156629768
 20
195.2263630247462
 30
0.0
 10
104.1616764242737
 20
195.348400586921
 30
0.0
 10
99.8371964807983
 20
195.4749071779313
 30
0.0
 10
95.92577468250908
 20
195.5718131352911
 30
0.0
 10
92.5033938831101
 20
195.6463012669196
 30
0.0
 10
89.50806428417058
 20
195.7072283773293
 30
0.0
 10
86.39969172751728
 20
195.7658835637013
 30
0.0
 10
83.21057431550036
 20
195.820164972727
 30
0.0
 10
80.54481596901258
 20
195.8590617606263
 30
0.0
 10
79.15510235617091
 20
195.8751263255819
 30
0.0
 10
78.71576025304034
 20
195.8802049545081
 30
0.0
  0
LWPOLYLINE
  5
668
330
1F
100
AcDbEntity
  8
0
  6
Continuous
 62
     7
370
    25
100
AcDbPolyline
 90
        3
 70
   128
 43
0.0
 10
108.7079021854657
 20
195.1635462687409
 10
108.6977250949576
 20
195.1639918096389
 10
108.687547878055
 20
195.1644371107488
  0
SPLINE
  5
669
330
1F
100
AcDbEntity
  8
0
  6
Continuous
 62
     7
370
    25
100
AcDbSpline
210
0.0
220
0.0
230
1.0
 70
     8
 71
     3
 72
    15
 73
    11
 74
     0
 42
0.000000001
 43
0.0000000001
 40
0.0
 40
0.0
 40
0.0
 40
0.0
 40
0.1643565696786346
 40
0.3288353948478795
 40
0.4951192159106884
 40
0.5950498545506125
 40
0.6947165347452736
 40
0.7935732710046174
 40
0.8931645787563608
 40
1.0
 40
1.0
 40
1.0
 40
1.0
 10
164.1426679234621
 20
187.0343444798594
 30
0.0
 10
161.2935945240979
 20
187.7742797249548
 30
0.0
 10
155.5933284619486
 20
189.2547006108283
 30
0.0
 10
146.7349698793013
 20
191.1781048726891
 30
0.0
 10
138.7548232905338
 20
192.4750125578002
 30
0.0
 10
131.8766211663888
 20
193.3644924538571
 30
0.0
 10
126.2190220766416
 20
193.9714335082537
 30
0.0
 10
120.5380417278379
 20
194.4671064351171
 30
0.0
 10
114.6997002609355
 20
194.8754150369533
 30
0.0
 10
110.7513545173585
 20
195.0652815358392
 30
0.0
 10
108.7079021854657
 20
195.1635462687409
 30
0.0
  0
SPLINE
  5
66A
330
1F
100
AcDbEntity
  8
0
  6
Continuous
 62
     7
370
    25
100
AcDbSpline
210
0.0
220
0.0
230
1.0
 70
     8
 71
     3
 72
    10
 73
     6
 74
     0
 42
0.000000001
 43
0.0000000001
 40
0.0
 40
0.0
 40
0.0
 40
0.0
 40
0.4998355916248153
 40
0.749657957750063
 40
1.0
 40
1.0
 40
1.0
 40
1.0
 10
201.9093012109583
 20
175.7849680036469
 30
0.0
 10
195.684084770947
 20
177.7482021808276
 30
0.0
 10
186.3474486426536
 20
180.6926786217031
 30
0.0
 10
173.7436258712644
 20
184.4025491753342
 30
0.0
 10
167.3451598846532
 20
186.1567827805307
 30
0.0
 10
164.1426028543387
 20
187.034810916789
 30
0.0
  0
SPLINE
  5
66B
330
1F
100
AcDbEntity
  8
0
  6
Continuous
 62
     7
370
    25
100
AcDbSpline
210
0.0
220
0.0
230
1.0
 70
     8
 71
     3
 72
     9
 73
     5
 74
     0
 42
0.000000001
 43
0.0000000001
 40
0.0
 40
0.0
 40
0.0
 40
0.0
 40
0.5000002707698631
 40
0.9999999999999998
 40
0.9999999999999998
 40
0.9999999999999998
 40
0.9999999999999998
 10
202.2137363319343
 20
175.6910136699759
 30
0.0
 10
202.1630697774047
 20
175.7048562062486
 30
0.0
 10
202.0617367232219
 20
175.7325412638013
 30
0.0
 10
201.9601134289976
 20
175.7664365684014
 30
0.0
 10
201.909301809402
 20
175.7833842115235
 30
0.0
  0
SPLINE
  5
66C
330
1F
100
AcDbEntity
  8
0
  6
Continuous
 62
     7
370
    25
100
AcDbSpline
210
0.0
220
0.0
230
1.0
 70
     8
 71
     3
 72
    13
 73
     9
 74
     0
 42
0.000000001
 43
0.0000000001
 40
0.0
 40
0.0
 40
0.0
 40
0.0
 40
0.1557627844387832
 40
0.3115583987456759
 40
0.4674370903363409
 40
0.6233795337914014
 40
0.8312698032042934
 40
1.0
 40
1.0
 40
1.0
 40
1.0
 10
314.4498798285838
 20
133.2120857990488
 30
0.0
 10
315.0886601777919
 20
132.9465211203091
 30
0.0
 10
316.3663555109004
 20
132.4153357901953
 30
0.0
 10
317.9042243600322
 20
131.706812407951
 30
0.0
 10
319.0826693288002
 20
131.0707891177832
 30
0.0
 10
320.0564702129044
 20
130.4156825819505
 30
0.0
 10
320.6993709186713
 20
129.798679943836
 30
0.0
 10
320.8762601091055
 20
129.3872630723389
 30
0.0
 10
320.9555084521749
 20
129.2029436953501
 30
0.0
  0
LINE
  5
66D
330
1F
100
AcDbEntity
  8
0
  6
Continuous
 62
     7
370
    25
100
AcDbLine
 10
314.4497981204506
 20
133.2121127734782
 30
0.0
 11
286.4218436609327
 21
144.6313989023173
 31
0.0
  0
SPLINE
  5
66E
330
1F
100
AcDbEntity
  8
0
  6
Continuous
 62
     7
370
    25
100
AcDbSpline
210
0.0
220
0.0
230
1.0
 70
     8
 71
     3
 72
    10
 73
     6
 74
     0
 42
0.000000001
 43
0.0000000001
 40
0.0
 40
0.0
 40
0.0
 40
0.0
 40
0.3332932827312724
 40
0.6666942014257283
 40
1.0
 40
1.0
 40
1.0
 40
1.0
 10
286.4218445298829
 20
144.6314084744553
 30
0.0
 10
280.1150103834889
 20
147.1515796030725
 30
0.0
 10
267.4993053194737
 20
152.1927357412367
 30
0.0
 10
248.4304318786213
 20
159.5385802706431
 30
0.0
 10
235.4958467739735
 20
164.2239891828358
 30
0.0
 10
229.0294769206856
 20
166.5663594015175
 30
0.0
  0
SPLINE
  5
670
330
1F
100
AcDbEntity
  8
0
  6
Continuous
 62
     7
370
    25
100
AcDbSpline
210
0.0
220
0.0
230
1.0
 70
     8
 71
     3
 72
     9
 73
     5
 74
     0
 42
0.000000001
 43
0.0000000001
 40
0.0
 40
0.0
 40
0.0
 40
0.0
 40
0.4898825126246383
 40
1.0
 40
1.0
 40
1.0
 40
1.0
 10
80.1057309890432
 20
197.4803673472785
 30
0.0
 10
81.0520263100849
 20
197.4691294291666
 30
0.0
 10
82.98370440974293
 20
197.4461894020735
 30
0.0
 10
85.26713320833369
 20
197.4063325110585
 30
0.0
 10
86.43195016967116
 20
197.3860008139593
 30
0.0
  0
SPLINE
  5
671
330
1F
100
AcDbEntity
  8
0
  6
Continuous
 62
     7
370
    25
100
AcDbSpline
210
0.0
220
0.0
230
1.0
 70
     8
 71
     3
 72
     9
 73
     5
 74
     0
 42
0.000000001
 43
0.0000000001
 40
0.0
 40
0.0
 40
0.0
 40
0.0
 40
0.504171184143774
 40
1.0
 40
1.0
 40
1.0
 40
1.0
 10
86.43193952918442
 20
197.3860044145992
 30
0.0
 10
87.85027076793495
 20
197.359313734466
 30
0.0
 10
90.66346454686755
 20
197.3063740168211
 30
0.0
 10
93.60262461057141
 20
197.2416279990211
 30
0.0
 10
95.0599448645695
 20
197.209525057684
 30
0.0
  0
SPLINE
  5
672
330
1F
100
AcDbEntity
  8
0
  6
Continuous
 62
     7
370
    25
100
AcDbSpline
210
0.0
220
0.0
230
1.0
 70
     8
 71
     3
 72
    18
 73
    14
 74
     0
 42
0.000000001
 43
0.0000000001
 40
0.0
 40
0.0
 40
0.0
 40
0.0
 40
0.089167330532254
 40
0.1775477110456925
 40
0.2644411317350972
 40
0.3492621741736565
 40
0.4321663091557852
 40
0.5142006811531191
 40
0.6120078003920356
 40
0.7092769310202123
 40
0.8061819592671504
 40
0.9030382959659974
 40
1.0
 40
1.0
 40
1.0
 40
1.0
 10
95.05997176577114
 20
197.2095173665257
 30
0.0
 10
97.55414091603734
 20
197.1479466490233
 30
0.0
 10
102.5204668220303
 20
197.0253486089708
 30
0.0
 10
110.0908759893814
 20
196.7454749124466
 30
0.0
 10
117.5793819827233
 20
196.3512925217598
 30
0.0
 10
124.9097630502777
 20
195.8034765359865
 30
0.0
 10
132.0387441681159
 20
195.0851675509593
 30
0.0
 10
139.4341101441082
 20
194.1169388553799
 30
0.0
 10
147.0843350441521
 20
192.8278289804991
 30
0.0
 10
154.9546717966268
 20
191.1353046532418
 30
0.0
 10
162.576136056258
 20
189.232794897595
 30
0.0
 10
170.0216645297254
 20
187.192925587381
 30
0.0
 10
174.9455249523596
 20
185.7679505418149
 30
0.0
 10
177.4087935686299
 20
185.0550756819639
 30
0.0
  0
SPLINE
  5
673
330
1F
100
AcDbEntity
  8
0
  6
Continuous
 62
     7
370
    25
100
AcDbSpline
210
0.0
220
0.0
230
1.0
 70
     8
 71
     3
 72
     9
 73
     5
 74
     0
 42
0.000000001
 43
0.0000000001
 40
0.0
 40
0.0
 40
0.0
 40
0.0
 40
0.500000237135831
 40
0.9999999999999998
 40
0.9999999999999998
 40
0.9999999999999998
 40
0.9999999999999998
 10
177.4087904678293
 20
185.0550807251034
 30
0.0
 10
180.0129874658708
 20
184.2965750954353
 30
0.0
 10
185.2213789917616
 20
182.7795645555741
 30
0.0
 10
190.3000464646479
 20
181.198496082446
 30
0.0
 10
192.8393789967574
 20
180.4079622208099
 30
0.0
  0
SPLINE
  5
674
330
1F
100
AcDbEntity
  8
0
  6
Continuous
 62
     7
370
    25
100
AcDbSpline
210
0.0
220
0.0
230
1.0
 70
     8
 71
     3
 72
    10
 73
     6
 74
     0
 42
0.000000001
 43
0.0000000001
 40
0.0
 40
0.0
 40
0.0
 40
0.0
 40
0.3334950977297924
 40
0.6668336695757044
 40
1.0
 40
1.0
 40
1.0
 40
1.0
 10
246.4715317910138
 20
161.6149314418627
 30
0.0
 10
240.6113622779508
 20
163.8349161985872
 30
0.0
 10
228.89377372168
 20
168.2738437624585
 30
0.0
 10
211.0512805341646
 20
174.5463714335137
 30
0.0
 10
198.908971189704
 20
178.4544339020312
 30
0.0
 10
192.8393854546384
 20
180.4079601660842
 30
0.0
  0
SPLINE
  5
675
330
1F
100
AcDbEntity
  8
0
  6
Continuous
 62
     7
370
    25
100
AcDbSpline
210
0.0
220
0.0
230
1.0
 70
     8
 71
     3
 72
    10
 73
     6
 74
     0
 42
0.000000001
 43
0.0000000001
 40
0.0
 40
0.0
 40
0.0
 40
0.0
 40
0.3929029911820487
 40
0.7856894285555575
 40
0.9999999999999998
 40
0.9999999999999998
 40
0.9999999999999998
 40
0.9999999999999998
 10
246.4715315956432
 20
161.6149391108855
 30
0.0
 10
253.8181062455639
 20
158.7198588039447
 30
0.0
 10
268.5090762001871
 20
152.9305570092715
 30
0.0
 10
286.9889664572779
 20
145.1027950611315
 30
0.0
 10
298.2025601180137
 20
140.0607753993554
 30
0.0
 10
302.161057080562
 20
138.2808982145654
 30
0.0
  0
LINE
  5
676
330
1F
100
AcDbEntity
  8
0
  6
Continuous
 62
     7
370
    25
100
AcDbLine
 10
176.8092498038805
 20
194.0098182212161
 30
0.0
 11
176.5909185749333
 21
194.0671632370694
 31
0.0
  0
SPLINE
  5
67B
330
1F
100
AcDbEntity
  8
0
  6
Continuous
 62
     7
370
    25
100
AcDbSpline
210
0.0
220
0.0
230
1.0
 70
     8
 71
     3
 72
     9
 73
     5
 74
     0
 42
0.000000001
 43
0.0000000001
 40
0.0
 40
0.0
 40
0.0
 40
0.0
 40
0.510843066736555
 40
1.0
 40
1.0
 40
1.0
 40
1.0
 10
86.32806554070908
 20
198.4575456653022
 30
0.0
 10
86.30746051413018
 20
198.4639721159178
 30
0.0
 10
86.26712517844612
 20
198.4765522036866
 30
0.0
 10
86.12659854998719
 20
198.4781006708062
 30
0.0
 10
86.05785897536884
 20
198.4788581142336
 30
0.0
  0
SPLINE
  5
67C
330
1F
100
AcDbEntity
  8
0
  6
Continuous
 62
     7
370
    25
100
AcDbSpline
210
0.0
220
0.0
230
1.0
 70
     8
 71
     3
 72
    11
 73
     7
 74
     0
 42
0.000000001
 43
0.0000000001
 40
0.0
 40
0.0
 40
0.0
 40
0.0
 40
0.2058474252694241
 40
0.4691929901341891
 40
0.7340957135981449
 40
1.0
 40
1.0
 40
1.0
 40
1.0
 10
54.72950397286388
 20
191.5104244950504
 30
0.0
 10
54.87374222360632
 20
191.7822370257473
 30
0.0
 10
55.20250793961611
 20
192.4017858681325
 30
0.0
 10
56.75378806485048
 20
193.0243119214165
 30
0.0
 10
59.07330756696467
 20
193.4613660433365
 30
0.0
 10
61.23180146668904
 20
193.5129734248676
 30
0.0
 10
62.31308481344467
 20
193.5388258038002
 30
0.0
  0
LINE
  5
67D
330
1F
100
AcDbEntity
  8
0
  6
Continuous
 62
     7
370
    25
100
AcDbLine
 10
77.456912312854
 20
197.4982975493901
 30
0.0
 11
81.76631718242379
 21
198.0210060563175
 31
0.0
  0
SPLINE
  5
67E
330
1F
100
AcDbEntity
  8
0
  6
Continuous
 62
     7
370
    25
100
AcDbSpline
210
0.0
220
0.0
230
1.0
 70
     8
 71
     3
 72
     9
 73
     5
 74
     0
 42
0.000000001
 43
0.0000000001
 40
0.0
 40
0.0
 40
0.0
 40
0.0
 40
0.5029153267298204
 40
1.0
 40
1.0
 40
1.0
 40
1.0
 10
77.45691243574606
 20
197.4982973034007
 30
0.0
 10
77.84258946422688
 20
197.4973493163826
 30
0.0
 10
78.60947209432755
 20
197.4954643330313
 30
0.0
 10
79.60890714311233
 20
197.4853802174195
 30
0.0
 10
80.10571098779236
 20
197.4803675581054
 30
0.0
  0
LINE
  5
67F
330
1F
100
AcDbEntity
  8
0
  6
Continuous
 62
     7
370
    25
100
AcDbLine
 10
72.70094975355459
 20
195.8670016011236
 30
0.0
 11
72.91408741060241
 21
195.8804220196362
 31
0.0
  0
SPLINE
  5
680
330
1F
100
AcDbEntity
  8
0
  6
Continuous
 62
     7
370
    25
100
AcDbSpline
210
0.0
220
0.0
230
1.0
 70
     8
 71
     3
 72
     9
 73
     5
 74
     0
 42
0.000000001
 43
0.0000000001
 40
0.0
 40
0.0
 40
0.0
 40
0.0
 40
0.491526309234024
 40
1.0
 40
1.0
 40
1.0
 40
1.0
 10
72.91420607962606
 20
195.8802067353458
 30
0.0
 10
73.17035876995214
 20
195.8871232618837
 30
0.0
 10
73.69149606314261
 20
195.9011947905242
 30
0.0
 10
74.60204630382884
 20
195.903503909384
 30
0.0
 10
75.06503714533835
 20
195.9046780355731
 30
0.0
  0
LINE
  5
682
330
1F
100
AcDbEntity
  8
0
  6
Continuous
 62
     7
370
    25
100
AcDbLine
 10
231.4513435084259
 20
138.8605175629106
 30
0.0
 11
287.9735953469612
 21
115.1055362967422
 31
0.0
  0
SPLINE
  5
684
330
1F
100
AcDbEntity
  8
0
  6
Continuous
 62
     7
370
    25
100
AcDbSpline
210
0.0
220
0.0
230
1.0
 70
     8
 71
     3
 72
     9
 73
     5
 74
     0
 42
0.000000001
 43
0.0000000001
 40
0.0
 40
0.0
 40
0.0
 40
0.0
 40
0.502915424727708
 40
1.0
 40
1.0
 40
1.0
 40
1.0
 10
77.45691243580029
 20
197.4982973033969
 30
0.0
 10
77.11654174788543
 20
197.4973494611377
 30
0.0
 10
76.43974666231213
 20
197.4954647659925
 30
0.0
 10
76.03620663677133
 20
197.4853815377381
 30
0.0
 10
75.83561311456958
 20
197.4803693205038
 30
0.0
  0
LINE
  5
685
330
1F
100
AcDbEntity
  8
0
  6
Continuous
 62
     7
370
    25
100
AcDbLine
 10
72.9138845570817
 20
195.8802962722375
 30
0.0
 11
75.8356597497758
 21
197.4803985329381
 31
0.0
  0
LINE
  5
688
330
1F
100
AcDbEntity
  8
0
  6
Continuous
 62
     7
370
    25
100
AcDbLine
 10
75.8356060167323
 20
197.4803691061825
 30
0.0
 11
75.36855534585822
 21
197.4492589736569
 31
0.0
  0
SPLINE
  5
689
330
1F
100
AcDbEntity
  8
0
  6
Continuous
 62
     7
370
    25
100
AcDbSpline
210
0.0
220
0.0
230
1.0
 70
     8
 71
     3
 72
    16
 73
    12
 74
     0
 42
0.000000001
 43
0.0000000001
 40
0.0
 40
0.0
 40
0.0
 40
0.0
 40
0.0754880272606339
 40
0.1542792368076038
 40
0.2314322141196217
 40
0.3085798776296399
 40
0.4622354139878104
 40
0.6159164253909295
 40
0.769521074266299
 40
0.9229649735916886
 40
1.0
 40
1.0
 40
1.0
 40
1.0
 10
86.0578574588983
 20
198.4788533032096
 30
0.0
 10
85.9733071151893
 20
198.4779756287635
 30
0.0
 10
85.80050669938088
 20
198.4761818748582
 30
0.0
 10
85.43913660189151
 20
198.4589114143019
 30
0.0
 10
85.02459399838427
 20
198.4343013531643
 30
0.0
 10
84.42811821996315
 20
198.3915425820622
 30
0.0
 10
83.63993894905513
 20
198.3242765102521
 30
0.0
 10
82.75800277810811
 20
198.2363532332497
 30
0.0
 10
82.03774248208787
 20
198.1523762018469
 30
0.0
 10
81.62874040829592
 20
198.0921873477177
 30
0.0
 10
81.53846339637278
 20
198.0665380163465
 30
0.0
 10
81.50828930572515
 20
198.0579650116207
 30
0.0
  0
SPLINE
  5
68A
330
1F
100
AcDbEntity
  8
0
  6
Continuous
 62
     7
370
    25
100
AcDbSpline
210
0.0
220
0.0
230
1.0
 70
     8
 71
     3
 72
    10
 73
     6
 74
     0
 42
0.000000001
 43
0.0000000001
 40
0.0
 40
0.0
 40
0.0
 40
0.0
 40
0.1752185799370334
 40
0.5949359308377513
 40
1.0
 40
1.0
 40
1.0
 40
1.0
 10
81.50052528606034
 20
198.0464221532116
 30
0.0
 10
81.4968861937748
 20
198.0434601364957
 30
0.0
 10
81.48453004548787
 20
198.0334029258235
 30
0.0
 10
81.56412582411793
 20
198.0233838309831
 30
0.0
 10
81.69972529926168
 20
198.0217890814486
 30
0.0
 10
81.76632048901979
 20
198.0210058730495
 30
0.0
  0
LINE
  5
68B
330
1F
100
AcDbEntity
  8
0
  6
Continuous
 62
     7
370
    25
100
AcDbLine
 10
75.31883709515
 20
197.3860011458872
 30
0.0
 11
75.59499606215479
 21
197.3485997170694
 31
0.0
  0
SPLINE
  5
68C
330
1F
100
AcDbEntity
  8
0
  6
Continuous
 62
     7
370
    25
100
AcDbSpline
210
0.0
220
0.0
230
1.0
 70
     8
 71
     3
 72
    11
 73
     7
 74
     0
 42
0.000000001
 43
0.0000000001
 40
0.0
 40
0.0
 40
0.0
 40
0.0
 40
0.2479908701272652
 40
0.4970869229647608
 40
0.7483607610058522
 40
1.0
 40
1.0
 40
1.0
 40
1.0
 10
238.9239813336404
 20
178.7814617040107
 30
0.0
 10
236.6680085055439
 20
179.6622371948143
 30
0.0
 10
232.1460090027601
 20
181.4277133928763
 30
0.0
 10
225.1862921786443
 20
183.4046153040276
 30
0.0
 10
218.1423622588948
 20
185.0379865621863
 30
0.0
 10
213.403954554067
 20
185.8961056490451
 30
0.0
 10
211.033029312043
 20
186.325476933754
 30
0.0
  0
LINE
  5
690
330
1F
100
AcDbEntity
  8
0
  6
Continuous
 62
     7
370
    25
100
AcDbLine
 10
210.8977688621328
 20
186.0555559742091
 30
0.0
 11
210.3700194322974
 21
186.4395691469797
 31
0.0
  0
LINE
  5
691
330
1F
100
AcDbEntity
  8
0
  6
Continuous
 62
     7
370
    25
100
AcDbLine
 10
210.3639600410533
 20
186.4214823156433
 30
0.0
 11
211.0010316197821
 21
186.3208018381335
 31
0.0
  0
LINE
  5
692
330
1F
100
AcDbEntity
  8
0
  6
Continuous
 62
     7
370
    25
100
AcDbLine
 10
211.0010280610728
 20
186.320803987568
 30
0.0
 11
211.0330293120412
 21
186.3254769337632
 31
0.0
  0
LWPOLYLINE
  5
694
330
1F
100
AcDbEntity
  8
0
  6
Continuous
 62
     7
370
    25
100
AcDbPolyline
 90
        9
 70
   128
 43
0.0
 10
287.9735953466718
 20
115.1055362968775
 10
292.8415262016772
 20
113.0341712582358
 10
297.6994866888493
 20
110.9629486466633
 10
302.5474276587238
 20
108.8918894173491
 10
307.3853000632086
 20
106.8210145238291
 10
312.213054956077
 20
104.7503449177743
 10
317.0306434934655
 20
102.6799015487787
 10
321.838016934365
 20
100.6097053641474
 10
326.6351266411177
 20
98.5397773086842
  0
LINE
  5
696
330
1F
100
AcDbEntity
  8
0
  6
Continuous
 62
     7
370
    25
100
AcDbLine
 10
208.8952512155191
 20
187.0564721482611
 30
0.0
 11
210.3639564969487
 21
186.4214844664857
 31
0.0
  0
LINE
  5
699
330
1F
100
AcDbEntity
  8
0
  6
Continuous
 62
     7
370
    25
100
AcDbLine
 10
206.3693317761648
 20
187.5685087210958
 30
0.0
 11
208.8925810728544
 21
187.0571370139828
 31
0.0
  0
LINE
  5
69A
330
1F
100
AcDbEntity
  8
0
  6
Continuous
 62
     7
370
    25
100
AcDbLine
 10
280.5468316091042
 20
175.1471283048807
 30
0.0
 11
335.1683496581379
 21
152.1909810216597
 31
0.0
  0
ELLIPSE
  5
69B
330
1F
100
AcDbEntity
  8
0
  6
Continuous
 62
     7
370
    25
100
AcDbEllipse
 10
334.5764290635849
 20
150.0766726248901
 30
0.0
 11
-0.2561728769375691
 21
2.239397325950037
 31
0.0
210
0.0
220
0.0
230
0.9999999999999998
 40
0.8516645715109422
 41
4.266204592139491
 42
5.837000918934504
  0
LINE
  5
69C
330
1F
100
AcDbEntity
  8
0
  6
Continuous
 62
     7
370
    25
100
AcDbLine
 10
336.4074738466208
 20
149.3071273024073
 30
0.0
 11
325.9644756560228
 21
112.0053017450522
 31
0.0
  0
LWPOLYLINE
  5
69D
330
1F
100
AcDbEntity
  8
0
  6
Continuous
 62
     7
370
    25
100
AcDbPolyline
 90
        4
 70
   128
 43
0.0
 10
304.5533250156213
 20
151.2666278192566
 10
277.3370577870287
 20
162.6772421894807
 10
258.1305491730743
 20
170.7294580114188
 10
238.9239813423342
 20
178.7814617282682
  0
SPLINE
  5
69E
330
1F
100
AcDbEntity
  8
0
  6
Continuous
 62
     7
370
    25
100
AcDbSpline
210
0.0
220
0.0
230
1.0
 70
     8
 71
     3
 72
    11
 73
     7
 74
     0
 42
0.000000001
 43
0.0000000001
 40
0.0
 40
0.0
 40
0.0
 40
0.0
 40
0.1825305469532037
 40
0.365060475747722
 40
0.6825246389409397
 40
0.9999999999999998
 40
0.9999999999999998
 40
0.9999999999999998
 40
0.9999999999999998
 10
211.0330293120439
 20
186.3254769337657
 30
0.0
 10
215.1490517931236
 20
185.7258403896224
 30
0.0
 10
223.3810828159442
 20
184.5265693320677
 30
0.0
 10
238.759961544519
 20
182.1323220688453
 30
0.0
 10
257.1693553360765
 20
179.1456647341131
 30
0.0
 10
271.4583249970543
 20
176.7173638325723
 30
0.0
 10
278.6029358284923
 20
175.5031919689062
 30
0.0
  0
LINE
  5
69F
330
1F
100
AcDbEntity
  8
0
  6
Continuous
 62
     7
370
    25
100
AcDbLine
 10
278.6029358284913
 20
175.5031919689004
 30
0.0
 11
280.5468316090844
 21
175.1471283048813
 31
0.0
  0
LINE
  5
6A0
330
1F
100
AcDbEntity
  8
0
  6
Continuous
 62
     7
370
    25
100
AcDbLine
 10
306.0752259521168
 20
149.4334316294189
 30
0.0
 11
304.5530116648351
 21
151.2667958634803
 31
0.0
  0
LINE
  5
6A1
330
1F
100
AcDbEntity
  8
0
  6
Continuous
 62
     7
370
    25
100
AcDbLine
 10
208.8971039675665
 20
187.055887365062
 30
0.0
 11
223.7178554806088
 21
184.5995702506784
 31
0.0
  0
LWPOLYLINE
  5
6A3
330
1F
100
AcDbEntity
  8
0
  6
Continuous
 62
     7
370
    25
100
AcDbPolyline
 90
       10
 70
   128
 43
0.0
 10
326.6351266411177
 20
98.5397773086842
 10
328.5808298165788
 20
97.66742144422153
 10
330.3387495771129
 20
96.81151012133211
 10
331.8846275404934
 20
95.98385447297477
 10
333.197131391473
 20
95.19587571843407
 10
334.2581492566859
 20
94.45844755640971
 10
335.0530396391183
 20
93.78174611360568
 10
335.5708334631853
 20
93.17510951945285
 10
335.8043854422931
 20
92.64690904475882
 10
335.8032301828999
 20
92.35433039086137
  0
SPLINE
  5
6A5
330
1F
100
AcDbEntity
  8
0
  6
Continuous
 62
     8
370
    25
100
AcDbSpline
210
0.0
220
0.0
230
1.0
 70
     8
 71
     3
 72
    15
 73
    11
 74
     0
 42
0.000000001
 43
0.0000000001
 40
0.0
 40
0.0
 40
0.0
 40
0.0
 40
0.0542055076699167
 40
0.2040918397238571
 40
0.3469207633993412
 40
0.4838256610580226
 40
0.6161021783740841
 40
0.7451945917356423
 40
0.872635582278156
 40
1.0
 40
1.0
 40
1.0
 40
1.0
 10
71.86369890706237
 20
185.3083229595135
 30
0.0
 10
71.88887113389887
 20
185.0546263806555
 30
0.0
 10
71.98364833101141
 20
184.09942083538
 30
0.0
 10
71.96313702826614
 20
182.5862513836638
 30
0.0
 10
71.79684138737184
 20
180.8355297751161
 30
0.0
 10
71.44373558684947
 20
179.3430059048933
 30
0.0
 10
70.92775442883191
 20
178.1091165761265
 30
0.0
 10
70.25185174848639
 20
177.1517222757828
 30
0.0
 10
69.43716030235396
 20
176.4509386989937
 30
0.0
 10
68.78426489966284
 20
176.22368739339
 30
0.0
 10
68.45791530071415
 20
176.1100958867893
 30
0.0
  0
SPLINE
  5
6A7
330
1F
100
AcDbEntity
  8
0
  6
Continuous
 62
     8
370
    25
100
AcDbSpline
210
0.0
220
0.0
230
1.0
 70
     8
 71
     3
 72
    10
 73
     6
 74
     0
 42
0.000000001
 43
0.0000000001
 40
0.0
 40
0.0
 40
0.0
 40
0.0
 40
0.2489736631195145
 40
0.624341480247169
 40
1.0
 40
1.0
 40
1.0
 40
1.0
 10
65.12181660771159
 20
186.1973446220663
 30
0.0
 10
65.23710092121018
 20
186.0906874276908
 30
0.0
 10
65.52619486808476
 20
185.823227368739
 30
0.0
 10
65.92896943285314
 20
185.2608034134648
 30
0.0
 10
66.17074910732026
 20
184.8266399087087
 30
0.0
 10
66.2916857378434
 20
184.6094741296699
 30
0.0
  0
SPLINE
  5
6A8
330
1F
100
AcDbEntity
  8
0
  6
Continuous
 62
     8
370
    25
100
AcDbSpline
210
0.0
220
0.0
230
1.0
 70
     8
 71
     3
 72
    15
 73
    11
 74
     0
 42
0.000000001
 43
0.0000000001
 40
0.0
 40
0.0
 40
0.0
 40
0.0
 40
0.0962073346253354
 40
0.2394369833277401
 40
0.3759228069727662
 40
0.5067478351855104
 40
0.6331501478924305
 40
0.7565098471543335
 40
0.8782915082048658
 40
1.0
 40
1.0
 40
1.0
 40
1.0
 10
55.90498496432292
 20
185.9566804517845
 30
0.0
 10
56.22353128481711
 20
185.48411975609
 30
0.0
 10
57.01631668237815
 20
184.3080295145609
 30
0.0
 10
58.31374751643352
 20
182.5843023243168
 30
0.0
 10
59.76240671634264
 20
180.8358791678968
 30
0.0
 10
61.17904989865451
 20
179.34282671477
 30
0.0
 10
62.55827740455254
 20
178.1091113710386
 30
0.0
 10
63.89324619677984
 20
177.1517017139055
 30
0.0
 10
65.18437659291635
 20
176.4509415369273
 30
0.0
 10
65.99067961688229
 20
176.2236907221532
 30
0.0
 10
66.39370998106665
 20
176.1100994594179
 30
0.0
  0
LWPOLYLINE
  5
6A9
330
1F
100
AcDbEntity
  8
0
  6
Continuous
 62
     8
370
    25
100
AcDbPolyline
 90
        5
 70
   128
 43
0.0
 10
66.29168568152659
 20
184.6094743452314
 10
66.2211502368616
 20
184.6088535846551
 10
66.17520920980928
 20
184.6233765446754
 10
66.15572676383476
 20
184.6524539225883
 10
66.15509463755654
 20
184.6611650849064
  0
SPLINE
  5
6AA
330
1F
100
AcDbEntity
  8
0
  6
Continuous
 62
     8
370
    25
100
AcDbSpline
210
0.0
220
0.0
230
1.0
 70
     8
 71
     3
 72
    10
 73
     6
 74
     0
 42
0.000000001
 43
0.0000000001
 40
0.0
 40
0.0
 40
0.0
 40
0.0
 40
0.5783800750242529
 40
0.8910858986114266
 40
0.9999999999999998
 40
0.9999999999999998
 40
0.9999999999999998
 40
0.9999999999999998
 10
67.17507372739897
 20
182.8923555305373
 30
0.0
 10
67.13099189401964
 20
182.8927121575706
 30
0.0
 10
67.06307686408388
 20
182.8932615978681
 30
0.0
 10
67.035611980927
 20
182.923312875643
 30
0.0
 10
67.04014138421133
 20
182.9436256354332
 30
0.0
 10
67.04131143301458
 20
182.948872887397
 30
0.0
  0
LINE
  5
6AB
330
1F
100
AcDbEntity
  8
0
  6
Continuous
 62
     8
370
    25
100
AcDbLine
 10
68.5729407168011
 20
177.7255349583803
 30
0.0
 11
68.29638390827518
 21
176.7194793664244
 31
0.0
  0
ARC
  5
6AC
330
1F
100
AcDbEntity
  8
0
  6
Continuous
 62
     8
370
    25
100
AcDbCircle
 10
73.33687309678566
 20
210.7412426845788
 30
0.0
 40
28.48433002548181
100
AcDbArc
 50
247.4327858854265
 51
257.3297593756505
  0
SPLINE
  5
6AD
330
1F
100
AcDbEntity
  8
0
  6
Continuous
 62
     8
370
    25
100
AcDbSpline
210
0.0
220
0.0
230
1.0
 70
     8
 71
     3
 72
    10
 73
     6
 74
     0
 42
0.000000001
 43
0.0000000001
 40
0.0
 40
0.0
 40
0.0
 40
0.0
 40
0.0750476377571418
 40
0.5375238188786095
 40
1.0
 40
1.0
 40
1.0
 40
1.0
 10
66.51044232717584
 20
183.9691274837924
 30
0.0
 10
66.42830443834487
 20
183.9866680397858
 30
0.0
 10
65.83999715781465
 20
184.1123011299752
 30
0.0
 10
64.52891203544925
 20
184.5205803190141
 30
0.0
 10
63.50611443798573
 20
184.9189455235265
 30
0.0
 10
62.99471563925408
 20
185.1181281257827
 30
0.0
  0
SPLINE
  5
6AE
330
1F
100
AcDbEntity
  8
0
  6
Continuous
 62
     8
370
    25
100
AcDbSpline
210
0.0
220
0.0
230
1.0
 70
     8
 71
     3
 72
    10
 73
     6
 74
     0
 42
0.000000001
 43
0.0000000001
 40
0.0
 40
0.0
 40
0.0
 40
0.0
 40
0.3054471645339861
 40
0.6525814904717371
 40
1.0
 40
1.0
 40
1.0
 40
1.0
 10
59.70718842599092
 20
186.3062279823001
 30
0.0
 10
59.71226287626791
 20
186.1656971572871
 30
0.0
 10
59.72310433335042
 20
185.8654559833866
 30
0.0
 10
59.91887903483075
 20
185.2617670177459
 30
0.0
 10
60.11579885142442
 20
184.8269641265394
 30
0.0
 10
60.21429904562705
 20
184.6094737288504
 30
0.0
  0
SPLINE
  5
6B0
330
1F
100
AcDbEntity
  8
0
  6
Continuous
 62
     8
370
    25
100
AcDbSpline
210
0.0
220
0.0
230
1.0
 70
     8
 71
     3
 72
     9
 73
     5
 74
     0
 42
0.000000001
 43
0.0000000001
 40
0.0
 40
0.0
 40
0.0
 40
0.0
 40
0.1516836207470076
 40
1.0
 40
1.0
 40
1.0
 40
1.0
 10
166.8239820432139
 20
96.01155160317299
 30
0.0
 10
167.0242641865133
 20
95.89989119935365
 30
0.0
 10
168.3446581902508
 20
95.16375104612254
 30
0.0
 10
169.8583553450419
 20
94.89255482955547
 30
0.0
 10
171.1424494346797
 20
94.66249463705025
 30
0.0
  0
SPLINE
  5
6B1
330
1F
100
AcDbEntity
  8
0
  6
Continuous
 62
     8
370
    25
100
AcDbSpline
210
0.0
220
0.0
230
1.0
 70
     8
 71
     3
 72
    10
 73
     6
 74
     0
 42
0.000000001
 43
0.0000000001
 40
0.0
 40
0.0
 40
0.0
 40
0.0
 40
0.4997318835481769
 40
0.9985557978250387
 40
1.0
 40
1.0
 40
1.0
 40
1.0
 10
282.9919484431434
 20
53.34088141398388
 30
0.0
 10
283.4574509060848
 20
53.18307675579234
 30
0.0
 10
284.3876100545695
 20
52.86775415671749
 30
0.0
 10
285.3696460361407
 20
52.7190691303631
 30
0.0
 10
285.852312976959
 20
52.77523984444854
 30
0.0
 10
285.8537063670688
 20
52.7754020012297
 30
0.0
  0
SPLINE
  5
6B2
330
1F
100
AcDbEntity
  8
0
  6
Continuous
 62
     8
370
    25
100
AcDbSpline
210
0.0
220
0.0
230
1.0
 70
     8
 71
     3
 72
    10
 73
     6
 74
     0
 42
0.000000001
 43
0.0000000001
 40
0.0
 40
0.0
 40
0.0
 40
0.0
 40
0.2925084088336597
 40
0.6460927846699053
 40
1.0
 40
1.0
 40
1.0
 40
1.0
 10
332.1304085523593
 20
87.07470191664862
 30
0.0
 10
331.1482743179569
 20
85.76885597612823
 30
0.0
 10
328.9789355117507
 20
82.88450251967608
 30
0.0
 10
325.4773564602154
 20
78.60162486427952
 30
0.0
 10
322.9216232915028
 20
75.75246668279513
 30
0.0
 10
321.6431735966095
 20
74.32723753430193
 30
0.0
  0
SPLINE
  5
6B3
330
1F
100
AcDbEntity
  8
0
  6
Continuous
 62
     8
370
    25
100
AcDbSpline
210
0.0
220
0.0
230
1.0
 70
     8
 71
     3
 72
    12
 73
     8
 74
     0
 42
0.000000001
 43
0.0000000001
 40
0.0
 40
0.0
 40
0.0
 40
0.0
 40
0.2034353794574611
 40
0.4067253780540434
 40
0.6100044477008689
 40
0.8135028544351483
 40
1.0
 40
1.0
 40
1.0
 40
1.0
 10
321.6431735966095
 20
74.32723753430195
 30
0.0
 10
320.2127452205027
 20
72.8149880397768
 30
0.0
 10
317.3529106941644
 20
69.79156974836107
 30
0.0
 10
312.9649750053286
 20
65.72253451936996
 30
0.0
 10
308.5665221156478
 20
62.10669812997636
 30
0.0
 10
304.3092431372322
 20
59.06341745206001
 30
0.0
 10
301.6189550431122
 20
57.57262751105495
 30
0.0
 10
300.3324504987848
 20
56.85972689720123
 30
0.0
  0
SPLINE
  5
6B4
330
1F
100
AcDbEntity
  8
0
  6
Continuous
 62
     8
370
    25
100
AcDbSpline
210
0.0
220
0.0
230
1.0
 70
     8
 71
     3
 72
    14
 73
    10
 74
     0
 42
0.000000001
 43
0.0000000001
 40
0.0
 40
0.0
 40
0.0
 40
0.0
 40
0.019373091100117
 40
0.1828109092500922
 40
0.3462487274000638
 40
0.5096865455500362
 40
0.6731243637000083
 40
0.8365621818499795
 40
0.9999999999999998
 40
0.9999999999999998
 40
0.9999999999999998
 40
0.9999999999999998
 10
263.4444212244026
 20
57.39934149335522
 30
0.0
 10
263.4059509740464
 20
57.42603037092763
 30
0.0
 10
263.0429329398908
 20
57.67787546630592
 30
0.0
 10
263.1525863361824
 20
57.96061048122624
 30
0.0
 10
263.8836636209893
 20
58.13590248640148
 30
0.0
 10
265.4622642270044
 20
57.97160489216969
 30
0.0
 10
267.5350984130749
 20
57.51626007310861
 30
0.0
 10
269.8554212670224
 20
56.83289351046636
 30
0.0
 10
271.223570800744
 20
56.29576355177301
 30
0.0
 10
271.907645567605
 20
56.02719857242624
 30
0.0
  0
LINE
  5
6B5
330
1F
100
AcDbEntity
  8
0
  6
Continuous
 62
     8
370
    25
100
AcDbLine
 10
267.8061186940139
 20
53.33803668804344
 30
0.0
 11
268.8646509442051
 21
53.33807880048238
 31
0.0
  0
SPLINE
  5
6B6
330
1F
100
AcDbEntity
  8
0
  6
Continuous
 62
     8
370
    25
100
AcDbSpline
210
0.0
220
0.0
230
1.0
 70
     8
 71
     3
 72
    12
 73
     8
 74
     0
 42
0.000000001
 43
0.0000000001
 40
0.0
 40
0.0
 40
0.0
 40
0.0
 40
0.1700374923826697
 40
0.4097399565990773
 40
0.7267510968327611
 40
0.9415278328276896
 40
1.0
 40
1.0
 40
1.0
 40
1.0
 10
285.5852440626587
 20
52.7759253642364
 30
0.0
 10
285.4245616982647
 20
52.77806457449694
 30
0.0
 10
285.0373648272089
 20
52.7832194371511
 30
0.0
 10
284.3532948188356
 20
52.86780789932578
 30
0.0
 10
283.6369776729808
 20
53.0327758440105
 30
0.0
 10
283.1017300044777
 20
53.21689916147659
 30
0.0
 10
282.8584914190283
 20
53.31697626214631
 30
0.0
 10
282.8064411195894
 20
53.33839162701199
 30
0.0
  0
LWPOLYLINE
  5
6B7
330
1F
100
AcDbEntity
  8
0
  6
Continuous
 62
     8
370
    25
100
AcDbPolyline
 90
       11
 70
   128
 43
0.0
 10
263.4352043804449
 20
57.37557794762844
 10
263.452009718817
 20
57.40815458796177
 10
263.7079117227895
 20
57.55044170708993
 10
264.2189814863336
 20
57.59867700600796
 10
264.9595918374641
 20
57.55044176541506
 10
265.8926054806601
 20
57.40815470168726
 10
266.9712372159288
 20
57.17895068233835
 10
268.1413999440949
 20
56.87432295397016
 10
269.3444168197991
 20
56.50954682289643
 10
270.5199635535371
 20
56.1029136875002
 10
271.6090933234286
 20
55.67481383114068
  0
LWPOLYLINE
  5
6B8
330
1F
100
AcDbEntity
  8
0
  6
Continuous
 62
     8
370
    25
100
AcDbPolyline
 90
       11
 70
   128
 43
0.0
 10
271.3869447246343
 20
54.9700443652938
 10
270.2978149547898
 20
55.39814422166992
 10
269.1222682210587
 20
55.80477735709417
 10
267.9192513453254
 20
56.16955348820432
 10
266.7490886171003
 20
56.47418121661397
 10
265.6704568817509
 20
56.70338523600617
 10
264.7374432384618
 20
56.84567229977577
 10
263.9968328872321
 20
56.89390754040653
 10
263.4857631235933
 20
56.84567224152025
 10
263.2298611195348
 20
56.70338512241627
 10
263.2106585021258
 20
56.66417102940474
  0
SPLINE
  5
6B9
330
1F
100
AcDbEntity
  8
0
  6
Continuous
 62
     8
370
    25
100
AcDbSpline
210
0.0
220
0.0
230
1.0
 70
     8
 71
     3
 72
    13
 73
     9
 74
     0
 42
0.000000001
 43
0.0000000001
 40
0.0
 40
0.0
 40
0.0
 40
0.0
 40
0.1297271308215154
 40
0.3037817046572153
 40
0.4778362784929162
 40
0.6518908523286143
 40
0.8259454261643139
 40
1.0
 40
1.0
 40
1.0
 40
1.0
 10
266.8457062136909
 20
55.98647231199777
 30
0.0
 10
266.385848432398
 20
56.09433555920401
 30
0.0
 10
265.3090005917311
 20
56.34691866112442
 30
0.0
 10
264.0858294355492
 20
56.45543255538311
 30
0.0
 10
263.3798412733179
 20
56.3209952180444
 30
0.0
 10
263.4644967595388
 20
55.92007084826616
 30
0.0
 10
264.2790840689304
 20
55.32277805224985
 30
0.0
 10
265.3186109711662
 20
54.85269893726297
 30
0.0
 10
265.8383744222843
 20
54.61765937976955
 30
0.0
  0
SPLINE
  5
6BA
330
1F
100
AcDbEntity
  8
0
  6
Continuous
 62
     8
370
    25
100
AcDbSpline
210
0.0
220
0.0
230
1.0
 70
     8
 71
     3
 72
    13
 73
     9
 74
     0
 42
0.000000001
 43
0.0000000001
 40
0.0
 40
0.0
 40
0.0
 40
0.0
 40
0.1763330648795764
 40
0.3526661297591677
 40
0.5289991946387616
 40
0.7053322595183539
 40
0.8816653243979482
 40
1.0
 40
1.0
 40
1.0
 40
1.0
 10
266.2543840708556
 20
54.61765939912732
 30
0.0
 10
265.8169864101628
 20
54.81545377358191
 30
0.0
 10
264.9421910887765
 20
55.2110425224912
 30
0.0
 10
264.2567951594723
 20
55.7136177000952
 30
0.0
 10
264.1851929402713
 20
56.05122623208777
 30
0.0
 10
264.7806522927715
 20
56.16352576382865
 30
0.0
 10
265.7776334169988
 20
56.07744395409207
 30
0.0
 10
266.6433511552036
 20
55.87511303072864
 30
0.0
 10
266.9910119732697
 20
55.79385960223556
 30
0.0
  0
LINE
  5
6BB
330
1F
100
AcDbEntity
  8
0
  6
Continuous
 62
     8
370
    25
100
AcDbLine
 10
269.5846882037404
 20
55.02499952913848
 30
0.0
 11
270.6723574017101
 21
54.61765960447826
 31
0.0
  0
SPLINE
  5
6BC
330
1F
100
AcDbEntity
  8
0
  6
Continuous
 62
     8
370
    25
100
AcDbSpline
210
0.0
220
0.0
230
1.0
 70
     8
 71
     3
 72
     9
 73
     5
 74
     0
 42
0.000000001
 43
0.0000000001
 40
0.0
 40
0.0
 40
0.0
 40
0.0
 40
0.3531942228998097
 40
1.0
 40
1.0
 40
1.0
 40
1.0
 10
261.7638938587793
 20
54.67622384612903
 30
0.0
 10
262.4008860761758
 20
54.38568230266193
 30
0.0
 10
264.2044042995673
 20
53.56307104622155
 30
0.0
 10
266.2735284574005
 20
53.42814903460965
 30
0.0
 10
267.6118499162251
 20
53.34088069804116
 30
0.0
  0
LWPOLYLINE
  5
6BD
330
1F
100
AcDbEntity
  8
0
  6
Continuous
 62
     8
370
    25
100
AcDbPolyline
 90
        6
 70
   128
 43
0.0
 10
264.6947416083199
 20
56.13281131307553
 10
264.6768235782573
 20
56.08561935578276
 10
264.781315430356
 20
55.86526421104855
 10
265.1424715992475
 20
55.57809180581057
 10
265.7356798888666
 20
55.24367246490626
 10
266.5205141346088
 20
54.88479631375861
  0
LINE
  5
6BE
330
1F
100
AcDbEntity
  8
0
  6
Continuous
 62
     8
370
    25
100
AcDbLine
 10
267.1786551840731
 20
56.02719835261126
 30
0.0
 11
268.0301989816958
 21
55.66931597316258
 31
0.0
  0
LINE
  5
6BF
330
1F
100
AcDbEntity
  8
0
  6
Continuous
 62
     8
370
    25
100
AcDbLine
 10
269.3881262803208
 20
55.09861338087421
 30
0.0
 11
273.5768145451993
 21
53.3382133554276
 31
0.0
  0
SPLINE
  5
6C0
330
1F
100
AcDbEntity
  8
0
  6
Continuous
 62
     8
370
    25
100
AcDbSpline
210
0.0
220
0.0
230
1.0
 70
     8
 71
     3
 72
    12
 73
     8
 74
     0
 42
0.000000001
 43
0.0000000001
 40
0.0
 40
0.0
 40
0.0
 40
0.0
 40
0.2519473191493027
 40
0.4900238165236635
 40
0.7076615484157295
 40
0.9017223512116585
 40
1.0
 40
1.0
 40
1.0
 40
1.0
 10
282.4155592968434
 20
52.55750821016957
 30
0.0
 10
282.4323884120184
 20
52.52878918609074
 30
0.0
 10
282.4651201246428
 20
52.47293224808706
 30
0.0
 10
282.4912478186858
 20
52.39842000609136
 30
0.0
 10
282.4988215361902
 20
52.34095687631458
 30
0.0
 10
282.4945516626895
 20
52.30342467680384
 30
0.0
 10
282.4840070682142
 20
52.29019640026066
 30
0.0
 10
282.4804622113989
 20
52.28574934955918
 30
0.0
  0
SPLINE
  5
6C1
330
1F
100
AcDbEntity
  8
0
  6
Continuous
 62
     8
370
    25
100
AcDbSpline
210
0.0
220
0.0
230
1.0
 70
     8
 71
     3
 72
    12
 73
     8
 74
     0
 42
0.000000001
 43
0.0000000001
 40
0.0
 40
0.0
 40
0.0
 40
0.0
 40
0.0164805188341262
 40
0.2322840346844774
 40
0.4709180103097121
 40
0.7289339346244189
 40
1.0
 40
1.0
 40
1.0
 40
1.0
 10
282.7856375676089
 20
52.54146692152815
 30
0.0
 10
282.7861369690768
 20
52.54176367056714
 30
0.0
 10
282.7931757637358
 20
52.54594618840869
 30
0.0
 10
282.7974990495768
 20
52.56604125551738
 30
0.0
 10
282.795163403122
 20
52.60447985803608
 30
0.0
 10
282.7771191891584
 20
52.66008554037739
 30
0.0
 10
282.7521855154769
 20
52.70642414794372
 30
0.0
 10
282.7394111762405
 20
52.73016493722164
 30
0.0
  0
LINE
  5
6C2
330
1F
100
AcDbEntity
  8
0
  6
Continuous
 62
     8
370
    25
100
AcDbLine
 10
275.4472249584031
 20
52.61089342888985
 30
0.0
 11
274.9759200689128
 21
52.59041997790061
 31
0.0
  0
SPLINE
  5
6C3
330
1F
100
AcDbEntity
  8
0
  6
Continuous
 62
     8
370
    25
100
AcDbSpline
210
0.0
220
0.0
230
1.0
 70
     8
 71
     3
 72
    10
 73
     6
 74
     0
 42
0.000000001
 43
0.0000000001
 40
0.0
 40
0.0
 40
0.0
 40
0.0
 40
0.2361648522908041
 40
0.6176132548141652
 40
1.0
 40
1.0
 40
1.0
 40
1.0
 10
276.4366122893707
 20
52.19507650198187
 30
0.0
 10
276.2072886555763
 20
52.06938927053915
 30
0.0
 10
275.6075664085961
 20
51.74069471947882
 30
0.0
 10
274.5219102260464
 20
51.65235579653412
 30
0.0
 10
273.778568148316
 20
51.87810765521101
 30
0.0
 10
273.4064405256013
 20
51.99112224837023
 30
0.0
  0
LINE
  5
6C4
330
1F
100
AcDbEntity
  8
0
  6
Continuous
 62
     8
370
    25
100
AcDbLine
 10
273.1402396265064
 20
51.72385695847882
 30
0.0
 11
274.3917532969579
 21
51.4384900849347
 31
0.0
  0
SPLINE
  5
6C5
330
1F
100
AcDbEntity
  8
0
  6
Continuous
 62
     8
370
    25
100
AcDbSpline
210
0.0
220
0.0
230
1.0
 70
     8
 71
     3
 72
     9
 73
     5
 74
     0
 42
0.000000001
 43
0.0000000001
 40
0.0
 40
0.0
 40
0.0
 40
0.0
 40
0.1120519774738187
 40
0.9999999999999998
 40
0.9999999999999998
 40
0.9999999999999998
 40
0.9999999999999998
 10
270.1663909203808
 20
52.79098793894522
 30
0.0
 10
270.0763507667921
 20
52.79524344639182
 30
0.0
 10
269.2727937424634
 20
52.83322142359975
 30
0.0
 10
268.4959541771897
 20
53.10086630045788
 30
0.0
 10
267.8061610213843
 20
53.33852103960339
 30
0.0
  0
SPLINE
  5
6C6
330
1F
100
AcDbEntity
  8
0
  6
Continuous
 62
     8
370
    25
100
AcDbSpline
210
0.0
220
0.0
230
1.0
 70
     8
 71
     3
 72
     9
 73
     5
 74
     0
 42
0.000000001
 43
0.0000000001
 40
0.0
 40
0.0
 40
0.0
 40
0.0
 40
0.5687163808000382
 40
1.0
 40
1.0
 40
1.0
 40
1.0
 10
267.6095887717882
 20
53.34183037627977
 30
0.0
 10
268.0759199609613
 20
53.16957844728483
 30
0.0
 10
268.8958914000064
 20
52.86670000943741
 30
0.0
 10
269.7564915344596
 20
52.82517646803146
 30
0.0
 10
270.1276542751305
 20
52.80726804481185
 30
0.0
  0
SPLINE
  5
6C7
330
1F
100
AcDbEntity
  8
0
  6
Continuous
 62
     8
370
    25
100
AcDbSpline
210
0.0
220
0.0
230
1.0
 70
     8
 71
     3
 72
     9
 73
     5
 74
     0
 42
0.000000001
 43
0.0000000001
 40
0.0
 40
0.0
 40
0.0
 40
0.0
 40
0.5500358698
 40
1.0
 40
1.0
 40
1.0
 40
1.0
 10
70.13984609984186
 20
195.1250909507622
 30
0.0
 10
68.98450140317414
 20
194.8745088417206
 30
0.0
 10
66.88401167131814
 20
194.4189347186499
 30
0.0
 10
64.82180525550586
 20
193.7718324332838
 30
0.0
 10
63.89388633932231
 20
193.4806596162987
 30
0.0
  0
SPLINE
  5
6C9
330
1F
100
AcDbEntity
  8
0
  6
Continuous
 62
     8
370
    25
100
AcDbSpline
210
0.0
220
0.0
230
1.0
 70
     8
 71
     3
 72
    12
 73
     8
 74
     0
 42
0.000000001
 43
0.0000000001
 40
0.0
 40
0.0
 40
0.0
 40
0.0
 40
0.2041542530713266
 40
0.4272250306741059
 40
0.6545604027802386
 40
0.8861803487473666
 40
1.0
 40
1.0
 40
1.0
 40
1.0
 10
86.05781800729483
 20
198.4787282765758
 30
0.0
 10
88.06460261517917
 20
198.6661447267004
 30
0.0
 10
92.26411647669158
 20
199.0583432601562
 30
0.0
 10
98.7090217091179
 20
199.4890706962043
 30
0.0
 10
105.4299156690348
 20
199.7916927764058
 30
0.0
 10
111.0777573904288
 20
199.9390477405034
 30
0.0
 10
114.4844012379668
 20
199.9264226372659
 30
0.0
 10
115.6068637981058
 20
199.9222627642835
 30
0.0
  0
SPLINE
  5
6CA
330
1F
100
AcDbEntity
  8
0
  6
Continuous
 62
     8
370
    25
100
AcDbSpline
210
0.0
220
0.0
230
1.0
 70
     8
 71
     3
 72
     9
 73
     5
 74
     0
 42
0.000000001
 43
0.0000000001
 40
0.0
 40
0.0
 40
0.0
 40
0.0
 40
0.7907787982226395
 40
1.0
 40
1.0
 40
1.0
 40
1.0
 10
81.76631718242379
 20
198.0210060563175
 30
0.0
 10
80.8180744127584
 20
198.0093645195657
 30
0.0
 10
79.61894923161231
 20
197.99464290996
 30
0.0
 10
78.16215304952766
 20
197.7817557256606
 30
0.0
 10
77.85736040156712
 20
197.7372152131185
 30
0.0
  0
SPLINE
  5
6CB
330
1F
100
AcDbEntity
  8
0
  6
Continuous
 62
     8
370
    25
100
AcDbSpline
210
0.0
220
0.0
230
1.0
 70
     8
 71
     3
 72
    11
 73
     7
 74
     0
 42
0.000000001
 43
0.0000000001
 40
0.0
 40
0.0
 40
0.0
 40
0.0
 40
0.2959770302619789
 40
0.5919587769555567
 40
0.8879379789353707
 40
1.0
 40
1.0
 40
1.0
 40
1.0
 10
311.7729442937297
 20
135.5135517290671
 30
0.0
 10
311.4277962882856
 20
137.182382075169
 30
0.0
 10
310.7374947774208
 20
140.5200693603966
 30
0.0
 10
309.0903966053988
 20
144.7488326544313
 30
0.0
 10
307.5392665630329
 20
147.7548359735161
 30
0.0
 10
306.3906697637799
 20
149.0717595501127
 30
0.0
 10
306.0752259521168
 20
149.4334316294189
 30
0.0
  0
LINE
  5
6CC
330
1F
100
AcDbEntity
  8
0
  6
Continuous
 62
     8
370
    25
100
AcDbLine
 10
311.9780790281875
 20
134.2191526409588
 30
0.0
 11
311.7731762706778
 21
135.5134456970048
 31
0.0
  0
MTEXT
  5
783
330
1F
100
AcDbEntity
  8
7：文字
 62
     7
 48
2.0
100
AcDbMText
 10
35.99187413395211
 20
52.8865993356722
 30
0.0
 40
20.0
 41
188.2662939976999
 46
0.0
 71
     1
 72
     5
  1
{\fMS PGothic|b0|i0|c128|p50;LA-SR8E10A-N}
 73
     1
 44
1.0
1001
ACAD
1000
ACAD_MTEXT_COLUMN_INFO_BEGIN
1070
    75
1070
     2
1070
    79
1070
     0
1070
    76
1070
     1
1070
    78
1070
     0
1070
    48
1040
188.2662939976999
1070
    49
1040
15.0
1070
    50
1070
     1
1040
0.0
1000
ACAD_MTEXT_COLUMN_INFO_END
  0
ENDSEC
  0
SECTION
  2
OBJECTS
  0
DICTIONARY
  5
C
330
0
100
AcDbDictionary
281
     1
  3
ACAD_CIP_PREVIOUS_PRODUCT_INFO
350
70C
  3
ACAD_COLOR
350
700
  3
ACAD_DETAILVIEWSTYLE
350
707
  3
ACAD_GROUP
350
D
  3
ACAD_LAYOUT
350
1A
  3
ACAD_MATERIAL
350
6CE
  3
ACAD_MLEADERSTYLE
350
703
  3
ACAD_MLINESTYLE
350
17
  3
ACAD_PLOTSETTINGS
350
19
  3
ACAD_PLOTSTYLENAME
350
E
  3
ACAD_SCALELIST
350
47
  3
ACAD_SECTIONVIEWSTYLE
350
705
  3
ACAD_TABLESTYLE
350
701
  3
ACAD_VISUALSTYLE
350
6E7
  3
ACDB_RECOMPOSE_DATA
350
789
  3
AcDbVariableDictionary
350
763
  0
DICTIONARY
  5
77B
330
2
100
AcDbDictionary
280
     1
281
     1
  3
ACAD_LAYERSTATES
360
77C
  0
DICTIONARY
  5
70D
330
10
100
AcDbDictionary
280
     1
281
     1
  3
ADSK_XREC_LAYER_RECONCILED
360
70E
  0
DICTIONARY
  5
70F
330
73
100
AcDbDictionary
280
     1
281
     1
  3
ADSK_XREC_LAYER_RECONCILED
360
710
  0
DICTIONARY
  5
77A
330
779
100
AcDbDictionary
280
     1
281
     1
  0
XRECORD
  5
70C
102
{ACAD_REACTORS
330
C
102
}
330
C
100
AcDbXrecord
280
     1
300
ACDLT
300
2014
300
ACDLT_F_S
  0
DICTIONARY
  5
700
102
{ACAD_REACTORS
330
C
102
}
330
C
100
AcDbDictionary
281
     1
  0
DICTIONARY
  5
707
102
{ACAD_REACTORS
330
C
102
}
330
C
100
AcDbDictionary
281
     1
  3
Metric50
350
708
  0
DICTIONARY
  5
D
102
{ACAD_REACTORS
330
C
102
}
330
C
100
AcDbDictionary
281
     1
  0
DICTIONARY
  5
1A
102
{ACAD_REACTORS
330
C
102
}
330
C
100
AcDbDictionary
281
     1
  3
Layout1
350
1E
  3
Layout2
350
26
  3
Model
350
22
  0
DICTIONARY
  5
6CE
102
{ACAD_REACTORS
330
C
102
}
330
C
100
AcDbDictionary
281
     1
  3
ByBlock
350
6D7
  3
ByLayer
350
6CF
  3
Global
350
6DF
  0
DICTIONARY
  5
703
102
{ACAD_REACTORS
330
C
102
}
330
C
100
AcDbDictionary
281
     1
  3
Standard
350
704
  0
DICTIONARY
  5
17
102
{ACAD_REACTORS
330
C
102
}
330
C
100
AcDbDictionary
281
     1
  3
Standard
350
18
  0
DICTIONARY
  5
19
102
{ACAD_REACTORS
330
C
102
}
330
C
100
AcDbDictionary
281
     1
  0
ACDBDICTIONARYWDFLT
  5
E
102
{ACAD_REACTORS
330
C
102
}
330
C
100
AcDbDictionary
281
     1
  3
Normal
350
F
100
AcDbDictionaryWithDefault
340
F
  0
DICTIONARY
  5
47
102
{ACAD_REACTORS
330
C
102
}
330
C
100
AcDbDictionary
281
     1
  3
A0
350
48
  3
A1
350
49
  3
A2
350
4A
  3
A3
350
4B
  3
A4
350
4C
  3
A5
350
4D
  3
A6
350
4E
  3
A7
350
4F
  3
A8
350
50
  3
A9
350
51
  3
B0
350
52
  3
B1
350
53
  3
B2
350
54
  3
B3
350
55
  3
B4
350
56
  3
B5
350
57
  3
B6
350
58
  3
B7
350
59
  3
B8
350
5A
  3
B9
350
5B
  3
C0
350
5C
  3
C1
350
5D
  3
C2
350
5E
  3
C3
350
5F
  3
C4
350
60
  3
C5
350
61
  3
C6
350
62
  3
C7
350
63
  3
C8
350
64
  3
C9
350
65
  3
D0
350
66
  3
D1
350
67
  3
D2
350
68
  0
DICTIONARY
  5
705
102
{ACAD_REACTORS
330
C
102
}
330
C
100
AcDbDictionary
281
     1
  3
Metric50
350
706
  0
DICTIONARY
  5
701
102
{ACAD_REACTORS
330
C
102
}
330
C
100
AcDbDictionary
281
     1
  3
Standard
350
702
  0
DICTIONARY
  5
6E7
102
{ACAD_REACTORS
330
C
102
}
330
C
100
AcDbDictionary
281
     1
  3
2dWireframe
350
6ED
  3
Basic
350
6EC
  3
Brighten
350
6F3
  3
ColorChange
350
6F7
  3
Conceptual
350
6F0
  3
Dim
350
6F2
  3
EdgeColorOff
350
6FF
  3
Facepattern
350
6F6
  3
Flat
350
6E8
  3
FlatWithEdges
350
6E9
  3
Gouraud
350
6EA
  3
GouraudWithEdges
350
6EB
  3
Hidden
350
6EF
  3
JitterOff
350
6FD
  3
Linepattern
350
6F5
  3
OverhangOff
350
6FE
  3
Realistic
350
6F1
  3
Shaded
350
6FC
  3
Shaded with edges
350
6FB
  3
Shades of Gray
350
6F8
  3
Sketchy
350
6F9
  3
Thicken
350
6F4
  3
Wireframe
350
6EE
  3
X-Ray
350
6FA
  0
XRECORD
  5
789
102
{ACAD_REACTORS
330
C
102
}
330
C
100
AcDbXrecord
280
     1
 90
        1
330
702
330
706
330
708
330
783
  0
DICTIONARY
  5
763
102
{ACAD_REACTORS
330
C
102
}
330
C
100
AcDbDictionary
281
     1
  3
CANNOSCALE
350
769
  3
CMLEADERSTYLE
350
765
  3
CTABLESTYLE
350
764
  3
CVIEWDETAILSTYLE
350
766
  3
CVIEWSECTIONSTYLE
350
767
  3
LAYEREVAL
350
76B
  3
LAYERNOTIFY
350
76C
  3
LIGHTINGUNITS
350
76A
  3
MSLTSCALE
350
768
  0
DICTIONARY
  5
77C
102
{ACAD_REACTORS
330
77B
102
}
330
77B
100
AcDbDictionary
281
     1
  0
XRECORD
  5
70E
102
{ACAD_REACTORS
330
70D
102
}
330
70D
100
AcDbXrecord
280
     1
290
     1
  0
XRECORD
  5
710
102
{ACAD_REACTORS
330
70F
102
}
330
70F
100
AcDbXrecord
280
     1
290
     1
  0
ACDBDETAILVIEWSTYLE
  5
708
102
{ACAD_XDICTIONARY
360
771
102
}
102
{ACAD_REACTORS
330
707
102
}
330
707
100
AcDbModelDocViewStyle
 70
     0
  3
Metric50
290
     0
100
AcDbDetailViewStyle
 70
     0
 71
     0
 90
        3
 71
     1
340
11
 62
   256
 40
5.0
340
0
 62
   256
 40
5.0
300

 40
0.0
280
     1
 71
     2
340
16
 90
       25
 62
   256
 71
     3
340
11
 62
   256
 40
5.0
 90
        0
 40
15.0
 90
        1
300
%<\AcVar ViewDetailId>% (%<\AcVar ViewScale \f "%sn">%)
 71
     4
340
16
 90
       25
 62
   256
340
16
 90
       25
 62
   256
280
     0
  0
LAYOUT
  5
1E
102
{ACAD_REACTORS
330
1A
102
}
330
1A
100
AcDbPlotSettings
  1

  2
none_device
  4

  6

 40
0.0
 41
0.0
 42
0.0
 43
0.0
 44
0.0
 45
0.0
 46
0.0
 47
0.0
 48
0.0
 49
0.0
140
0.0
141
0.0
142
1.0
143
1.0
 70
   688
 72
     1
 73
     0
 74
     5
  7

 75
    16
147
1.0
 76
     0
 77
     2
 78
   300
148
0.0
149
0.0
100
AcDbLayout
  1
Layout1
 70
     1
 71
     1
 10
0.0
 20
0.0
 11
420.0
 21
297.0
 12
0.0
 22
0.0
 32
0.0
 14
1.000000000000000E+20
 24
1.000000000000000E+20
 34
1.000000000000000E+20
 15
-1.000000000000000E+20
 25
-1.000000000000000E+20
 35
-1.000000000000000E+20
146
0.0
 13
0.0
 23
0.0
 33
0.0
 16
1.0
 26
0.0
 36
0.0
 17
0.0
 27
1.0
 37
0.0
 76
     0
330
1B
  0
LAYOUT
  5
26
102
{ACAD_REACTORS
330
1A
102
}
330
1A
100
AcDbPlotSettings
  1

  2
none_device
  4

  6

 40
0.0
 41
0.0
 42
0.0
 43
0.0
 44
0.0
 45
0.0
 46
0.0
 47
0.0
 48
0.0
 49
0.0
140
0.0
141
0.0
142
1.0
143
1.0
 70
   688
 72
     1
 73
     0
 74
     5
  7

 75
    16
147
1.0
 76
     0
 77
     2
 78
   300
148
0.0
149
0.0
100
AcDbLayout
  1
Layout2
 70
     1
 71
     2
 10
0.0
 20
0.0
 11
0.0
 21
0.0
 12
0.0
 22
0.0
 32
0.0
 14
0.0
 24
0.0
 34
0.0
 15
0.0
 25
0.0
 35
0.0
146
0.0
 13
0.0
 23
0.0
 33
0.0
 16
1.0
 26
0.0
 36
0.0
 17
0.0
 27
1.0
 37
0.0
 76
     0
330
23
  0
LAYOUT
  5
22
102
{ACAD_REACTORS
330
1A
102
}
330
1A
100
AcDbPlotSettings
  1

  2
none_device
  4
Letter_(8.50_x_11.00_Inches)
  6

 40
6.349999999999998
 41
6.349999999999998
 42
6.350005079999998
 43
6.350005079999998
 44
215.9
 45
279.4
 46
0.0
 47
0.0
 48
0.0
 49
0.0
140
0.0
141
0.0
142
1.0
143
1.0
 70
  1712
 72
     1
 73
     0
 74
     0
  7

 75
     0
147
1.0
 76
     0
 77
     2
 78
   300
148
0.0
149
0.0
100
AcDbLayout
  1
Model
 70
     1
 71
     0
 10
0.0
 20
0.0
 11
420.0
 21
297.0
 12
0.0
 22
0.0
 32
0.0
 14
0.0
 24
0.0
 34
0.0
 15
420.0
 25
297.0
 35
0.0
146
0.0
 13
0.0
 23
0.0
 33
0.0
 16
1.0
 26
0.0
 36
0.0
 17
0.0
 27
1.0
 37
0.0
 76
     0
330
1F
331
29
  0
MATERIAL
  5
6D7
102
{ACAD_XDICTIONARY
360
6D8
102
}
102
{ACAD_REACTORS
330
6CE
102
}
330
6CE
100
AcDbMaterial
  1
ByBlock
 72
     0
 43
0.0008202099737533
 43
0.0
 43
0.0
 43
0.0
 43
0.0
 43
0.0008202099737533
 43
0.0
 43
0.0
 43
0.0
 43
0.0
 43
1.0
 43
0.0
 43
0.0
 43
0.0
 43
0.0
 43
1.0
 77
     0
 47
0.0008202099737533
 47
0.0
 47
0.0
 47
0.0
 47
0.0
 47
0.0008202099737533
 47
0.0
 47
0.0
 47
0.0
 47
0.0
 47
1.0
 47
0.0
 47
0.0
 47
0.0
 47
0.0
 47
1.0
171
     0
 49
0.0008202099737533
 49
0.0
 49
0.0
 49
0.0
 49
0.0
 49
0.0008202099737533
 49
0.0
 49
0.0
 49
0.0
 49
0.0
 49
1.0
 49
0.0
 49
0.0
 49
0.0
 49
0.0
 49
1.0
175
     0
142
0.0008202099737533
142
0.0
142
0.0
142
0.0
142
0.0
142
0.0008202099737533
142
0.0
142
0.0
142
0.0
142
0.0
142
1.0
142
0.0
142
0.0
142
0.0
142
0.0
142
1.0
179
     0
144
0.0008202099737533
144
0.0
144
0.0
144
0.0
144
0.0
144
0.0008202099737533
144
0.0
144
0.0
144
0.0
144
0.0
144
1.0
144
0.0
144
0.0
144
0.0
144
0.0
144
1.0
147
0.0008202099737533
147
0.0
147
0.0
147
0.0
147
0.0
147
0.0008202099737533
147
0.0
147
0.0
147
0.0
147
0.0
147
1.0
147
0.0
147
0.0
147
0.0
147
0.0
147
1.0
  0
MATERIAL
  5
6CF
102
{ACAD_XDICTIONARY
360
6D0
102
}
102
{ACAD_REACTORS
330
6CE
102
}
330
6CE
100
AcDbMaterial
  1
ByLayer
 72
     0
 43
0.0008202099737533
 43
0.0
 43
0.0
 43
0.0
 43
0.0
 43
0.0008202099737533
 43
0.0
 43
0.0
 43
0.0
 43
0.0
 43
1.0
 43
0.0
 43
0.0
 43
0.0
 43
0.0
 43
1.0
 77
     0
 47
0.0008202099737533
 47
0.0
 47
0.0
 47
0.0
 47
0.0
 47
0.0008202099737533
 47
0.0
 47
0.0
 47
0.0
 47
0.0
 47
1.0
 47
0.0
 47
0.0
 47
0.0
 47
0.0
 47
1.0
171
     0
 49
0.0008202099737533
 49
0.0
 49
0.0
 49
0.0
 49
0.0
 49
0.0008202099737533
 49
0.0
 49
0.0
 49
0.0
 49
0.0
 49
1.0
 49
0.0
 49
0.0
 49
0.0
 49
0.0
 49
1.0
175
     0
142
0.0008202099737533
142
0.0
142
0.0
142
0.0
142
0.0
142
0.0008202099737533
142
0.0
142
0.0
142
0.0
142
0.0
142
1.0
142
0.0
142
0.0
142
0.0
142
0.0
142
1.0
179
     0
144
0.0008202099737533
144
0.0
144
0.0
144
0.0
144
0.0
144
0.0008202099737533
144
0.0
144
0.0
144
0.0
144
0.0
144
1.0
144
0.0
144
0.0
144
0.0
144
0.0
144
1.0
147
0.0008202099737533
147
0.0
147
0.0
147
0.0
147
0.0
147
0.0008202099737533
147
0.0
147
0.0
147
0.0
147
0.0
147
1.0
147
0.0
147
0.0
147
0.0
147
0.0
147
1.0
  0
MATERIAL
  5
6DF
102
{ACAD_XDICTIONARY
360
6E0
102
}
102
{ACAD_REACTORS
330
6CE
102
}
330
6CE
100
AcDbMaterial
  1
Global
 72
     0
 43
0.0008202099737533
 43
0.0
 43
0.0
 43
0.0
 43
0.0
 43
0.0008202099737533
 43
0.0
 43
0.0
 43
0.0
 43
0.0
 43
1.0
 43
0.0
 43
0.0
 43
0.0
 43
0.0
 43
1.0
 77
     0
 47
0.0008202099737533
 47
0.0
 47
0.0
 47
0.0
 47
0.0
 47
0.0008202099737533
 47
0.0
 47
0.0
 47
0.0
 47
0.0
 47
1.0
 47
0.0
 47
0.0
 47
0.0
 47
0.0
 47
1.0
171
     0
 49
0.0008202099737533
 49
0.0
 49
0.0
 49
0.0
 49
0.0
 49
0.0008202099737533
 49
0.0
 49
0.0
 49
0.0
 49
0.0
 49
1.0
 49
0.0
 49
0.0
 49
0.0
 49
0.0
 49
1.0
175
     0
142
0.0008202099737533
142
0.0
142
0.0
142
0.0
142
0.0
142
0.0008202099737533
142
0.0
142
0.0
142
0.0
142
0.0
142
1.0
142
0.0
142
0.0
142
0.0
142
0.0
142
1.0
179
     0
144
0.0008202099737533
144
0.0
144
0.0
144
0.0
144
0.0
144
0.0008202099737533
144
0.0
144
0.0
144
0.0
144
0.0
144
1.0
144
0.0
144
0.0
144
0.0
144
0.0
144
1.0
147
0.0008202099737533
147
0.0
147
0.0
147
0.0
147
0.0
147
0.0008202099737533
147
0.0
147
0.0
147
0.0
147
0.0
147
1.0
147
0.0
147
0.0
147
0.0
147
0.0
147
1.0
  0
MLEADERSTYLE
  5
704
102
{ACAD_REACTORS
330
703
102
}
330
703
100
AcDbMLeaderStyle
179
     2
170
     2
171
     1
172
     0
 90
        2
 40
0.0
 41
0.0
173
     1
 91
-1056964608
340
14
 92
       -2
290
     1
 42
2.0
291
     1
 43
0.36
  3
Standard
 44
4.0
300

342
11
174
     1
178
     6
175
     1
176
     0
 93
-1056964608
 45
4.0
292
     0
297
     0
 46
4.0
 94
-1056964608
 47
1.0
 49
1.0
140
1.0
293
     1
141
0.0
294
     1
177
     0
142
1.0
295
     0
296
     0
143
0.125
271
     0
272
     9
273
     9
298
     1
  0
MLINESTYLE
  5
18
102
{ACAD_REACTORS
330
17
102
}
330
17
100
AcDbMlineStyle
  2
STANDARD
 70
     0
  3

 62
   256
 51
90.0
 52
90.0
 71
     2
 49
0.5
 62
   256
  6
BYLAYER
 49
-0.5
 62
   256
  6
BYLAYER
  0
ACDBPLACEHOLDER
  5
F
102
{ACAD_REACTORS
330
E
102
}
330
E
  0
SCALE
  5
48
102
{ACAD_REACTORS
330
47
102
}
330
47
100
AcDbScale
 70
     0
300
1:1
140
1.0
141
1.0
290
     1
  0
SCALE
  5
49
102
{ACAD_REACTORS
330
47
102
}
330
47
100
AcDbScale
 70
     0
300
1:2
140
1.0
141
2.0
290
     0
  0
SCALE
  5
4A
102
{ACAD_REACTORS
330
47
102
}
330
47
100
AcDbScale
 70
     0
300
1:4
140
1.0
141
4.0
290
     0
  0
SCALE
  5
4B
102
{ACAD_REACTORS
330
47
102
}
330
47
100
AcDbScale
 70
     0
300
1:5
140
1.0
141
5.0
290
     0
  0
SCALE
  5
4C
102
{ACAD_REACTORS
330
47
102
}
330
47
100
AcDbScale
 70
     0
300
1:8
140
1.0
141
8.0
290
     0
  0
SCALE
  5
4D
102
{ACAD_REACTORS
330
47
102
}
330
47
100
AcDbScale
 70
     0
300
1:10
140
1.0
141
10.0
290
     0
  0
SCALE
  5
4E
102
{ACAD_REACTORS
330
47
102
}
330
47
100
AcDbScale
 70
     0
300
1:16
140
1.0
141
16.0
290
     0
  0
SCALE
  5
4F
102
{ACAD_REACTORS
330
47
102
}
330
47
100
AcDbScale
 70
     0
300
1:20
140
1.0
141
20.0
290
     0
  0
SCALE
  5
50
102
{ACAD_REACTORS
330
47
102
}
330
47
100
AcDbScale
 70
     0
300
1:30
140
1.0
141
30.0
290
     0
  0
SCALE
  5
51
102
{ACAD_REACTORS
330
47
102
}
330
47
100
AcDbScale
 70
     0
300
1:40
140
1.0
141
40.0
290
     0
  0
SCALE
  5
52
102
{ACAD_REACTORS
330
47
102
}
330
47
100
AcDbScale
 70
     0
300
1:50
140
1.0
141
50.0
290
     0
  0
SCALE
  5
53
102
{ACAD_REACTORS
330
47
102
}
330
47
100
AcDbScale
 70
     0
300
1:100
140
1.0
141
100.0
290
     0
  0
SCALE
  5
54
102
{ACAD_REACTORS
330
47
102
}
330
47
100
AcDbScale
 70
     0
300
2:1
140
2.0
141
1.0
290
     0
  0
SCALE
  5
55
102
{ACAD_REACTORS
330
47
102
}
330
47
100
AcDbScale
 70
     0
300
4:1
140
4.0
141
1.0
290
     0
  0
SCALE
  5
56
102
{ACAD_REACTORS
330
47
102
}
330
47
100
AcDbScale
 70
     0
300
8:1
140
8.0
141
1.0
290
     0
  0
SCALE
  5
57
102
{ACAD_REACTORS
330
47
102
}
330
47
100
AcDbScale
 70
     0
300
10:1
140
10.0
141
1.0
290
     0
  0
SCALE
  5
58
102
{ACAD_REACTORS
330
47
102
}
330
47
100
AcDbScale
 70
     0
300
100:1
140
100.0
141
1.0
290
     0
  0
SCALE
  5
59
102
{ACAD_REACTORS
330
47
102
}
330
47
100
AcDbScale
 70
     0
300
1/128" = 1'-0"
140
0.0078125
141
12.0
290
     0
  0
SCALE
  5
5A
102
{ACAD_REACTORS
330
47
102
}
330
47
100
AcDbScale
 70
     0
300
1/64" = 1'-0"
140
0.015625
141
12.0
290
     0
  0
SCALE
  5
5B
102
{ACAD_REACTORS
330
47
102
}
330
47
100
AcDbScale
 70
     0
300
1/32" = 1'-0"
140
0.03125
141
12.0
290
     0
  0
SCALE
  5
5C
102
{ACAD_REACTORS
330
47
102
}
330
47
100
AcDbScale
 70
     0
300
1/16" = 1'-0"
140
0.0625
141
12.0
290
     0
  0
SCALE
  5
5D
102
{ACAD_REACTORS
330
47
102
}
330
47
100
AcDbScale
 70
     0
300
3/32" = 1'-0"
140
0.09375
141
12.0
290
     0
  0
SCALE
  5
5E
102
{ACAD_REACTORS
330
47
102
}
330
47
100
AcDbScale
 70
     0
300
1/8" = 1'-0"
140
0.125
141
12.0
290
     0
  0
SCALE
  5
5F
102
{ACAD_REACTORS
330
47
102
}
330
47
100
AcDbScale
 70
     0
300
3/16" = 1'-0"
140
0.1875
141
12.0
290
     0
  0
SCALE
  5
60
102
{ACAD_REACTORS
330
47
102
}
330
47
100
AcDbScale
 70
     0
300
1/4" = 1'-0"
140
0.25
141
12.0
290
     0
  0
SCALE
  5
61
102
{ACAD_REACTORS
330
47
102
}
330
47
100
AcDbScale
 70
     0
300
3/8" = 1'-0"
140
0.375
141
12.0
290
     0
  0
SCALE
  5
62
102
{ACAD_REACTORS
330
47
102
}
330
47
100
AcDbScale
 70
     0
300
1/2" = 1'-0"
140
0.5
141
12.0
290
     0
  0
SCALE
  5
63
102
{ACAD_REACTORS
330
47
102
}
330
47
100
AcDbScale
 70
     0
300
3/4" = 1'-0"
140
0.75
141
12.0
290
     0
  0
SCALE
  5
64
102
{ACAD_REACTORS
330
47
102
}
330
47
100
AcDbScale
 70
     0
300
1" = 1'-0"
140
1.0
141
12.0
290
     0
  0
SCALE
  5
65
102
{ACAD_REACTORS
330
47
102
}
330
47
100
AcDbScale
 70
     0
300
1-1/2" = 1'-0"
140
1.5
141
12.0
290
     0
  0
SCALE
  5
66
102
{ACAD_REACTORS
330
47
102
}
330
47
100
AcDbScale
 70
     0
300
3" = 1'-0"
140
3.0
141
12.0
290
     0
  0
SCALE
  5
67
102
{ACAD_REACTORS
330
47
102
}
330
47
100
AcDbScale
 70
     0
300
6" = 1'-0"
140
6.0
141
12.0
290
     0
  0
SCALE
  5
68
102
{ACAD_REACTORS
330
47
102
}
330
47
100
AcDbScale
 70
     0
300
1'-0" = 1'-0"
140
12.0
141
12.0
290
     0
  0
ACDBSECTIONVIEWSTYLE
  5
706
102
{ACAD_XDICTIONARY
360
76F
102
}
102
{ACAD_REACTORS
330
705
102
}
330
705
100
AcDbModelDocViewStyle
 70
     0
  3
Metric50
290
     0
100
AcDbSectionViewStyle
 70
     0
 71
     0
 90
      102
 71
     1
340
11
 62
   256
 40
5.0
340
0
340
0
 62
   256
 40
5.0
300
I, O, Q, S, X, Z
 40
10.0
 90
        0
 40
2.5
 90
        0
 71
     2
340
16
 90
       25
 62
   256
340
16
 90
       50
 62
   256
 40
5.0
 40
2.5
 40
5.0
 71
     3
340
11
 62
   256
 40
5.0
 90
        0
 40
15.0
 90
        1
300
%<\AcVar ViewSectionStartId>%-%<\AcVar ViewSectionEndId>% (%<\AcVar ViewScale \f "%sn">%)
 71
     4
 62
   256
 62
   257
300
ANSI31
 40
1.0
 90
        0
290
     0
290
     0
 90
        6
 40
0.0
 40
1.570796326794896
 40
0.2617993877991494
 40
1.308996938995747
 40
-0.2617993877991494
 40
1.832595714594045
  0
TABLESTYLE
  5
702
102
{ACAD_XDICTIONARY
360
76D
102
}
102
{ACAD_REACTORS
330
701
102
}
330
701
100
AcDbTableStyle
280
     0
  3
Standard
 70
     0
 71
     0
 40
1.5
 41
1.5
280
     0
281
     0
  7
Standard
140
4.5
170
     2
 62
     0
 63
     7
283
     0
 90
      512
 91
        0
  1

274
    -2
284
     1
 64
     0
275
    -2
285
     1
 65
     0
276
    -2
286
     1
 66
     0
277
    -2
287
     1
 67
     0
278
    -2
288
     1
 68
     0
279
    -2
289
     1
 69
     0
  7
Standard
140
6.0
170
     5
 62
     0
 63
     7
283
     0
 90
      512
 91
        0
  1

274
    -2
284
     1
 64
     0
275
    -2
285
     1
 65
     0
276
    -2
286
     1
 66
     0
277
    -2
287
     1
 67
     0
278
    -2
288
     1
 68
     0
279
    -2
289
     1
 69
     0
  7
Standard
140
4.5
170
     5
 62
     0
 63
     7
283
     0
 90
      512
 91
        0
  1

274
    -2
284
     1
 64
     0
275
    -2
285
     1
 65
     0
276
    -2
286
     1
 66
     0
277
    -2
287
     1
 67
     0
278
    -2
288
     1
 68
     0
279
    -2
289
     1
 69
     0
  0
VISUALSTYLE
  5
6ED
102
{ACAD_REACTORS
330
6E7
102
}
330
6E7
100
AcDbVisualStyle
  2
2dWireframe
 70
     4
177
     3
291
     0
 70
    58
 90
        0
176
     1
 90
        2
176
     1
 90
        0
176
     1
 90
        0
176
     1
 40
0.6
176
     1
 40
30.0
176
     1
 62
     7
420
 16777215
176
     1
 90
        1
176
     1
 90
        4
176
     1
 62
     7
176
     1
 62
   257
176
     1
 90
        1
176
     1
 90
        1
176
     1
 40
1.0
176
     1
 90
        0
176
     1
 62
   257
176
     1
 40
1.0
176
     1
 90
        1
176
     1
 90
        6
176
     1
 90
        2
176
     1
 62
     7
176
     1
 90
        5
176
     1
 90
        0
176
     1
 90
        0
176
     1
290
     0
176
     1
 90
        1
176
     1
 40
0.0
176
     1
 90
        0
176
     1
290
     1
176
     1
290
     1
176
     1
290
     0
176
     1
290
     0
176
     1
290
     0
176
     1
290
     0
176
     1
290
     0
176
     1
290
     0
176
     1
290
     0
176
     1
 90
       50
176
     1
 40
0.0
176
     1
 40
1.0
176
     1
 90
        0
176
     1
 62
    18
176
     1
 90
       50
176
     1
 90
        3
176
     1
 62
     5
420
      255
176
     1
290
     0
176
     1
 90
       50
176
     1
 90
       50
176
     1
 90
       50
176
     1
290
     0
176
     1
 90
       50
176
     1
 62
   256
176
     0
 40
1.0
176
     0
 90
        2
176
     1
  1
strokes_ogs.tif
176
     1
290
     0
176
     1
 40
1.0
176
     1
 40
1.0
176
     1
  0
VISUALSTYLE
  5
6EC
102
{ACAD_REACTORS
330
6E7
102
}
330
6E7
100
AcDbVisualStyle
  2
Basic
 70
     7
177
     3
291
     1
 70
    58
 90
        1
176
     1
 90
        0
176
     1
 90
        1
176
     1
 90
        0
176
     1
 40
0.6
176
     1
 40
30.0
176
     1
 62
     7
420
 16777215
176
     1
 90
        0
176
     1
 90
        4
176
     1
 62
     7
176
     1
 62
   257
176
     1
 90
        1
176
     1
 90
        1
176
     1
 40
1.0
176
     1
 90
        8
176
     1
 62
     7
176
     1
 40
1.0
176
     1
 90
        1
176
     1
 90
        6
176
     1
 90
        2
176
     1
 62
     7
176
     1
 90
        5
176
     1
 90
        0
176
     1
 90
        0
176
     1
290
     0
176
     1
 90
        1
176
     1
 40
0.0
176
     1
 90
        0
176
     1
290
     0
176
     1
290
     1
176
     1
290
     1
176
     1
290
     0
176
     1
290
     0
176
     1
290
     0
176
     1
290
     0
176
     1
290
     0
176
     1
290
     0
176
     1
 90
       50
176
     1
 40
0.0
176
     1
 40
1.0
176
     1
 90
        0
176
     1
 62
    18
176
     1
 90
       50
176
     1
 90
        3
176
     1
 62
     5
420
      255
176
     1
290
     0
176
     1
 90
       50
176
     1
 90
       50
176
     1
 90
       50
176
     1
290
     0
176
     1
 90
       50
176
     1
 62
   256
176
     0
 40
1.0
176
     0
 90
        2
176
     1
  1
strokes_ogs.tif
176
     1
290
     0
176
     1
 40
1.0
176
     1
 40
1.0
176
     1
  0
VISUALSTYLE
  5
6F3
102
{ACAD_REACTORS
330
6E7
102
}
330
6E7
100
AcDbVisualStyle
  2
Brighten
 70
    12
177
     3
291
     1
 70
    58
 90
        2
176
     1
 90
        2
176
     1
 90
        0
176
     1
 90
        0
176
     1
 40
0.6
176
     1
 40
30.0
176
     1
 62
     7
420
 16777215
176
     1
 90
        1
176
     1
 90
        4
176
     1
 62
     7
176
     1
 62
   257
176
     1
 90
        1
176
     1
 90
        1
176
     1
 40
1.0
176
     1
 90
        8
176
     1
 62
     7
176
     1
 40
1.0
176
     1
 90
        1
176
     1
 90
        6
176
     1
 90
        2
176
     1
 62
     7
176
     1
 90
        5
176
     1
 90
        0
176
     1
 90
        0
176
     1
290
     0
176
     1
 90
        1
176
     1
 40
50.0
176
     1
 90
        0
176
     1
290
     0
176
     1
290
     1
176
     1
290
     1
176
     1
290
     0
176
     1
290
     0
176
     1
290
     0
176
     1
290
     0
176
     1
290
     0
176
     1
290
     0
176
     1
 90
       50
176
     1
 40
0.0
176
     1
 40
1.0
176
     1
 90
        0
176
     1
 62
    18
176
     1
 90
       50
176
     1
 90
        3
176
     1
 62
     5
420
      255
176
     1
290
     0
176
     1
 90
       50
176
     1
 90
       50
176
     1
 90
       50
176
     1
290
     0
176
     1
 90
       50
176
     1
 62
   256
176
     0
 40
1.0
176
     0
 90
        2
176
     1
  1
strokes_ogs.tif
176
     1
290
     0
176
     1
 40
1.0
176
     1
 40
1.0
176
     1
  0
VISUALSTYLE
  5
6F7
102
{ACAD_REACTORS
330
6E7
102
}
330
6E7
100
AcDbVisualStyle
  2
ColorChange
 70
    16
177
     3
291
     1
 70
    58
 90
        2
176
     1
 90
        2
176
     1
 90
        3
176
     1
 90
        0
176
     1
 40
0.6
176
     1
 40
30.0
176
     1
 62
     8
420
  8421504
176
     1
 90
        1
176
     1
 90
        4
176
     1
 62
     7
176
     1
 62
   257
176
     1
 90
        1
176
     1
 90
        1
176
     1
 40
1.0
176
     1
 90
        8
176
     1
 62
     8
420
  8421504
176
     1
 40
1.0
176
     1
 90
        1
176
     1
 90
        6
176
     1
 90
        2
176
     1
 62
     7
176
     1
 90
        5
176
     1
 90
        0
176
     1
 90
        0
176
     1
290
     0
176
     1
 90
        1
176
     1
 40
0.0
176
     1
 90
        0
176
     1
290
     0
176
     1
290
     1
176
     1
290
     1
176
     1
290
     0
176
     1
290
     0
176
     1
290
     0
176
     1
290
     0
176
     1
290
     0
176
     1
290
     0
176
     1
 90
       50
176
     1
 40
0.0
176
     1
 40
1.0
176
     1
 90
        0
176
     1
 62
    18
176
     1
 90
       50
176
     1
 90
        3
176
     1
 62
     5
420
      255
176
     1
290
     0
176
     1
 90
       50
176
     1
 90
       50
176
     1
 90
       50
176
     1
290
     0
176
     1
 90
       50
176
     1
 62
   256
176
     0
 40
1.0
176
     0
 90
        2
176
     1
  1
strokes_ogs.tif
176
     1
290
     0
176
     1
 40
1.0
176
     1
 40
1.0
176
     1
  0
VISUALSTYLE
  5
6F0
102
{ACAD_REACTORS
330
6E7
102
}
330
6E7
100
AcDbVisualStyle
  2
Conceptual
 70
     9
177
     3
291
     0
 70
    58
 90
        3
176
     1
 90
        2
176
     1
 90
        0
176
     1
 90
        0
176
     1
 40
0.6
176
     1
 40
30.0
176
     1
 62
     7
420
 16777215
176
     1
 90
        2
176
     1
 90
        2
176
     1
 62
     7
176
     1
 62
   257
176
     1
 90
        1
176
     1
 90
        1
176
     1
 40
179.0
176
     1
 90
        8
176
     1
 62
     7
176
     1
 40
1.0
176
     1
 90
        1
176
     1
 90
        6
176
     1
 90
        2
176
     1
 62
     7
176
     1
 90
        3
176
     1
 90
        0
176
     1
 90
        0
176
     1
290
     0
176
     1
 90
        1
176
     1
 40
0.0
176
     1
 90
        0
176
     1
290
     0
176
     1
290
     1
176
     1
290
     1
176
     1
290
     0
176
     1
290
     0
176
     1
290
     0
176
     1
290
     0
176
     1
290
     0
176
     1
290
     0
176
     1
 90
       50
176
     1
 40
0.0
176
     1
 40
1.0
176
     1
 90
        0
176
     1
 62
    18
176
     1
 90
       50
176
     1
 90
        3
176
     1
 62
     5
420
      255
176
     1
290
     0
176
     1
 90
       50
176
     1
 90
       50
176
     1
 90
       50
176
     1
290
     0
176
     1
 90
       50
176
     1
 62
   256
176
     0
 40
1.0
176
     0
 90
        2
176
     1
  1
strokes_ogs.tif
176
     1
290
     0
176
     1
 40
1.0
176
     1
 40
1.0
176
     1
  0
VISUALSTYLE
  5
6F2
102
{ACAD_REACTORS
330
6E7
102
}
330
6E7
100
AcDbVisualStyle
  2
Dim
 70
    11
177
     3
291
     1
 70
    58
 90
        2
176
     1
 90
        2
176
     1
 90
        0
176
     1
 90
        0
176
     1
 40
0.6
176
     1
 40
30.0
176
     1
 62
     7
420
 16777215
176
     1
 90
        1
176
     1
 90
        4
176
     1
 62
     7
176
     1
 62
   257
176
     1
 90
        1
176
     1
 90
        1
176
     1
 40
1.0
176
     1
 90
        8
176
     1
 62
     7
176
     1
 40
1.0
176
     1
 90
        1
176
     1
 90
        6
176
     1
 90
        2
176
     1
 62
     7
176
     1
 90
        5
176
     1
 90
        0
176
     1
 90
        0
176
     1
290
     0
176
     1
 90
        1
176
     1
 40
-50.0
176
     1
 90
        0
176
     1
290
     0
176
     1
290
     1
176
     1
290
     1
176
     1
290
     0
176
     1
290
     0
176
     1
290
     0
176
     1
290
     0
176
     1
290
     0
176
     1
290
     0
176
     1
 90
       50
176
     1
 40
0.0
176
     1
 40
1.0
176
     1
 90
        0
176
     1
 62
    18
176
     1
 90
       50
176
     1
 90
        3
176
     1
 62
     5
420
      255
176
     1
290
     0
176
     1
 90
       50
176
     1
 90
       50
176
     1
 90
       50
176
     1
290
     0
176
     1
 90
       50
176
     1
 62
   256
176
     0
 40
1.0
176
     0
 90
        2
176
     1
  1
strokes_ogs.tif
176
     1
290
     0
176
     1
 40
1.0
176
     1
 40
1.0
176
     1
  0
VISUALSTYLE
  5
6FF
102
{ACAD_REACTORS
330
6E7
102
}
330
6E7
100
AcDbVisualStyle
  2
EdgeColorOff
 70
    22
177
     3
291
     1
 70
    58
 90
        2
176
     0
 90
        2
176
     0
 90
        0
176
     0
 90
        0
176
     0
 40
0.6
176
     0
 40
30.0
176
     0
 62
     7
420
 16777215
176
     0
 90
        1
176
     0
 90
        4
176
     0
 62
     7
176
     0
 62
   257
176
     0
 90
        1
176
     0
 90
        1
176
     0
 40
1.0
176
     0
 90
        8
176
     2
 62
     7
176
     0
 40
1.0
176
     0
 90
        1
176
     0
 90
        6
176
     0
 90
        2
176
     0
 62
     7
176
     0
 90
        5
176
     0
 90
        0
176
     0
 90
        0
176
     0
290
     0
176
     0
 90
        1
176
     0
 40
0.0
176
     0
 90
        0
176
     0
290
     0
176
     0
290
     1
176
     0
290
     1
176
     0
290
     0
176
     0
290
     0
176
     0
290
     0
176
     0
290
     0
176
     0
290
     0
176
     0
290
     0
176
     0
 90
       50
176
     0
 40
0.0
176
     0
 40
1.0
176
     0
 90
        0
176
     0
 62
    18
176
     0
 90
       50
176
     0
 90
        3
176
     0
 62
     5
420
      255
176
     0
290
     0
176
     0
 90
       50
176
     0
 90
       50
176
     0
 90
       50
176
     0
290
     0
176
     0
 90
       50
176
     0
 62
   256
176
     0
 40
1.0
176
     0
 90
        2
176
     0
  1
strokes_ogs.tif
176
     0
290
     0
176
     0
 40
1.0
176
     0
 40
1.0
176
     0
  0
VISUALSTYLE
  5
6F6
102
{ACAD_REACTORS
330
6E7
102
}
330
6E7
100
AcDbVisualStyle
  2
Facepattern
 70
    15
177
     3
291
     1
 70
    58
 90
        2
176
     1
 90
        2
176
     1
 90
        0
176
     1
 90
        0
176
     1
 40
0.6
176
     1
 40
30.0
176
     1
 62
     7
420
 16777215
176
     1
 90
        1
176
     1
 90
        4
176
     1
 62
     7
176
     1
 62
   257
176
     1
 90
        1
176
     1
 90
        1
176
     1
 40
1.0
176
     1
 90
        8
176
     1
 62
     7
176
     1
 40
1.0
176
     1
 90
        1
176
     1
 90
        6
176
     1
 90
        2
176
     1
 62
     7
176
     1
 90
        5
176
     1
 90
        0
176
     1
 90
        0
176
     1
290
     0
176
     1
 90
        1
176
     1
 40
0.0
176
     1
 90
        0
176
     1
290
     0
176
     1
290
     1
176
     1
290
     1
176
     1
290
     0
176
     1
290
     0
176
     1
290
     0
176
     1
290
     0
176
     1
290
     0
176
     1
290
     0
176
     1
 90
       50
176
     1
 40
0.0
176
     1
 40
1.0
176
     1
 90
        0
176
     1
 62
    18
176
     1
 90
       50
176
     1
 90
        3
176
     1
 62
     5
420
      255
176
     1
290
     0
176
     1
 90
       50
176
     1
 90
       50
176
     1
 90
       50
176
     1
290
     0
176
     1
 90
       50
176
     1
 62
   256
176
     0
 40
1.0
176
     0
 90
        2
176
     1
  1
strokes_ogs.tif
176
     1
290
     0
176
     1
 40
1.0
176
     1
 40
1.0
176
     1
  0
VISUALSTYLE
  5
6E8
102
{ACAD_REACTORS
330
6E7
102
}
330
6E7
100
AcDbVisualStyle
  2
Flat
 70
     0
177
     3
291
     1
 70
    58
 90
        2
176
     1
 90
        1
176
     1
 90
        1
176
     1
 90
        2
176
     1
 40
0.6
176
     1
 40
30.0
176
     1
 62
     7
420
 16777215
176
     1
 90
        0
176
     1
 90
        0
176
     1
 62
     7
176
     1
 62
   257
176
     1
 90
        1
176
     1
 90
        1
176
     1
 40
1.0
176
     1
 90
        8
176
     1
 62
     7
176
     1
 40
1.0
176
     1
 90
        1
176
     1
 90
        6
176
     1
 90
        2
176
     1
 62
     7
176
     1
 90
        5
176
     1
 90
        0
176
     1
 90
        0
176
     1
290
     0
176
     1
 90
       13
176
     1
 40
0.0
176
     1
 90
        0
176
     1
290
     0
176
     1
290
     1
176
     1
290
     1
176
     1
290
     0
176
     1
290
     0
176
     1
290
     0
176
     1
290
     0
176
     1
290
     0
176
     1
290
     0
176
     1
 90
       50
176
     1
 40
0.0
176
     1
 40
1.0
176
     1
 90
        0
176
     1
 62
    18
176
     1
 90
       50
176
     1
 90
        3
176
     1
 62
     5
420
      255
176
     1
290
     0
176
     1
 90
       50
176
     1
 90
       50
176
     1
 90
       50
176
     1
290
     0
176
     1
 90
       50
176
     1
 62
   256
176
     0
 40
1.0
176
     0
 90
        2
176
     1
  1
strokes_ogs.tif
176
     1
290
     0
176
     1
 40
1.0
176
     1
 40
1.0
176
     1
  0
VISUALSTYLE
  5
6E9
102
{ACAD_REACTORS
330
6E7
102
}
330
6E7
100
AcDbVisualStyle
  2
FlatWithEdges
 70
     1
177
     3
291
     1
 70
    58
 90
        2
176
     1
 90
        1
176
     1
 90
        1
176
     1
 90
        2
176
     1
 40
0.6
176
     1
 40
30.0
176
     1
 62
     7
420
 16777215
176
     1
 90
        1
176
     1
 90
        0
176
     1
 62
     7
176
     1
 62
   257
176
     1
 90
        1
176
     1
 90
        1
176
     1
 40
1.0
176
     1
 90
        0
176
     1
 62
   257
176
     1
 40
1.0
176
     1
 90
        1
176
     1
 90
        6
176
     1
 90
        2
176
     1
 62
     7
176
     1
 90
        5
176
     1
 90
        0
176
     1
 90
        0
176
     1
290
     0
176
     1
 90
       13
176
     1
 40
0.0
176
     1
 90
        0
176
     1
290
     0
176
     1
290
     1
176
     1
290
     1
176
     1
290
     0
176
     1
290
     0
176
     1
290
     0
176
     1
290
     0
176
     1
290
     0
176
     1
290
     0
176
     1
 90
       50
176
     1
 40
0.0
176
     1
 40
1.0
176
     1
 90
        0
176
     1
 62
    18
176
     1
 90
       50
176
     1
 90
        3
176
     1
 62
     5
420
      255
176
     1
290
     0
176
     1
 90
       50
176
     1
 90
       50
176
     1
 90
       50
176
     1
290
     0
176
     1
 90
       50
176
     1
 62
   256
176
     0
 40
1.0
176
     0
 90
        2
176
     1
  1
strokes_ogs.tif
176
     1
290
     0
176
     1
 40
1.0
176
     1
 40
1.0
176
     1
  0
VISUALSTYLE
  5
6EA
102
{ACAD_REACTORS
330
6E7
102
}
330
6E7
100
AcDbVisualStyle
  2
Gouraud
 70
     2
177
     3
291
     1
 70
    58
 90
        2
176
     1
 90
        2
176
     1
 90
        1
176
     1
 90
        2
176
     1
 40
0.6
176
     1
 40
30.0
176
     1
 62
     7
420
 16777215
176
     1
 90
        0
176
     1
 90
        0
176
     1
 62
     7
176
     1
 62
   257
176
     1
 90
        1
176
     1
 90
        1
176
     1
 40
1.0
176
     1
 90
        0
176
     1
 62
     7
176
     1
 40
1.0
176
     1
 90
        1
176
     1
 90
        6
176
     1
 90
        2
176
     1
 62
     7
176
     1
 90
        5
176
     1
 90
        0
176
     1
 90
        0
176
     1
290
     0
176
     1
 90
       13
176
     1
 40
0.0
176
     1
 90
        0
176
     1
290
     0
176
     1
290
     1
176
     1
290
     1
176
     1
290
     0
176
     1
290
     0
176
     1
290
     0
176
     1
290
     0
176
     1
290
     0
176
     1
290
     0
176
     1
 90
       50
176
     1
 40
0.0
176
     1
 40
1.0
176
     1
 90
        0
176
     1
 62
    18
176
     1
 90
       50
176
     1
 90
        3
176
     1
 62
     5
420
      255
176
     1
290
     0
176
     1
 90
       50
176
     1
 90
       50
176
     1
 90
       50
176
     1
290
     0
176
     1
 90
       50
176
     1
 62
   256
176
     0
 40
1.0
176
     0
 90
        2
176
     1
  1
strokes_ogs.tif
176
     1
290
     0
176
     1
 40
1.0
176
     1
 40
1.0
176
     1
  0
VISUALSTYLE
  5
6EB
102
{ACAD_REACTORS
330
6E7
102
}
330
6E7
100
AcDbVisualStyle
  2
GouraudWithEdges
 70
     3
177
     3
291
     1
 70
    58
 90
        2
176
     1
 90
        2
176
     1
 90
        1
176
     1
 90
        2
176
     1
 40
0.6
176
     1
 40
30.0
176
     1
 62
     7
420
 16777215
176
     1
 90
        1
176
     1
 90
        0
176
     1
 62
     7
176
     1
 62
   257
176
     1
 90
        1
176
     1
 90
        1
176
     1
 40
1.0
176
     1
 90
        0
176
     1
 62
   257
176
     1
 40
1.0
176
     1
 90
        1
176
     1
 90
        6
176
     1
 90
        2
176
     1
 62
     7
176
     1
 90
        5
176
     1
 90
        0
176
     1
 90
        0
176
     1
290
     0
176
     1
 90
       13
176
     1
 40
0.0
176
     1
 90
        0
176
     1
290
     0
176
     1
290
     1
176
     1
290
     1
176
     1
290
     0
176
     1
290
     0
176
     1
290
     0
176
     1
290
     0
176
     1
290
     0
176
     1
290
     0
176
     1
 90
       50
176
     1
 40
0.0
176
     1
 40
1.0
176
     1
 90
        0
176
     1
 62
    18
176
     1
 90
       50
176
     1
 90
        3
176
     1
 62
     5
420
      255
176
     1
290
     0
176
     1
 90
       50
176
     1
 90
       50
176
     1
 90
       50
176
     1
290
     0
176
     1
 90
       50
176
     1
 62
   256
176
     0
 40
1.0
176
     0
 90
        2
176
     1
  1
strokes_ogs.tif
176
     1
290
     0
176
     1
 40
1.0
176
     1
 40
1.0
176
     1
  0
VISUALSTYLE
  5
6EF
102
{ACAD_REACTORS
330
6E7
102
}
330
6E7
100
AcDbVisualStyle
  2
Hidden
 70
     6
177
     3
291
     0
 70
    58
 90
        1
176
     1
 90
        2
176
     1
 90
        2
176
     1
 90
        0
176
     1
 40
0.6
176
     1
 40
30.0
176
     1
 62
     7
420
 16777215
176
     1
 90
        2
176
     1
 90
        2
176
     1
 62
     7
176
     1
 62
   257
176
     1
 90
        2
176
     1
 90
        1
176
     1
 40
40.0
176
     1
 90
        0
176
     1
 62
   257
176
     1
 40
1.0
176
     1
 90
        1
176
     1
 90
        6
176
     1
 90
        2
176
     1
 62
     7
176
     1
 90
        3
176
     1
 90
        0
176
     1
 90
        0
176
     1
290
     0
176
     1
 90
        1
176
     1
 40
0.0
176
     1
 90
        0
176
     1
290
     0
176
     1
290
     1
176
     1
290
     1
176
     1
290
     0
176
     1
290
     0
176
     1
290
     0
176
     1
290
     0
176
     1
290
     0
176
     1
290
     0
176
     1
 90
       50
176
     1
 40
0.0
176
     1
 40
1.0
176
     1
 90
        0
176
     1
 62
    18
176
     1
 90
       50
176
     1
 90
        3
176
     1
 62
     5
420
      255
176
     1
290
     0
176
     1
 90
       50
176
     1
 90
       50
176
     1
 90
       50
176
     1
290
     0
176
     1
 90
       50
176
     1
 62
   256
176
     0
 40
1.0
176
     0
 90
        2
176
     1
  1
strokes_ogs.tif
176
     1
290
     0
176
     1
 40
1.0
176
     1
 40
1.0
176
     1
  0
VISUALSTYLE
  5
6FD
102
{ACAD_REACTORS
330
6E7
102
}
330
6E7
100
AcDbVisualStyle
  2
JitterOff
 70
    20
177
     3
291
     1
 70
    58
 90
        2
176
     0
 90
        2
176
     0
 90
        0
176
     0
 90
        0
176
     0
 40
0.6
176
     0
 40
30.0
176
     0
 62
     7
420
 16777215
176
     0
 90
        1
176
     0
 90
        4
176
     0
 62
     7
176
     0
 62
   257
176
     0
 90
        1
176
     0
 90
        1
176
     0
 40
1.0
176
     0
 90
       10
176
     2
 62
     7
176
     0
 40
1.0
176
     0
 90
        1
176
     0
 90
        6
176
     0
 90
        2
176
     0
 62
     7
176
     0
 90
        5
176
     0
 90
        0
176
     0
 90
        0
176
     0
290
     0
176
     0
 90
        1
176
     0
 40
0.0
176
     0
 90
        0
176
     0
290
     0
176
     0
290
     1
176
     0
290
     1
176
     0
290
     0
176
     0
290
     0
176
     0
290
     0
176
     0
290
     0
176
     0
290
     0
176
     0
290
     0
176
     0
 90
       50
176
     0
 40
0.0
176
     0
 40
1.0
176
     0
 90
        0
176
     0
 62
    18
176
     0
 90
       50
176
     0
 90
        3
176
     0
 62
     5
420
      255
176
     0
290
     0
176
     0
 90
       50
176
     0
 90
       50
176
     0
 90
       50
176
     0
290
     0
176
     0
 90
       50
176
     0
 62
   256
176
     0
 40
1.0
176
     0
 90
        2
176
     0
  1
strokes_ogs.tif
176
     0
290
     0
176
     0
 40
1.0
176
     0
 40
1.0
176
     0
  0
VISUALSTYLE
  5
6F5
102
{ACAD_REACTORS
330
6E7
102
}
330
6E7
100
AcDbVisualStyle
  2
Linepattern
 70
    14
177
     3
291
     1
 70
    58
 90
        2
176
     1
 90
        2
176
     1
 90
        0
176
     1
 90
        0
176
     1
 40
0.6
176
     1
 40
30.0
176
     1
 62
     7
420
 16777215
176
     1
 90
        1
176
     1
 90
        4
176
     1
 62
     7
176
     1
 62
   257
176
     1
 90
        7
176
     1
 90
        7
176
     1
 40
1.0
176
     1
 90
        8
176
     1
 62
     7
176
     1
 40
1.0
176
     1
 90
        1
176
     1
 90
        6
176
     1
 90
        2
176
     1
 62
     7
176
     1
 90
        5
176
     1
 90
        0
176
     1
 90
        0
176
     1
290
     0
176
     1
 90
        1
176
     1
 40
0.0
176
     1
 90
        0
176
     1
290
     0
176
     1
290
     1
176
     1
290
     1
176
     1
290
     0
176
     1
290
     0
176
     1
290
     0
176
     1
290
     0
176
     1
290
     0
176
     1
290
     0
176
     1
 90
       50
176
     1
 40
0.0
176
     1
 40
1.0
176
     1
 90
        0
176
     1
 62
    18
176
     1
 90
       50
176
     1
 90
        3
176
     1
 62
     5
420
      255
176
     1
290
     0
176
     1
 90
       50
176
     1
 90
       50
176
     1
 90
       50
176
     1
290
     0
176
     1
 90
       50
176
     1
 62
   256
176
     0
 40
1.0
176
     0
 90
        2
176
     1
  1
strokes_ogs.tif
176
     1
290
     0
176
     1
 40
1.0
176
     1
 40
1.0
176
     1
  0
VISUALSTYLE
  5
6FE
102
{ACAD_REACTORS
330
6E7
102
}
330
6E7
100
AcDbVisualStyle
  2
OverhangOff
 70
    21
177
     3
291
     1
 70
    58
 90
        2
176
     0
 90
        2
176
     0
 90
        0
176
     0
 90
        0
176
     0
 40
0.6
176
     0
 40
30.0
176
     0
 62
     7
420
 16777215
176
     0
 90
        1
176
     0
 90
        4
176
     0
 62
     7
176
     0
 62
   257
176
     0
 90
        1
176
     0
 90
        1
176
     0
 40
1.0
176
     0
 90
        9
176
     2
 62
     7
176
     0
 40
1.0
176
     0
 90
        1
176
     0
 90
        6
176
     0
 90
        2
176
     0
 62
     7
176
     0
 90
        5
176
     0
 90
        0
176
     0
 90
        0
176
     0
290
     0
176
     0
 90
        1
176
     0
 40
0.0
176
     0
 90
        0
176
     0
290
     0
176
     0
290
     1
176
     0
290
     1
176
     0
290
     0
176
     0
290
     0
176
     0
290
     0
176
     0
290
     0
176
     0
290
     0
176
     0
290
     0
176
     0
 90
       50
176
     0
 40
0.0
176
     0
 40
1.0
176
     0
 90
        0
176
     0
 62
    18
176
     0
 90
       50
176
     0
 90
        3
176
     0
 62
     5
420
      255
176
     0
290
     0
176
     0
 90
       50
176
     0
 90
       50
176
     0
 90
       50
176
     0
290
     0
176
     0
 90
       50
176
     0
 62
   256
176
     0
 40
1.0
176
     0
 90
        2
176
     0
  1
strokes_ogs.tif
176
     0
290
     0
176
     0
 40
1.0
176
     0
 40
1.0
176
     0
  0
VISUALSTYLE
  5
6F1
102
{ACAD_REACTORS
330
6E7
102
}
330
6E7
100
AcDbVisualStyle
  2
Realistic
 70
     8
177
     3
291
     0
 70
    58
 90
        2
176
     1
 90
        3
176
     1
 90
        0
176
     1
 90
        2
176
     1
 40
0.6
176
     1
 40
30.0
176
     1
 62
     7
420
 16777215
176
     1
 90
        0
176
     1
 90
        0
176
     1
 62
     7
176
     1
 62
   257
176
     1
 90
        1
176
     1
 90
        1
176
     1
 40
1.0
176
     1
 90
        8
176
     1
 62
   257
176
     1
 40
1.0
176
     1
 90
        1
176
     1
 90
        6
176
     1
 90
        2
176
     1
 62
     7
176
     1
 90
        3
176
     1
 90
        0
176
     1
 90
        0
176
     1
290
     0
176
     1
 90
       13
176
     1
 40
0.0
176
     1
 90
        0
176
     1
290
     0
176
     1
290
     1
176
     1
290
     1
176
     1
290
     0
176
     1
290
     0
176
     1
290
     0
176
     1
290
     0
176
     1
290
     0
176
     1
290
     0
176
     1
 90
       50
176
     1
 40
0.0
176
     1
 40
1.0
176
     1
 90
        0
176
     1
 62
    18
176
     1
 90
       50
176
     1
 90
        3
176
     1
 62
     5
420
      255
176
     1
290
     0
176
     1
 90
       50
176
     1
 90
       50
176
     1
 90
       50
176
     1
290
     0
176
     1
 90
       50
176
     1
 62
   256
176
     0
 40
1.0
176
     0
 90
        2
176
     1
  1
strokes_ogs.tif
176
     1
290
     0
176
     1
 40
1.0
176
     1
 40
1.0
176
     1
  0
VISUALSTYLE
  5
6FC
102
{ACAD_REACTORS
330
6E7
102
}
330
6E7
100
AcDbVisualStyle
  2
Shaded
 70
    27
177
     3
291
     0
 70
    58
 90
        2
176
     1
 90
        2
176
     1
 90
        1
176
     1
 90
        2
176
     1
 40
0.6
176
     1
 40
30.0
176
     1
 62
     7
420
 16777215
176
     1
 90
        0
176
     1
 90
        4
176
     1
 62
     7
176
     1
 62
   257
176
     1
 90
        1
176
     1
 90
        1
176
     1
 40
1.0
176
     1
 90
        8
176
     1
 62
   257
176
     1
 40
1.0
176
     1
 90
        1
176
     1
 90
        6
176
     1
 90
        2
176
     1
 62
     8
420
  7895160
176
     1
 90
        3
176
     1
 90
        0
176
     1
 90
        0
176
     1
290
     0
176
     1
 90
        5
176
     1
 40
0.0
176
     1
 90
        0
176
     1
290
     0
176
     1
290
     1
176
     1
290
     1
176
     1
290
     0
176
     1
290
     0
176
     1
290
     0
176
     1
290
     0
176
     1
290
     0
176
     1
290
     0
176
     1
 90
       50
176
     1
 40
0.0
176
     1
 40
1.0
176
     1
 90
        0
176
     1
 62
    18
176
     1
 90
       50
176
     1
 90
        3
176
     1
 62
     5
420
      255
176
     1
290
     0
176
     1
 90
       50
176
     1
 90
       50
176
     1
 90
       50
176
     1
290
     0
176
     1
 90
       50
176
     1
 62
   256
176
     0
 40
1.0
176
     0
 90
        2
176
     1
  1
strokes_ogs.tif
176
     1
290
     0
176
     1
 40
1.0
176
     1
 40
1.0
176
     1
  0
VISUALSTYLE
  5
6FB
102
{ACAD_REACTORS
330
6E7
102
}
330
6E7
100
AcDbVisualStyle
  2
Shaded with edges
 70
    26
177
     3
291
     0
 70
    58
 90
        2
176
     1
 90
        2
176
     1
 90
        1
176
     1
 90
        2
176
     1
 40
0.6
176
     1
 40
30.0
176
     1
 62
     7
420
 16777215
176
     1
 90
        1
176
     1
 90
       10
176
     1
 62
     7
176
     1
 62
   257
176
     1
 90
        2
176
     1
 90
        1
176
     1
 40
1.0
176
     1
 90
        8
176
     1
 62
   257
176
     1
 40
1.0
176
     1
 90
        1
176
     1
 90
        6
176
     1
 90
        2
176
     1
 62
     7
176
     1
 90
        3
176
     1
 90
        0
176
     1
 90
        0
176
     1
290
     0
176
     1
 90
        5
176
     1
 40
0.0
176
     1
 90
        0
176
     1
290
     0
176
     1
290
     1
176
     1
290
     1
176
     1
290
     0
176
     1
290
     0
176
     1
290
     0
176
     1
290
     0
176
     1
290
     0
176
     1
290
     0
176
     1
 90
       50
176
     1
 40
0.0
176
     1
 40
1.0
176
     1
 90
        0
176
     1
 62
    18
176
     1
 90
       50
176
     1
 90
        3
176
     1
 62
     5
420
      255
176
     1
290
     0
176
     1
 90
       50
176
     1
 90
       50
176
     1
 90
       50
176
     1
290
     0
176
     1
 90
       50
176
     1
 62
   256
176
     0
 40
1.0
176
     0
 90
        2
176
     1
  1
strokes_ogs.tif
176
     1
290
     0
176
     1
 40
1.0
176
     1
 40
1.0
176
     1
  0
VISUALSTYLE
  5
6F8
102
{ACAD_REACTORS
330
6E7
102
}
330
6E7
100
AcDbVisualStyle
  2
Shades of Gray
 70
    23
177
     3
291
     0
 70
    58
 90
        2
176
     1
 90
        2
176
     1
 90
        3
176
     1
 90
        0
176
     1
 40
0.6
176
     1
 40
30.0
176
     1
 62
     7
420
 16777215
176
     1
 90
        2
176
     1
 90
        2
176
     1
 62
     7
176
     1
 62
     7
176
     1
 90
        1
176
     1
 90
        1
176
     1
 40
40.0
176
     1
 90
        8
176
     1
 62
     7
176
     1
 40
1.0
176
     1
 90
        1
176
     1
 90
        6
176
     1
 90
        2
176
     1
 62
     7
176
     1
 90
        3
176
     1
 90
        0
176
     1
 90
        0
176
     1
290
     0
176
     1
 90
        1
176
     1
 40
0.0
176
     1
 90
        0
176
     1
290
     0
176
     1
290
     1
176
     1
290
     1
176
     1
290
     0
176
     1
290
     0
176
     1
290
     0
176
     1
290
     0
176
     1
290
     0
176
     1
290
     0
176
     1
 90
       50
176
     1
 40
0.0
176
     1
 40
1.0
176
     1
 90
        0
176
     1
 62
    18
176
     1
 90
       50
176
     1
 90
        3
176
     1
 62
     5
420
      255
176
     1
290
     0
176
     1
 90
       50
176
     1
 90
       50
176
     1
 90
       50
176
     1
290
     0
176
     1
 90
       50
176
     1
 62
   256
176
     0
 40
1.0
176
     0
 90
        2
176
     1
  1
strokes_ogs.tif
176
     1
290
     0
176
     1
 40
1.0
176
     1
 40
1.0
176
     1
  0
VISUALSTYLE
  5
6F9
102
{ACAD_REACTORS
330
6E7
102
}
330
6E7
100
AcDbVisualStyle
  2
Sketchy
 70
    24
177
     3
291
     0
 70
    58
 90
        1
176
     1
 90
        2
176
     1
 90
        2
176
     1
 90
        0
176
     1
 40
0.6
176
     1
 40
30.0
176
     1
 62
     7
420
 16777215
176
     1
 90
        2
176
     1
 90
        2
176
     1
 62
     7
176
     1
 62
     7
176
     1
 90
        1
176
     1
 90
        1
176
     1
 40
40.0
176
     1
 90
       11
176
     1
 62
     7
176
     1
 40
1.0
176
     1
 90
        1
176
     1
 90
        6
176
     1
 90
        2
176
     1
 62
     7
176
     1
 90
        6
176
     1
 90
        0
176
     1
 90
        0
176
     1
290
     0
176
     1
 90
        1
176
     1
 40
0.0
176
     1
 90
        0
176
     1
290
     0
176
     1
290
     1
176
     1
290
     1
176
     1
290
     0
176
     1
290
     0
176
     1
290
     0
176
     1
290
     0
176
     1
290
     0
176
     1
290
     0
176
     1
 90
       50
176
     1
 40
0.0
176
     1
 40
1.0
176
     1
 90
        0
176
     1
 62
    18
176
     1
 90
       50
176
     1
 90
        3
176
     1
 62
     5
420
      255
176
     1
290
     0
176
     1
 90
       50
176
     1
 90
       50
176
     1
 90
       50
176
     1
290
     0
176
     1
 90
       50
176
     1
 62
   256
176
     0
 40
1.0
176
     0
 90
        2
176
     1
  1
strokes_ogs.tif
176
     1
290
     0
176
     1
 40
1.0
176
     1
 40
1.0
176
     1
  0
VISUALSTYLE
  5
6F4
102
{ACAD_REACTORS
330
6E7
102
}
330
6E7
100
AcDbVisualStyle
  2
Thicken
 70
    13
177
     3
291
     1
 70
    58
 90
        2
176
     1
 90
        2
176
     1
 90
        0
176
     1
 90
        0
176
     1
 40
0.6
176
     1
 40
30.0
176
     1
 62
     7
420
 16777215
176
     1
 90
        1
176
     1
 90
        4
176
     1
 62
     7
176
     1
 62
   257
176
     1
 90
        1
176
     1
 90
        1
176
     1
 40
1.0
176
     1
 90
       12
176
     1
 62
     7
176
     1
 40
1.0
176
     1
 90
        1
176
     1
 90
        6
176
     1
 90
        2
176
     1
 62
     7
176
     1
 90
        5
176
     1
 90
        0
176
     1
 90
        0
176
     1
290
     0
176
     1
 90
        1
176
     1
 40
0.0
176
     1
 90
        0
176
     1
290
     0
176
     1
290
     1
176
     1
290
     1
176
     1
290
     0
176
     1
290
     0
176
     1
290
     0
176
     1
290
     0
176
     1
290
     0
176
     1
290
     0
176
     1
 90
       50
176
     1
 40
0.0
176
     1
 40
1.0
176
     1
 90
        0
176
     1
 62
    18
176
     1
 90
       50
176
     1
 90
        3
176
     1
 62
     5
420
      255
176
     1
290
     0
176
     1
 90
       50
176
     1
 90
       50
176
     1
 90
       50
176
     1
290
     0
176
     1
 90
       50
176
     1
 62
   256
176
     0
 40
1.0
176
     0
 90
        2
176
     1
  1
strokes_ogs.tif
176
     1
290
     0
176
     1
 40
1.0
176
     1
 40
1.0
176
     1
  0
VISUALSTYLE
  5
6EE
102
{ACAD_REACTORS
330
6E7
102
}
330
6E7
100
AcDbVisualStyle
  2
Wireframe
 70
     5
177
     3
291
     0
 70
    58
 90
        0
176
     1
 90
        2
176
     1
 90
        0
176
     1
 90
        0
176
     1
 40
0.6
176
     1
 40
30.0
176
     1
 62
     7
420
 16777215
176
     1
 90
        1
176
     1
 90
        4
176
     1
 62
     7
176
     1
 62
   257
176
     1
 90
        1
176
     1
 90
        1
176
     1
 40
1.0
176
     1
 90
        0
176
     1
 62
   257
176
     1
 40
1.0
176
     1
 90
        1
176
     1
 90
        6
176
     1
 90
        2
176
     1
 62
     7
176
     1
 90
        3
176
     1
 90
        0
176
     1
 90
        0
176
     1
290
     0
176
     1
 90
        1
176
     1
 40
0.0
176
     1
 90
        0
176
     1
290
     0
176
     1
290
     1
176
     1
290
     1
176
     1
290
     0
176
     1
290
     0
176
     1
290
     0
176
     1
290
     0
176
     1
290
     0
176
     1
290
     0
176
     1
 90
       50
176
     1
 40
0.0
176
     1
 40
1.0
176
     1
 90
        0
176
     1
 62
    18
176
     1
 90
       50
176
     1
 90
        3
176
     1
 62
     5
420
      255
176
     1
290
     0
176
     1
 90
       50
176
     1
 90
       50
176
     1
 90
       50
176
     1
290
     0
176
     1
 90
       50
176
     1
 62
   256
176
     0
 40
1.0
176
     0
 90
        2
176
     1
  1
strokes_ogs.tif
176
     1
290
     0
176
     1
 40
1.0
176
     1
 40
1.0
176
     1
  0
VISUALSTYLE
  5
6FA
102
{ACAD_REACTORS
330
6E7
102
}
330
6E7
100
AcDbVisualStyle
  2
X-Ray
 70
    25
177
     3
291
     0
 70
    58
 90
        2
176
     1
 90
        2
176
     1
 90
        1
176
     1
 90
        1
176
     1
 40
0.5
176
     1
 40
30.0
176
     1
 62
     7
420
 16777215
176
     1
 90
        1
176
     1
 90
        0
176
     1
 62
     7
176
     1
 62
   257
176
     1
 90
        1
176
     1
 90
        1
176
     1
 40
1.0
176
     1
 90
        8
176
     1
 62
     7
176
     1
 40
1.0
176
     1
 90
        1
176
     1
 90
        6
176
     1
 90
        2
176
     1
 62
     7
176
     1
 90
        3
176
     1
 90
        0
176
     1
 90
        0
176
     1
290
     0
176
     1
 90
       13
176
     1
 40
0.0
176
     1
 90
        0
176
     1
290
     0
176
     1
290
     1
176
     1
290
     1
176
     1
290
     0
176
     1
290
     0
176
     1
290
     0
176
     1
290
     0
176
     1
290
     0
176
     1
290
     0
176
     1
 90
       50
176
     1
 40
0.0
176
     1
 40
1.0
176
     1
 90
        0
176
     1
 62
    18
176
     1
 90
       50
176
     1
 90
        3
176
     1
 62
     5
420
      255
176
     1
290
     0
176
     1
 90
       50
176
     1
 90
       50
176
     1
 90
       50
176
     1
290
     0
176
     1
 90
       50
176
     1
 62
   256
176
     0
 40
1.0
176
     0
 90
        2
176
     1
  1
strokes_ogs.tif
176
     1
290
     0
176
     1
 40
1.0
176
     1
 40
1.0
176
     1
  0
DICTIONARYVAR
  5
769
102
{ACAD_REACTORS
330
763
102
}
330
763
100
DictionaryVariables
280
     0
  1
1:1
  0
DICTIONARYVAR
  5
765
102
{ACAD_REACTORS
330
763
102
}
330
763
100
DictionaryVariables
280
     0
  1
STANDARD
  0
DICTIONARYVAR
  5
764
102
{ACAD_REACTORS
330
763
102
}
330
763
100
DictionaryVariables
280
     0
  1
STANDARD
  0
DICTIONARYVAR
  5
766
102
{ACAD_REACTORS
330
763
102
}
330
763
100
DictionaryVariables
280
     0
  1
Metric50
  0
DICTIONARYVAR
  5
767
102
{ACAD_REACTORS
330
763
102
}
330
763
100
DictionaryVariables
280
     0
  1
Metric50
  0
DICTIONARYVAR
  5
76B
102
{ACAD_REACTORS
330
763
102
}
330
763
100
DictionaryVariables
280
     0
  1
1
  0
DICTIONARYVAR
  5
76C
102
{ACAD_REACTORS
330
763
102
}
330
763
100
DictionaryVariables
280
     0
  1
15
  0
DICTIONARYVAR
  5
76A
102
{ACAD_REACTORS
330
763
102
}
330
763
100
DictionaryVariables
280
     0
  1
0
  0
DICTIONARYVAR
  5
768
102
{ACAD_REACTORS
330
763
102
}
330
763
100
DictionaryVariables
280
     0
  1
0
  0
DICTIONARY
  5
771
330
708
100
AcDbDictionary
280
     1
281
     1
  3
ACAD_XREC_ROUNDTRIP
360
788
  0
DICTIONARY
  5
6D8
330
6D7
100
AcDbDictionary
280
     1
281
     1
  3
BUMPTILE
360
6DA
  3
DIFFUSETILE
360
6D9
  3
OPACITYTILE
360
6DD
  3
REFLECTIONTILE
360
6DC
  3
REFRACTIONTILE
360
6DE
  3
SPECULARTILE
360
6DB
  0
DICTIONARY
  5
6D0
330
6CF
100
AcDbDictionary
280
     1
281
     1
  3
BUMPTILE
360
6D2
  3
DIFFUSETILE
360
6D1
  3
OPACITYTILE
360
6D5
  3
REFLECTIONTILE
360
6D4
  3
REFRACTIONTILE
360
6D6
  3
SPECULARTILE
360
6D3
  0
DICTIONARY
  5
6E0
330
6DF
100
AcDbDictionary
280
     1
281
     1
  3
BUMPTILE
360
6E2
  3
DIFFUSETILE
360
6E1
  3
OPACITYTILE
360
6E5
  3
REFLECTIONTILE
360
6E4
  3
REFRACTIONTILE
360
6E6
  3
SPECULARTILE
360
6E3
  0
DICTIONARY
  5
76F
330
706
100
AcDbDictionary
280
     1
281
     1
  3
ACAD_XREC_ROUNDTRIP
360
787
  0
DICTIONARY
  5
76D
330
702
100
AcDbDictionary
280
     1
281
     1
  3
ACAD_ROUNDTRIP_2008_TABLESTYLE_CELLSTYLEMAP
360
786
  0
XRECORD
  5
788
102
{ACAD_REACTORS
330
771
102
}
330
771
100
AcDbXrecord
280
     1
102
DISPLAYNAME
  1
Metric50
102
FLAGS
 90
        0
  0
XRECORD
  5
6DA
102
{ACAD_REACTORS
330
6D8
102
}
330
6D8
100
AcDbXrecord
280
     1
270
     1
271
     1
  0
XRECORD
  5
6D9
102
{ACAD_REACTORS
330
6D8
102
}
330
6D8
100
AcDbXrecord
280
     1
270
     1
271
     1
  0
XRECORD
  5
6DD
102
{ACAD_REACTORS
330
6D8
102
}
330
6D8
100
AcDbXrecord
280
     1
270
     1
271
     1
  0
XRECORD
  5
6DC
102
{ACAD_REACTORS
330
6D8
102
}
330
6D8
100
AcDbXrecord
280
     1
270
     1
271
     1
  0
XRECORD
  5
6DE
102
{ACAD_REACTORS
330
6D8
102
}
330
6D8
100
AcDbXrecord
280
     1
270
     1
271
     1
  0
XRECORD
  5
6DB
102
{ACAD_REACTORS
330
6D8
102
}
330
6D8
100
AcDbXrecord
280
     1
270
     1
271
     1
  0
XRECORD
  5
6D2
102
{ACAD_REACTORS
330
6D0
102
}
330
6D0
100
AcDbXrecord
280
     1
270
     1
271
     1
  0
XRECORD
  5
6D1
102
{ACAD_REACTORS
330
6D0
102
}
330
6D0
100
AcDbXrecord
280
     1
270
     1
271
     1
  0
XRECORD
  5
6D5
102
{ACAD_REACTORS
330
6D0
102
}
330
6D0
100
AcDbXrecord
280
     1
270
     1
271
     1
  0
XRECORD
  5
6D4
102
{ACAD_REACTORS
330
6D0
102
}
330
6D0
100
AcDbXrecord
280
     1
270
     1
271
     1
  0
XRECORD
  5
6D6
102
{ACAD_REACTORS
330
6D0
102
}
330
6D0
100
AcDbXrecord
280
     1
270
     1
271
     1
  0
XRECORD
  5
6D3
102
{ACAD_REACTORS
330
6D0
102
}
330
6D0
100
AcDbXrecord
280
     1
270
     1
271
     1
  0
XRECORD
  5
6E2
102
{ACAD_REACTORS
330
6E0
102
}
330
6E0
100
AcDbXrecord
280
     1
270
     1
271
     1
  0
XRECORD
  5
6E1
102
{ACAD_REACTORS
330
6E0
102
}
330
6E0
100
AcDbXrecord
280
     1
270
     1
271
     1
  0
XRECORD
  5
6E5
102
{ACAD_REACTORS
330
6E0
102
}
330
6E0
100
AcDbXrecord
280
     1
270
     1
271
     1
  0
XRECORD
  5
6E4
102
{ACAD_REACTORS
330
6E0
102
}
330
6E0
100
AcDbXrecord
280
     1
270
     1
271
     1
  0
XRECORD
  5
6E6
102
{ACAD_REACTORS
330
6E0
102
}
330
6E0
100
AcDbXrecord
280
     1
270
     1
271
     1
  0
XRECORD
  5
6E3
102
{ACAD_REACTORS
330
6E0
102
}
330
6E0
100
AcDbXrecord
280
     1
270
     1
271
     1
  0
XRECORD
  5
787
102
{ACAD_REACTORS
330
76F
102
}
330
76F
100
AcDbXrecord
280
     1
102
DISPLAYNAME
  1
Metric50
102
FLAGS
 90
        0
  0
CELLSTYLEMAP
  5
786
102
{ACAD_REACTORS
330
76D
102
}
330
76D
100
AcDbCellStyleMap
 90
        3
300
CELLSTYLE
  1
TABLEFORMAT_BEGIN
 90
        5
170
     1
 91
        0
 92
    32768
 62
   257
 93
        1
300
CONTENTFORMAT
  1
CONTENTFORMAT_BEGIN
 90
        0
 91
        0
 92
      512
 93
        0
300

 40
0.0
140
1.0
 94
        5
 62
     0
340
11
144
6.0
309
CONTENTFORMAT_END
171
     1
301
MARGIN
  1
CELLMARGIN_BEGIN
 40
1.5
 40
1.5
 40
1.5
 40
1.5
 40
0.18
 40
0.18
309
CELLMARGIN_END
 94
        6
 95
        1
302
GRIDFORMAT
  1
GRIDFORMAT_BEGIN
 90
        0
 91
        1
 62
     0
 92
       -2
340
0
 93
        0
 40
1.125
309
GRIDFORMAT_END
 95
        2
302
GRIDFORMAT
  1
GRIDFORMAT_BEGIN
 90
        0
 91
        1
 62
     0
 92
       -2
340
0
 93
        0
 40
1.125
309
GRIDFORMAT_END
 95
        4
302
GRIDFORMAT
  1
GRIDFORMAT_BEGIN
 90
        0
 91
        1
 62
     0
 92
       -2
340
0
 93
        0
 40
1.125
309
GRIDFORMAT_END
 95
        8
302
GRIDFORMAT
  1
GRIDFORMAT_BEGIN
 90
        0
 91
        1
 62
     0
 92
       -2
340
0
 93
        0
 40
1.125
309
GRIDFORMAT_END
 95
       16
302
GRIDFORMAT
  1
GRIDFORMAT_BEGIN
 90
        0
 91
        1
 62
     0
 92
       -2
340
0
 93
        0
 40
1.125
309
GRIDFORMAT_END
 95
       32
302
GRIDFORMAT
  1
GRIDFORMAT_BEGIN
 90
        0
 91
        1
 62
     0
 92
       -2
340
0
 93
        0
 40
1.125
309
GRIDFORMAT_END
309
TABLEFORMAT_END
  1
CELLSTYLE_BEGIN
 90
        1
 91
        1
300
_TITLE
309
CELLSTYLE_END
300
CELLSTYLE
  1
TABLEFORMAT_BEGIN
 90
        5
170
     1
 91
        0
 92
        0
 62
   257
 93
        1
300
CONTENTFORMAT
  1
CONTENTFORMAT_BEGIN
 90
        0
 91
        0
 92
      512
 93
        0
300

 40
0.0
140
1.0
 94
        5
 62
     0
340
11
144
4.5
309
CONTENTFORMAT_END
171
     1
301
MARGIN
  1
CELLMARGIN_BEGIN
 40
1.5
 40
1.5
 40
1.5
 40
1.5
 40
0.18
 40
0.18
309
CELLMARGIN_END
 94
        6
 95
        1
302
GRIDFORMAT
  1
GRIDFORMAT_BEGIN
 90
        0
 91
        1
 62
     0
 92
       -2
340
0
 93
        0
 40
1.125
309
GRIDFORMAT_END
 95
        2
302
GRIDFORMAT
  1
GRIDFORMAT_BEGIN
 90
        0
 91
        1
 62
     0
 92
       -2
340
0
 93
        0
 40
1.125
309
GRIDFORMAT_END
 95
        4
302
GRIDFORMAT
  1
GRIDFORMAT_BEGIN
 90
        0
 91
        1
 62
     0
 92
       -2
340
0
 93
        0
 40
1.125
309
GRIDFORMAT_END
 95
        8
302
GRIDFORMAT
  1
GRIDFORMAT_BEGIN
 90
        0
 91
        1
 62
     0
 92
       -2
340
0
 93
        0
 40
1.125
309
GRIDFORMAT_END
 95
       16
302
GRIDFORMAT
  1
GRIDFORMAT_BEGIN
 90
        0
 91
        1
 62
     0
 92
       -2
340
0
 93
        0
 40
1.125
309
GRIDFORMAT_END
 95
       32
302
GRIDFORMAT
  1
GRIDFORMAT_BEGIN
 90
        0
 91
        1
 62
     0
 92
       -2
340
0
 93
        0
 40
1.125
309
GRIDFORMAT_END
309
TABLEFORMAT_END
  1
CELLSTYLE_BEGIN
 90
        2
 91
        1
300
_HEADER
309
CELLSTYLE_END
300
CELLSTYLE
  1
TABLEFORMAT_BEGIN
 90
        5
170
     1
 91
        0
 92
        0
 62
   257
 93
        1
300
CONTENTFORMAT
  1
CONTENTFORMAT_BEGIN
 90
        0
 91
        0
 92
      512
 93
        0
300

 40
0.0
140
1.0
 94
        2
 62
     0
340
11
144
4.5
309
CONTENTFORMAT_END
171
     1
301
MARGIN
  1
CELLMARGIN_BEGIN
 40
1.5
 40
1.5
 40
1.5
 40
1.5
 40
0.18
 40
0.18
309
CELLMARGIN_END
 94
        6
 95
        1
302
GRIDFORMAT
  1
GRIDFORMAT_BEGIN
 90
        0
 91
        1
 62
     0
 92
       -2
340
0
 93
        0
 40
1.125
309
GRIDFORMAT_END
 95
        2
302
GRIDFORMAT
  1
GRIDFORMAT_BEGIN
 90
        0
 91
        1
 62
     0
 92
       -2
340
0
 93
        0
 40
1.125
309
GRIDFORMAT_END
 95
        4
302
GRIDFORMAT
  1
GRIDFORMAT_BEGIN
 90
        0
 91
        1
 62
     0
 92
       -2
340
0
 93
        0
 40
1.125
309
GRIDFORMAT_END
 95
        8
302
GRIDFORMAT
  1
GRIDFORMAT_BEGIN
 90
        0
 91
        1
 62
     0
 92
       -2
340
0
 93
        0
 40
1.125
309
GRIDFORMAT_END
 95
       16
302
GRIDFORMAT
  1
GRIDFORMAT_BEGIN
 90
        0
 91
        1
 62
     0
 92
       -2
340
0
 93
        0
 40
1.125
309
GRIDFORMAT_END
 95
       32
302
GRIDFORMAT
  1
GRIDFORMAT_BEGIN
 90
        0
 91
        1
 62
     0
 92
       -2
340
0
 93
        0
 40
1.125
309
GRIDFORMAT_END
309
TABLEFORMAT_END
  1
CELLSTYLE_BEGIN
 90
        3
 91
        2
300
_DATA
309
CELLSTYLE_END
  0
ENDSEC
  0
EOF
