  0
SECTION
  2
HEADER
  9
$ACADVER
  1
AC1027
  9
$ACADMAINTVER
 70
    55
  9
$DWGCODEPAGE
  3
ANSI_932
  9
$LASTSAVEDBY
  1
User
  9
$REQUIREDVERSIONS
160
                 0
  9
$INSBASE
 10
0.0000094929055194
 20
-0.0000021391570044
 30
0.0
  9
$EXTMIN
 10
4140.266270504216
 20
833.4682200345644
 30
-0.0015258207003583
  9
$EXTMAX
 10
4482.445522846765
 20
1045.479551844384
 30
0.0000000349246037
  9
$LIMMIN
 10
0.0
 20
0.0
  9
$LIMMAX
 10
1632.81966281
 20
1141.02963867
  9
$ORTHOMODE
 70
     1
  9
$REGENMODE
 70
     1
  9
$FILLMODE
 70
     1
  9
$QTEXTMODE
 70
     0
  9
$MIRRTEXT
 70
     1
  9
$LTSCALE
 40
10.0
  9
$ATTMODE
 70
     1
  9
$TEXTSIZE
 40
3.0
  9
$TRACEWID
 40
1.0
  9
$TEXTSTYLE
  7
STANDARD
  9
$CLAYER
  8
OBJECT1
  9
$CELTYPE
  6
BYLAYER
  9
$CECOLOR
 62
   256
  9
$CELTSCALE
 40
1.0
  9
$DISPSILH
 70
     0
  9
$DIMSCALE
 40
4.0
  9
$DIMASZ
 40
2.5
  9
$DIMEXO
 40
1.25
  9
$DIMDLI
 40
7.0
  9
$DIMRND
 40
0.0
  9
$DIMDLE
 40
0.0
  9
$DIMEXE
 40
1.25
  9
$DIMTP
 40
0.0
  9
$DIMTM
 40
0.0
  9
$DIMTXT
 40
3.0
  9
$DIMCEN
 40
3.0
  9
$DIMTSZ
 40
0.0
  9
$DIMTOL
 70
     0
  9
$DIMLIM
 70
     0
  9
$DIMTIH
 70
     0
  9
$DIMTOH
 70
     0
  9
$DIMSE1
 70
     0
  9
$DIMSE2
 70
     0
  9
$DIMTAD
 70
     3
  9
$DIMZIN
 70
     8
  9
$DIMBLK
  1

  9
$DIMASO
 70
     1
  9
$DIMSHO
 70
     1
  9
$DIMPOST
  1

  9
$DIMAPOST
  1

  9
$DIMALT
 70
     0
  9
$DIMALTD
 70
     2
  9
$DIMALTF
 40
25.4
  9
$DIMLFAC
 40
1.0
  9
$DIMTOFL
 70
     1
  9
$DIMTVP
 40
0.0
  9
$DIMTIX
 70
     0
  9
$DIMSOXD
 70
     0
  9
$DIMSAH
 70
     1
  9
$DIMBLK1
  1
OPEN
  9
$DIMBLK2
  1
OPEN
  9
$DIMSTYLE
  2
STANDARD
  9
$DIMCLRD
 70
     1
  9
$DIMCLRE
 70
     1
  9
$DIMCLRT
 70
     2
  9
$DIMTFAC
 40
1.0
  9
$DIMGAP
 40
1.0
  9
$DIMJUST
 70
     0
  9
$DIMSD1
 70
     0
  9
$DIMSD2
 70
     0
  9
$DIMTOLJ
 70
     1
  9
$DIMTZIN
 70
     0
  9
$DIMALTZ
 70
     0
  9
$DIMALTTZ
 70
     0
  9
$DIMUPT
 70
     0
  9
$DIMDEC
 70
     2
  9
$DIMTDEC
 70
     2
  9
$DIMALTU
 70
     2
  9
$DIMALTTD
 70
     2
  9
$DIMTXSTY
  7
STANDARD
  9
$DIMAUNIT
 70
     0
  9
$DIMADEC
 70
     2
  9
$DIMALTRND
 40
0.0
  9
$DIMAZIN
 70
     2
  9
$DIMDSEP
 70
    46
  9
$DIMATFIT
 70
     0
  9
$DIMFRAC
 70
     0
  9
$DIMLDRBLK
  1
OPEN
  9
$DIMLUNIT
 70
     2
  9
$DIMLWD
 70
    -2
  9
$DIMLWE
 70
    -2
  9
$DIMTMOVE
 70
     0
  9
$DIMFXL
 40
1.0
  9
$DIMFXLON
 70
     0
  9
$DIMJOGANG
 40
0.7853981633974483
  9
$DIMTFILL
 70
     0
  9
$DIMTFILLCLR
 70
     0
  9
$DIMARCSYM
 70
     0
  9
$DIMLTYPE
  6

  9
$DIMLTEX1
  6

  9
$DIMLTEX2
  6

  9
$DIMTXTDIRECTION
 70
     0
  9
$LUNITS
 70
     2
  9
$LUPREC
 70
     4
  9
$SKETCHINC
 40
1.0
  9
$FILLETRAD
 40
10.0
  9
$AUNITS
 70
     0
  9
$AUPREC
 70
     0
  9
$MENU
  1
acad
  9
$ELEVATION
 40
0.0
  9
$PELEVATION
 40
0.0
  9
$THICKNESS
 40
0.0
  9
$LIMCHECK
 70
     0
  9
$CHAMFERA
 40
0.0
  9
$CHAMFERB
 40
0.0
  9
$CHAMFERC
 40
20.0
  9
$CHAMFERD
 40
0.0
  9
$SKPOLY
 70
     0
  9
$TDCREATE
 40
2455616.569599063
  9
$TDUCREATE
 40
2455616.194599063
  9
$TDUPDATE
 40
2459249.455697500
  9
$TDUUPDATE
 40
2459249.080697500
  9
$TDINDWG
 40
2.4268255440
  9
$TDUSRTIMER
 40
2.4268253704
  9
$USRTIMER
 70
     1
  9
$ANGBASE
 50
0.0
  9
$ANGDIR
 70
     0
  9
$PDMODE
 70
     0
  9
$PDSIZE
 40
0.0
  9
$PLINEWID
 40
0.0
  9
$SPLFRAME
 70
     0
  9
$SPLINETYPE
 70
     6
  9
$SPLINESEGS
 70
     8
  9
$HANDSEED
  5
BDD8
  9
$SURFTAB1
 70
     6
  9
$SURFTAB2
 70
     6
  9
$SURFTYPE
 70
     6
  9
$SURFU
 70
     6
  9
$SURFV
 70
     6
  9
$UCSBASE
  2

  9
$UCSNAME
  2

  9
$UCSORG
 10
0.0
 20
0.0
 30
0.0
  9
$UCSXDIR
 10
1.0
 20
0.0
 30
0.0
  9
$UCSYDIR
 10
0.0
 20
1.0
 30
0.0
  9
$UCSORTHOREF
  2

  9
$UCSORTHOVIEW
 70
     0
  9
$UCSORGTOP
 10
0.0
 20
0.0
 30
0.0
  9
$UCSORGBOTTOM
 10
0.0
 20
0.0
 30
0.0
  9
$UCSORGLEFT
 10
0.0
 20
0.0
 30
0.0
  9
$UCSORGRIGHT
 10
0.0
 20
0.0
 30
0.0
  9
$UCSORGFRONT
 10
0.0
 20
0.0
 30
0.0
  9
$UCSORGBACK
 10
0.0
 20
0.0
 30
0.0
  9
$PUCSBASE
  2

  9
$PUCSNAME
  2

  9
$PUCSORG
 10
0.0
 20
0.0
 30
0.0
  9
$PUCSXDIR
 10
1.0
 20
0.0
 30
0.0
  9
$PUCSYDIR
 10
0.0
 20
1.0
 30
0.0
  9
$PUCSORTHOREF
  2

  9
$PUCSORTHOVIEW
 70
     0
  9
$PUCSORGTOP
 10
0.0
 20
0.0
 30
0.0
  9
$PUCSORGBOTTOM
 10
0.0
 20
0.0
 30
0.0
  9
$PUCSORGLEFT
 10
0.0
 20
0.0
 30
0.0
  9
$PUCSORGRIGHT
 10
0.0
 20
0.0
 30
0.0
  9
$PUCSORGFRONT
 10
0.0
 20
0.0
 30
0.0
  9
$PUCSORGBACK
 10
0.0
 20
0.0
 30
0.0
  9
$USERI1
 70
     0
  9
$USERI2
 70
     0
  9
$USERI3
 70
     0
  9
$USERI4
 70
     0
  9
$USERI5
 70
     0
  9
$USERR1
 40
0.0
  9
$USERR2
 40
0.0
  9
$USERR3
 40
0.0
  9
$USERR4
 40
0.0
  9
$USERR5
 40
0.0
  9
$WORLDVIEW
 70
     1
  9
$SHADEDGE
 70
     3
  9
$SHADEDIF
 70
    70
  9
$TILEMODE
 70
     1
  9
$MAXACTVP
 70
    48
  9
$PINSBASE
 10
0.0
 20
0.0
 30
0.0
  9
$PLIMCHECK
 70
     0
  9
$PEXTMIN
 10
1.000000000000000E+20
 20
1.000000000000000E+20
 30
1.000000000000000E+20
  9
$PEXTMAX
 10
-1.000000000000000E+20
 20
-1.000000000000000E+20
 30
-1.000000000000000E+20
  9
$PLIMMIN
 10
0.0
 20
0.0
  9
$PLIMMAX
 10
420.0
 20
297.0
  9
$UNITMODE
 70
     0
  9
$VISRETAIN
 70
     1
  9
$PLINEGEN
 70
     0
  9
$PSLTSCALE
 70
     1
  9
$TREEDEPTH
 70
  3020
  9
$CMLSTYLE
  2
STANDARD
  9
$CMLJUST
 70
     0
  9
$CMLSCALE
 40
20.0
  9
$PROXYGRAPHICS
 70
     1
  9
$MEASUREMENT
 70
     1
  9
$CELWEIGHT
370
    -1
  9
$ENDCAPS
280
     0
  9
$JOINSTYLE
280
     0
  9
$LWDISPLAY
290
     0
  9
$INSUNITS
 70
     0
  9
$HYPERLINKBASE
  1

  9
$STYLESHEET
  1
TAGAI1.CTB
  9
$XEDIT
290
     1
  9
$CEPSNTYPE
380
     0
  9
$PSTYLEMODE
290
     1
  9
$FINGERPRINTGUID
  2
{8B4E85C4-259A-11D8-AF91-00C04F101805}
  9
$VERSIONGUID
  2
{87F68338-0A2A-4528-8A9D-DCB83AD9E44A}
  9
$EXTNAMES
290
     1
  9
$PSVPSCALE
 40
0.0
  9
$OLESTARTUP
290
     0
  9
$SORTENTS
280
   127
  9
$INDEXCTL
280
     0
  9
$HIDETEXT
280
     0
  9
$XCLIPFRAME
280
     2
  9
$HALOGAP
280
     0
  9
$OBSCOLOR
 70
   257
  9
$OBSLTYPE
280
     0
  9
$INTERSECTIONDISPLAY
280
     0
  9
$INTERSECTIONCOLOR
 70
   257
  9
$DIMASSOC
280
     1
  9
$PROJECTNAME
  1

  9
$CAMERADISPLAY
290
     0
  9
$LENSLENGTH
 40
50.0
  9
$CAMERAHEIGHT
 40
0.0
  9
$STEPSPERSEC
 40
2.0
  9
$STEPSIZE
 40
6.0
  9
$3DDWFPREC
 40
2.0
  9
$PSOLWIDTH
 40
0.25
  9
$PSOLHEIGHT
 40
4.0
  9
$LOFTANG1
 40
1.570796326794896
  9
$LOFTANG2
 40
1.570796326794896
  9
$LOFTMAG1
 40
0.0
  9
$LOFTMAG2
 40
0.0
  9
$LOFTPARAM
 70
     7
  9
$LOFTNORMALS
280
     1
  9
$LATITUDE
 40
37.795
  9
$LONGITUDE
 40
-122.394
  9
$NORTHDIRECTION
 40
0.0
  9
$TIMEZONE
 70
 -8000
  9
$LIGHTGLYPHDISPLAY
280
     1
  9
$TILEMODELIGHTSYNCH
280
     1
  9
$CMATERIAL
347
312B
  9
$SOLIDHIST
280
     0
  9
$SHOWHIST
280
     1
  9
$DWFFRAME
280
     2
  9
$DGNFRAME
280
     0
  9
$REALWORLDSCALE
290
     1
  9
$INTERFERECOLOR
 62
     1
  9
$INTERFEREOBJVS
345
314D
  9
$INTERFEREVPVS
346
314A
  9
$CSHADOW
280
     0
  9
$SHADOWPLANELOCATION
 40
0.0
  0
ENDSEC
  0
SECTION
  2
CLASSES
  0
CLASS
  1
DICTIONARYVAR
  2
AcDbDictionaryVar
  3
ObjectDBX Classes
 90
        0
 91
       13
280
     0
281
     0
  0
CLASS
  1
ACDBDICTIONARYWDFLT
  2
AcDbDictionaryWithDefault
  3
ObjectDBX Classes
 90
        0
 91
        1
280
     0
281
     0
  0
CLASS
  1
PLOTSETTINGS
  2
AcDbPlotSettings
  3
ObjectDBX Classes
 90
        0
 91
        6
280
     0
281
     0
  0
CLASS
  1
MATERIAL
  2
AcDbMaterial
  3
ObjectDBX Classes
 90
     1153
 91
        3
280
     0
281
     0
  0
CLASS
  1
VISUALSTYLE
  2
AcDbVisualStyle
  3
ObjectDBX Classes
 90
     4095
 91
       24
280
     0
281
     0
  0
CLASS
  1
TABLESTYLE
  2
AcDbTableStyle
  3
ObjectDBX Classes
 90
     4095
 91
        1
280
     0
281
     0
  0
CLASS
  1
SCALE
  2
AcDbScale
  3
ObjectDBX Classes
 90
     1153
 91
       17
280
     0
281
     0
  0
CLASS
  1
MLEADERSTYLE
  2
AcDbMLeaderStyle
  3
ACDB_MLEADERSTYLE_CLASS
 90
     4095
 91
        1
280
     0
281
     0
  0
CLASS
  1
ACDBSECTIONVIEWSTYLE
  2
AcDbSectionViewStyle
  3
ObjectDBX Classes
 90
     1025
 91
        2
280
     0
281
     0
  0
CLASS
  1
ACDBDETAILVIEWSTYLE
  2
AcDbDetailViewStyle
  3
ObjectDBX Classes
 90
     1025
 91
        2
280
     0
281
     0
  0
CLASS
  1
SORTENTSTABLE
  2
AcDbSortentsTable
  3
ObjectDBX Classes
 90
        0
 91
        1
280
     0
281
     0
  0
CLASS
  1
CELLSTYLEMAP
  2
AcDbCellStyleMap
  3
ObjectDBX Classes
 90
     1152
 91
        2
280
     0
281
     0
  0
CLASS
  1
ACDBASSOCACTION
  2
AcDbAssocAction
  3
ObjectDBX Classes
 90
     1025
 91
        0
280
     0
281
     0
  0
CLASS
  1
ACDBASSOCARRAYACTIONBODY
  2
AcDbAssocArrayActionBody
  3
ObjectDBX Classes
 90
     1025
 91
        0
280
     0
281
     0
  0
CLASS
  1
ACDBASSOCDEPENDENCY
  2
AcDbAssocDependency
  3
ObjectDBX Classes
 90
     1025
 91
        0
280
     0
281
     0
  0
CLASS
  1
ACDBASSOCVERTEXACTIONPARAM
  2
AcDbAssocVertexActionParam
  3
ObjectDBX Classes
 90
     1025
 91
        0
280
     0
281
     0
  0
CLASS
  1
ACDBASSOCARRAYPOLARPARAMETERS
  2
AcDbAssocArrayPolarParameters
  3
ObjectDBX Classes
 90
     1025
 91
        0
280
     0
281
     0
  0
CLASS
  1
ACDBASSOCNETWORK
  2
AcDbAssocNetwork
  3
ObjectDBX Classes
 90
     1025
 91
        0
280
     0
281
     0
  0
CLASS
  1
ACARRAYJIGENTITY
  2
AcArrayJigEntity
  3
ACAD_ARRAY
 90
      129
 91
        0
280
     0
281
     1
  0
ENDSEC
  0
SECTION
  2
TABLES
  0
TABLE
  2
VPORT
  5
8
102
{ACAD_XDICTIONARY
360
3A03
102
}
330
0
100
AcDbSymbolTable
 70
     1
  0
VPORT
  5
3128
330
8
100
AcDbSymbolTableRecord
100
AcDbViewportTableRecord
  2
*Active
 70
     0
 10
0.0
 20
0.0
 11
1.0
 21
1.0
 12
4305.88752840279
 22
938.7617725262968
 13
0.0
 23
0.0
 14
10.0
 24
10.0
 15
10.0
 25
10.0
 16
0.0
 26
0.0
 36
1.0
 17
0.0
 27
0.0
 37
0.0
 40
294.5703549403147
 41
1.865577889447236
 42
50.0
 43
0.0
 44
0.0
 50
0.0
 51
0.0
 71
     0
 72
   100
 73
     1
 74
     1
 75
     0
 76
     0
 77
     0
 78
     0
281
     0
 65
     1
110
0.0
120
0.0
130
0.0
111
1.0
121
0.0
131
0.0
112
0.0
122
1.0
132
0.0
 79
     0
146
0.0
348
3149
 60
     3
 61
     5
292
     1
282
     1
141
0.0
142
0.0
 63
   250
421
  3355443
1001
ACAD_NAV_VCDISPLAY
1070
     3
  0
ENDTAB
  0
TABLE
  2
LTYPE
  5
5
330
0
100
AcDbSymbolTable
 70
     6
  0
LTYPE
  5
12
330
5
100
AcDbSymbolTableRecord
100
AcDbLinetypeTableRecord
  2
BYBLOCK
 70
     0
  3

 72
    65
 73
     0
 40
0.0
  0
LTYPE
  5
13
330
5
100
AcDbSymbolTableRecord
100
AcDbLinetypeTableRecord
  2
BYLAYER
 70
     0
  3

 72
    65
 73
     0
 40
0.0
  0
LTYPE
  5
14
330
5
100
AcDbSymbolTableRecord
100
AcDbLinetypeTableRecord
  2
CONTINUOUS
 70
     0
  3
Solid line
 72
    65
 73
     0
 40
0.0
  0
LTYPE
  5
326
330
5
100
AcDbSymbolTableRecord
100
AcDbLinetypeTableRecord
  2
HIDDEN
 70
     0
  3
Hidden __ __ __ __ __ __ __ __ __ __ __ __ __ _
 72
    65
 73
     2
 40
9.524999999999996
 49
6.349999999999997
 74
     0
 49
-3.174999999999998
 74
     0
  0
LTYPE
  5
327
330
5
100
AcDbSymbolTableRecord
100
AcDbLinetypeTableRecord
  2
CENTER
 70
     0
  3
Center ____ _ ____ _ ____ _ ____ _ ____ _ ____
 72
    65
 73
     4
 40
2.0
 49
1.25
 74
     0
 49
-0.25
 74
     0
 49
0.25
 74
     0
 49
-0.25
 74
     0
  0
LTYPE
  5
328
330
5
100
AcDbSymbolTableRecord
100
AcDbLinetypeTableRecord
  2
PHANTOM
 70
     0
  3
Phantom ______  __  __  ______  __  __  ______
 72
    65
 73
     6
 40
2.5
 49
1.25
 74
     0
 49
-0.25
 74
     0
 49
0.25
 74
     0
 49
-0.25
 74
     0
 49
0.25
 74
     0
 49
-0.25
 74
     0
  0
LTYPE
  5
46A4
330
5
100
AcDbSymbolTableRecord
100
AcDbLinetypeTableRecord
  2
GEN7A
 70
     0
  3
__ . __ . __
 72
    65
 73
     4
 40
6.875
 49
5.0
 74
     0
 49
-0.625
 74
     0
 49
0.625
 74
     0
 49
-0.625
 74
     0
  0
ENDTAB
  0
TABLE
  2
LAYER
  5
2
102
{ACAD_XDICTIONARY
360
320B
102
}
330
0
100
AcDbSymbolTable
 70
    15
  0
LAYER
  5
E
102
{ACAD_XDICTIONARY
360
39E7
102
}
330
2
100
AcDbSymbolTableRecord
100
AcDbLayerTableRecord
  2
0
 70
     0
 62
     7
  6
CONTINUOUS
370
    -3
390
75D
347
313B
348
0
  0
LAYER
  5
32A
102
{ACAD_XDICTIONARY
360
39E9
102
}
330
2
100
AcDbSymbolTableRecord
100
AcDbLayerTableRecord
  2
IMAGINE
 70
     0
 62
     6
  6
PHANTOM
370
    -3
390
75D
347
313B
348
0
  0
LAYER
  5
32B
330
2
100
AcDbSymbolTableRecord
100
AcDbLayerTableRecord
  2
DEFPOINTS
 70
     0
 62
     7
  6
CONTINUOUS
290
     0
370
    -3
390
75D
347
313B
348
0
  0
LAYER
  5
32C
102
{ACAD_XDICTIONARY
360
39EB
102
}
330
2
100
AcDbSymbolTableRecord
100
AcDbLayerTableRecord
  2
OBJECT1
 70
     0
 62
     7
  6
CONTINUOUS
370
    -3
390
75D
347
313B
348
0
  0
LAYER
  5
32E
102
{ACAD_XDICTIONARY
360
39EF
102
}
330
2
100
AcDbSymbolTableRecord
100
AcDbLayerTableRecord
  2
CENTER
 70
     0
 62
     4
  6
CENTER
370
    -3
390
75D
347
313B
348
0
  0
LAYER
  5
32F
102
{ACAD_XDICTIONARY
360
39F1
102
}
330
2
100
AcDbSymbolTableRecord
100
AcDbLayerTableRecord
  2
PARTS
 70
     0
 62
     3
  6
CONTINUOUS
370
    -3
390
75D
347
313B
348
0
  0
LAYER
  5
330
102
{ACAD_XDICTIONARY
360
39F3
102
}
330
2
100
AcDbSymbolTableRecord
100
AcDbLayerTableRecord
  2
DIM
 70
     0
 62
     1
  6
CONTINUOUS
370
    -3
390
75D
347
313B
348
0
  0
LAYER
  5
331
102
{ACAD_XDICTIONARY
360
39F5
102
}
330
2
100
AcDbSymbolTableRecord
100
AcDbLayerTableRecord
  2
HIDE
 70
     0
 62
     2
  6
HIDDEN
370
    -3
390
75D
347
313B
348
0
  0
LAYER
  5
11B8
102
{ACAD_XDICTIONARY
360
39F7
102
}
330
2
100
AcDbSymbolTableRecord
100
AcDbLayerTableRecord
  2
図面枠
 70
     0
 62
     7
  6
CONTINUOUS
370
    -3
390
75D
347
313B
348
0
  0
LAYER
  5
138B
102
{ACAD_XDICTIONARY
360
39F9
102
}
330
2
100
AcDbSymbolTableRecord
100
AcDbLayerTableRecord
  2
履歴
 70
     0
 62
    -7
  6
CONTINUOUS
370
    -3
390
75D
347
313B
348
0
  0
LAYER
  5
23F8
102
{ACAD_XDICTIONARY
360
39FB
102
}
330
2
100
AcDbSymbolTableRecord
100
AcDbLayerTableRecord
  2
OBJECT2
 70
     0
 62
     5
  6
CONTINUOUS
370
    -3
390
75D
347
313B
348
0
  0
LAYER
  5
2C3C
102
{ACAD_XDICTIONARY
360
2C3D
102
}
330
2
100
AcDbSymbolTableRecord
100
AcDbLayerTableRecord
  2
OBJECT
 70
     0
 62
     7
  6
CONTINUOUS
370
    -3
390
75D
347
313B
348
0
  0
LAYER
  5
46A7
102
{ACAD_XDICTIONARY
360
46A8
102
}
330
2
100
AcDbSymbolTableRecord
100
AcDbLayerTableRecord
  2
7AN
 70
     0
 62
     4
  6
GEN7A
370
    -3
390
75D
347
313B
348
0
  0
LAYER
  5
9ADB
102
{ACAD_XDICTIONARY
360
9ADC
102
}
330
2
100
AcDbSymbolTableRecord
100
AcDbLayerTableRecord
  2
-TEXT
 70
     0
 62
     2
  6
CONTINUOUS
370
    -3
390
75D
347
313B
348
0
  0
LAYER
  5
BDA8
102
{ACAD_XDICTIONARY
360
BDA9
102
}
330
2
100
AcDbSymbolTableRecord
100
AcDbLayerTableRecord
  2
7：文字
 70
     0
 62
     2
  6
CONTINUOUS
370
    -3
390
75D
347
313B
348
0
  0
ENDTAB
  0
TABLE
  2
STYLE
  5
3
330
0
100
AcDbSymbolTable
 70
     4
  0
STYLE
  5
F
330
3
100
AcDbSymbolTableRecord
100
AcDbTextStyleTableRecord
  2
STANDARD
 70
     0
 40
0.0
 41
1.0
 50
0.0
 71
     0
 42
3.0
  3
isocp.shx
  4
bigfont.shx
  0
STYLE
  5
333
330
3
100
AcDbSymbolTableRecord
100
AcDbTextStyleTableRecord
  2
JX_FONT
 70
     0
 40
1.0
 41
1.0
 50
0.0
 71
     0
 42
1.0
  3
monotxt
  4
bigfont
  0
STYLE
  5
2C40
330
3
100
AcDbSymbolTableRecord
100
AcDbTextStyleTableRecord
  2
BIGFONT
 70
     0
 40
4.0
 41
1.0
 50
0.0
 71
     0
 42
4.0
  3
txt
  4
bigfont
  0
STYLE
  5
B846
330
3
100
AcDbSymbolTableRecord
100
AcDbTextStyleTableRecord
  2
スタイル1
 70
     0
 40
10.0
 41
1.0
 50
0.0
 71
     0
 42
10.0
  3
isocp.shx
  4
bigfont.shx
  0
ENDTAB
  0
TABLE
  2
VIEW
  5
6
330
0
100
AcDbSymbolTable
 70
     0
  0
ENDTAB
  0
TABLE
  2
UCS
  5
7
330
0
100
AcDbSymbolTable
 70
     0
  0
ENDTAB
  0
TABLE
  2
APPID
  5
9
330
0
100
AcDbSymbolTable
 70
    18
  0
APPID
  5
10
330
9
100
AcDbSymbolTableRecord
100
AcDbRegAppTableRecord
  2
ACAD
 70
     0
  0
APPID
  5
24
330
9
100
AcDbSymbolTableRecord
100
AcDbRegAppTableRecord
  2
CONTENTTABDATA
 70
     0
  0
APPID
  5
25
330
9
100
AcDbSymbolTableRecord
100
AcDbRegAppTableRecord
  2
CONTENTCURRENTTAB
 70
     0
  0
APPID
  5
2C41
330
9
100
AcDbSymbolTableRecord
100
AcDbRegAppTableRecord
  2
GENIUS_GENREC_14
 70
     0
  0
APPID
  5
2C42
330
9
100
AcDbSymbolTableRecord
100
AcDbRegAppTableRecord
  2
GENIUS_GENODEF_13
 70
     0
  0
APPID
  5
2C43
330
9
100
AcDbSymbolTableRecord
100
AcDbRegAppTableRecord
  2
GENIUS_GENOBJ-N-REC_13
 70
     0
  0
APPID
  5
320A
330
9
100
AcDbSymbolTableRecord
100
AcDbRegAppTableRecord
  2
ACAD_NAV_VCDISPLAY
 70
     0
  0
APPID
  5
3A4B
330
9
100
AcDbSymbolTableRecord
100
AcDbRegAppTableRecord
  2
ACAD_MLEADERVER
 70
     0
  0
APPID
  5
3A5F
330
9
100
AcDbSymbolTableRecord
100
AcDbRegAppTableRecord
  2
ACAD_EXEMPT_FROM_CAD_STANDARDS
 70
     0
  0
APPID
  5
3ACD
330
9
100
AcDbSymbolTableRecord
100
AcDbRegAppTableRecord
  2
ACAD_PSEXT
 70
     0
  0
APPID
  5
4931
330
9
100
AcDbSymbolTableRecord
100
AcDbRegAppTableRecord
  2
AcadAnnoMonitorAlertIconDisabled
 70
     0
  0
APPID
  5
620A
330
9
100
AcDbSymbolTableRecord
100
AcDbRegAppTableRecord
  2
GENIUS_GENOBJ-N-CEN_13
 70
     0
  0
APPID
  5
620B
330
9
100
AcDbSymbolTableRecord
100
AcDbRegAppTableRecord
  2
GENIUS_GENOREF_13
 70
     0
  0
APPID
  5
620C
330
9
100
AcDbSymbolTableRecord
100
AcDbRegAppTableRecord
  2
GENIUS_GENFIL_13
 70
     0
  0
APPID
  5
620D
330
9
100
AcDbSymbolTableRecord
100
AcDbRegAppTableRecord
  2
GENIUS_GENOBJ-N-CHA_13
 70
     0
  0
APPID
  5
70A7
330
9
100
AcDbSymbolTableRecord
100
AcDbRegAppTableRecord
  2
ACAD_DSTYLE_DIMJAG
 70
     0
  0
APPID
  5
70A8
330
9
100
AcDbSymbolTableRecord
100
AcDbRegAppTableRecord
  2
ACAD_DSTYLE_DIMTALN
 70
     0
  0
APPID
  5
BDAB
330
9
100
AcDbSymbolTableRecord
100
AcDbRegAppTableRecord
  2
ACAD_DSTYLE_DIMBREAK
 70
     0
  0
ENDTAB
  0
TABLE
  2
DIMSTYLE
  5
A
330
0
100
AcDbSymbolTable
 70
     2
100
AcDbDimStyleTable
 71
     1
340
1D
  0
DIMSTYLE
105
1D
330
A
100
AcDbSymbolTableRecord
100
AcDbDimStyleTableRecord
  2
STANDARD
 70
     0
 40
4.0
 41
2.5
 42
1.25
 43
7.0
 44
1.25
 73
     0
 74
     0
 77
     3
 78
     8
 79
     2
140
3.0
141
3.0
147
1.0
172
     1
173
     1
176
     1
177
     1
178
     2
179
     2
271
     2
272
     2
289
     0
340
F
341
36
343
36
344
36
  0
DIMSTYLE
105
BDAA
330
A
100
AcDbSymbolTableRecord
100
AcDbDimStyleTableRecord
  2
STANDARD++$0
 70
     0
 40
2.0
 41
2.5
 42
1.0
 43
7.0
 44
1.0
 73
     0
 74
     0
 77
     1
 78
     8
140
3.0
141
0.0
147
1.25
172
     1
176
     1
177
     1
178
     2
340
F
341
36
342
36
1001
ACAD_DSTYLE_DIMBREAK
1070
   391
1040
3.75
1001
ACAD_DSTYLE_DIMJAG
1070
   388
1040
1.5
1001
ACAD_DSTYLE_DIMTALN
1070
   392
1070
     0
  0
ENDTAB
  0
TABLE
  2
BLOCK_RECORD
  5
1
330
0
100
AcDbSymbolTable
 70
    10
  0
BLOCK_RECORD
  5
18
102
{ACAD_XDICTIONARY
360
4ABC
102
}
330
1
100
AcDbSymbolTableRecord
100
AcDbBlockTableRecord
  2
*MODEL_SPACE
340
760
 70
     0
280
     1
281
     0
  0
BLOCK_RECORD
  5
15
330
1
100
AcDbSymbolTableRecord
100
AcDbBlockTableRecord
  2
*PAPER_SPACE
340
761
 70
     0
280
     1
281
     0
  0
BLOCK_RECORD
  5
36
330
1
100
AcDbSymbolTableRecord
100
AcDbBlockTableRecord
  2
_OPEN
340
0
310
2800000020000000200000000100080000000000000400000000000000000000000000000000000000000000000080000080000000808000800000008000800080800000C0C0C000C0DCC000F0CAA6000020400000206000002080000020A0000020C0000020E00000400000004020000040400000406000004080000040A0
310
000040C0000040E00000600000006020000060400000606000006080000060A0000060C0000060E00000800000008020000080400000806000008080000080A0000080C0000080E00000A0000000A0200000A0400000A0600000A0800000A0A00000A0C00000A0E00000C0000000C0200000C0400000C0600000C0800000C0
310
A00000C0C00000C0E00000E0000000E0200000E0400000E0600000E0800000E0A00000E0C00000E0E00040000000400020004000400040006000400080004000A0004000C0004000E00040200000402020004020400040206000402080004020A0004020C0004020E000404000004040200040404000404060004040800040
310
40A0004040C0004040E00040600000406020004060400040606000406080004060A0004060C0004060E00040800000408020004080400040806000408080004080A0004080C0004080E00040A0000040A0200040A0400040A0600040A0800040A0A00040A0C00040A0E00040C0000040C0200040C0400040C0600040C08000
310
40C0A00040C0C00040C0E00040E0000040E0200040E0400040E0600040E0800040E0A00040E0C00040E0E00080000000800020008000400080006000800080008000A0008000C0008000E00080200000802020008020400080206000802080008020A0008020C0008020E00080400000804020008040400080406000804080
310
008040A0008040C0008040E00080600000806020008060400080606000806080008060A0008060C0008060E00080800000808020008080400080806000808080008080A0008080C0008080E00080A0000080A0200080A0400080A0600080A0800080A0A00080A0C00080A0E00080C0000080C0200080C0400080C0600080C0
310
800080C0A00080C0C00080C0E00080E0000080E0200080E0400080E0600080E0800080E0A00080E0C00080E0E000C0000000C0002000C0004000C0006000C0008000C000A000C000C000C000E000C0200000C0202000C0204000C0206000C0208000C020A000C020C000C020E000C0400000C0402000C0404000C0406000C0
310
408000C040A000C040C000C040E000C0600000C0602000C0604000C0606000C0608000C060A000C060C000C060E000C0800000C0802000C0804000C0806000C0808000C080A000C080C000C080E000C0A00000C0A02000C0A04000C0A06000C0A08000C0A0A000C0A0C000C0A0E000C0C00000C0C02000C0C04000C0C06000
310
C0C08000C0C0A000F0FBFF00A4A0A000808080000000FF0000FF000000FFFF00FF000000FF00FF00FFFF0000FFFFFF0000000000000000000000000000000000000000000000000000000000000000000000000000000000000000000000000000000000000000000000000000000000000000000000000000000000000000
310
00000000000000000000000000000000000000000000000000000000000000000000000000000000000000000000000000000000000000000000000000000000000000000000000000000000000000000000000000000000000000000000000000000000000000000000000000000000000000000000000000000000000000
310
00000000000000000000000000000000000000000000000000000000000000000000000000000000000000000000000000000000000000000000000000000000000000000000000000000000000000000000000000000000000000000000000000000000000000000000000000000000000000000000000000000000000000
310
0000000000000000000000000000000000000000FFFFFF0000000000000000000000000000000000000000000000000000000000000000FFFFFFFFFFFF0000000000000000000000000000000000000000000000000000000000000000FFFFFFFFFFFF00000000000000000000000000000000000000000000000000000000
310
00000000FFFFFFFFFFFF0000000000000000000000000000000000000000000000000000000000000000FFFFFFFFFFFF0000000000FFFFFFFFFFFFFFFFFFFFFFFFFFFFFFFFFFFFFFFFFFFFFFFFFFFFFFFFFFFF000000000000000000000000000000000000000000FFFFFFFFFFFFFF00000000000000000000000000000000
310
00FFFFFFFFFFFFFFFF0000000000000000000000000000000000FFFFFFFFFFFFFF000000000000000000000000000000000000000000FFFFFFFF000000000000000000000000000000000000000000000000000000000000000000000000000000000000000000000000000000000000000000000000000000000000000000
310
00000000000000000000000000000000000000000000000000000000000000000000000000000000000000000000000000000000000000000000000000000000000000000000000000000000000000000000000000000000000000000000000000000000000000000000000000000000000000000000000000000000000000
310
00000000000000000000000000000000000000000000000000000000000000000000000000000000000000000000000000000000000000000000000000000000000000000000000000000000000000000000000000000000000000000000000000000000000000000000000000000000000000000000000000000000000000
310
0000000000000000000000000000000000000000000000000000000000000000000000000000000000000000000000000000000000000000
102
{BLKREFS
331
BC93
331
BC94
331
BC9E
331
BC9F
331
BCA7
331
BCA8
331
BCB0
331
BCB1
331
BCB9
331
BCBA
331
91EF
331
91F0
331
AE63
331
AE64
102
}
 70
     0
280
     1
281
     0
  0
BLOCK_RECORD
  5
2203
330
1
100
AcDbSymbolTableRecord
100
AcDbBlockTableRecord
  2
INABA_A3
340
0
310
2800000020000000200000000100080000000000000400000000000000000000000000000000000000000000000080000080000000808000800000008000800080800000C0C0C000C0DCC000F0CAA6000020400000206000002080000020A0000020C0000020E00000400000004020000040400000406000004080000040A0
310
000040C0000040E00000600000006020000060400000606000006080000060A0000060C0000060E00000800000008020000080400000806000008080000080A0000080C0000080E00000A0000000A0200000A0400000A0600000A0800000A0A00000A0C00000A0E00000C0000000C0200000C0400000C0600000C0800000C0
310
A00000C0C00000C0E00000E0000000E0200000E0400000E0600000E0800000E0A00000E0C00000E0E00040000000400020004000400040006000400080004000A0004000C0004000E00040200000402020004020400040206000402080004020A0004020C0004020E000404000004040200040404000404060004040800040
310
40A0004040C0004040E00040600000406020004060400040606000406080004060A0004060C0004060E00040800000408020004080400040806000408080004080A0004080C0004080E00040A0000040A0200040A0400040A0600040A0800040A0A00040A0C00040A0E00040C0000040C0200040C0400040C0600040C08000
310
40C0A00040C0C00040C0E00040E0000040E0200040E0400040E0600040E0800040E0A00040E0C00040E0E00080000000800020008000400080006000800080008000A0008000C0008000E00080200000802020008020400080206000802080008020A0008020C0008020E00080400000804020008040400080406000804080
310
008040A0008040C0008040E00080600000806020008060400080606000806080008060A0008060C0008060E00080800000808020008080400080806000808080008080A0008080C0008080E00080A0000080A0200080A0400080A0600080A0800080A0A00080A0C00080A0E00080C0000080C0200080C0400080C0600080C0
310
800080C0A00080C0C00080C0E00080E0000080E0200080E0400080E0600080E0800080E0A00080E0C00080E0E000C0000000C0002000C0004000C0006000C0008000C000A000C000C000C000E000C0200000C0202000C0204000C0206000C0208000C020A000C020C000C020E000C0400000C0402000C0404000C0406000C0
310
408000C040A000C040C000C040E000C0600000C0602000C0604000C0606000C0608000C060A000C060C000C060E000C0800000C0802000C0804000C0806000C0808000C080A000C080C000C080E000C0A00000C0A02000C0A04000C0A06000C0A08000C0A0A000C0A0C000C0A0E000C0C00000C0C02000C0C04000C0C06000
310
C0C08000C0C0A000F0FBFF00A4A0A000808080000000FF0000FF000000FFFF00FF000000FF00FF00FFFF0000FFFFFF0000000000000000000000000000000000000000000000000000000000000000000000000000000000000000000000000000000000000000000000000000000000000000000000000000000000000000
310
000000000000000000000000000000000000000000000000000000000000000000000000000000000000000000000000000000000000000000000000000000000000000000000000000000000000000000000000000000000000000000000000000000000000000000000000000000000000A2FFFFFFFFFFFFFFFFFFFFFFFF
310
FFFFFFFFFFFFFFFFFFFFFFFFFFFFFFFFA20000A2FFFFFF000000000000000000000000FFFFFFFFFFFFFFFFFFFFFFFFFFA20000A2FFFFFF000000000000000000000000FFFFFFFFFFFFFFFFFFFFFFFFFFA20000A2FFFFFF000000000000000000000000000000000000000000000000FFA20000A2FFFFFF0000000000000000
310
00000000000000000000000000000000FFA20000A2FF0000000000000000000000000000000000000000000000000000FFA20000A2FF0000000000000000000000000000000000000000000000000000FFA20000A2FF0000000000000000000000000000000000000000000000000000FFA20000A2FF000000000000000000
310
0000000000000000000000000000000000FFA20000A2FF0000000000000000000000000000000000000000000000000000FFA20000A2FF0000000000000000000000000000000000000000000000000000FFA20000A2FF0000000000000000000000000000000000000000000000000000FFA20000A2FF0000000000000000
310
000000000000000000000000000000000000FFA20000A2FF0000000000000000000000000000000000000000000000000000FFA20000A2FF0000000000000000000000000000000000000000000000000000FFA20000A2FF0000000000000000000000000000000000000000000000000000FFA20000A2FF00000000000000
310
00000000000000000000000000000000000000FFA20000A2FF0000000000000000000000000000000000000000000000000000FFA20000A2FF0000000000000000000000000000000000000000000000000000FFA20000A2FFFFFFFFFFFFFFFFFFFFFFFFFFFFFFFFFFFFFFFFFFFFFFFFFFFFFFFFA200000000000000000000
310
00000000000000000000000000000000000000000000000000000000000000000000000000000000000000000000000000000000000000000000000000000000000000000000000000000000000000000000000000000000000000000000000000000000000000000000000000000000000000000000000000000000000000
310
0000000000000000000000000000000000000000000000000000000000000000000000000000000000000000000000000000000000000000
 70
     4
280
     1
281
     0
  0
BLOCK_RECORD
  5
317D
330
1
100
AcDbSymbolTableRecord
100
AcDbBlockTableRecord
  2
2014
340
0
102
{BLKREFS
331
37F7
102
}
 70
     0
280
     1
281
     0
  0
BLOCK_RECORD
  5
9199
330
1
100
AcDbSymbolTableRecord
100
AcDbBlockTableRecord
  2
*D3
340
0
 70
     0
280
     1
281
     0
  0
BLOCK_RECORD
  5
91A5
330
1
100
AcDbSymbolTableRecord
100
AcDbBlockTableRecord
  2
*D4
340
0
 70
     0
280
     1
281
     0
  0
BLOCK_RECORD
  5
BBC5
330
1
100
AcDbSymbolTableRecord
100
AcDbBlockTableRecord
  2
*D5
340
0
 70
     0
280
     1
281
     0
  0
BLOCK_RECORD
  5
BBD1
330
1
100
AcDbSymbolTableRecord
100
AcDbBlockTableRecord
  2
*D6
340
0
 70
     0
280
     1
281
     0
  0
BLOCK_RECORD
  5
BBDF
330
1
100
AcDbSymbolTableRecord
100
AcDbBlockTableRecord
  2
*D7
340
0
 70
     0
280
     1
281
     0
  0
BLOCK_RECORD
  5
BBEB
330
1
100
AcDbSymbolTableRecord
100
AcDbBlockTableRecord
  2
*D8
340
0
 70
     0
280
     1
281
     0
  0
BLOCK_RECORD
  5
BBF7
330
1
100
AcDbSymbolTableRecord
100
AcDbBlockTableRecord
  2
*D9
340
0
 70
     0
280
     1
281
     0
  0
ENDTAB
  0
ENDSEC
  0
SECTION
  2
BLOCKS
  0
BLOCK
  5
19
330
18
100
AcDbEntity
  8
0
100
AcDbBlockBegin
  2
*MODEL_SPACE
 70
     0
 10
0.0
 20
0.0
 30
0.0
  3
*MODEL_SPACE
  1

  0
ENDBLK
  5
1A
330
18
100
AcDbEntity
  8
0
100
AcDbBlockEnd
  0
BLOCK
  5
16
330
15
100
AcDbEntity
 67
     1
  8
0
100
AcDbBlockBegin
  2
*PAPER_SPACE
 70
     0
 10
0.0
 20
0.0
 30
0.0
  3
*PAPER_SPACE
  1

  0
ENDBLK
  5
17
330
15
100
AcDbEntity
 67
     1
  8
0
100
AcDbBlockEnd
  0
BLOCK
  5
3A
330
36
100
AcDbEntity
  8
0
 48
0.3
100
AcDbBlockBegin
  2
_OPEN
 70
     0
 10
0.0
 20
0.0
 30
0.0
  3
_OPEN
  1

  0
LINE
  5
37
330
36
100
AcDbEntity
  8
0
  6
ByBlock
 62
     0
 48
0.3
100
AcDbLine
 10
-1.0
 20
0.1666666666666666
 30
0.0
 11
0.0
 21
0.0
 31
0.0
  0
LINE
  5
38
330
36
100
AcDbEntity
  8
0
  6
ByBlock
 62
     0
 48
0.3
100
AcDbLine
 10
0.0
 20
0.0
 30
0.0
 11
-1.0
 21
-0.1666666666666666
 31
0.0
  0
LINE
  5
39
330
36
100
AcDbEntity
  8
0
  6
ByBlock
 62
     0
 48
0.3
100
AcDbLine
 10
0.0
 20
0.0
 30
0.0
 11
-1.0
 21
0.0
 31
0.0
  0
ENDBLK
  5
3B
330
36
100
AcDbEntity
  8
0
 48
0.3
100
AcDbBlockEnd
  0
BLOCK
  5
2204
330
2203
100
AcDbEntity
  8
0
100
AcDbBlockBegin
  2
INABA_A3
 70
     2
 10
0.0
 20
0.0
 30
0.0
  3
INABA_A3
  1

  0
ATTDEF
  5
273C
330
2203
100
AcDbEntity
  8
履歴
100
AcDbText
 10
4.804027329292117
 20
1.79271129859762
 30
0.0
 40
3.0
  1
2003/3/20
100
AcDbAttributeDefinition
280
     0
  3
日付
  2
DAY
 70
     0
280
     0
  0
ATTDEF
  5
273D
330
2203
100
AcDbEntity
  8
図面枠
100
AcDbText
 10
341.7583216175437
 20
26.92201685075395
 30
0.0
 40
3.0
  1
PD-45-530SW-11
 72
     4
 11
357.0583216175437
 21
28.42201685075395
 31
0.0
100
AcDbAttributeDefinition
280
     0
  3
名称1
  2
TITLE_1
 70
     0
280
     0
  0
ATTDEF
  5
273E
330
2203
100
AcDbEntity
  8
図面枠
100
AcDbText
 10
335.7394098249709
 20
33.26221300103873
 30
0.0
 40
2.0
  1
田上
100
AcDbAttributeDefinition
280
     0
  3
名称2
  2
TITLE2
 70
     0
280
     0
  0
ATTDEF
  5
273F
330
2203
100
AcDbEntity
  8
図面枠
100
AcDbText
 10
333.983449069733
 20
12.53587344739387
 30
0.0
 40
2.799999999999998
  1
田上
 72
     4
 11
337.063449069733
 21
13.93587344739387
 31
0.0
100
AcDbAttributeDefinition
280
     0
  3
図面番号
  2
DRAWNING_NO
 70
     0
280
     0
  0
ATTDEF
  5
2740
330
2203
100
AcDbEntity
  8
図面枠
100
AcDbText
 10
371.3357572928162
 20
12.53587344739387
 30
0.0
 40
2.799999999999998
  1
田上
 72
     4
 11
374.4157572928162
 21
13.93587344739387
 31
0.0
100
AcDbAttributeDefinition
280
     0
  3
型式
  2
MODEL
 70
     0
280
     0
  0
ATTDEF
  5
2741
330
2203
100
AcDbEntity
  8
図面枠
100
AcDbText
 10
306.6727276417195
 20
19.66393622387111
 30
0.0
 40
2.799999999999998
  1
田上
 72
     4
 11
309.7527276417195
 21
21.06393622387111
 31
0.0
100
AcDbAttributeDefinition
280
     0
  3
尺度
  2
SCALE
 70
     0
280
     0
  0
ATTDEF
  5
2742
330
2203
100
AcDbEntity
  8
図面枠
100
AcDbText
 10
289.3779221794205
 20
26.56593308748109
 30
0.0
 40
3.0
  1
田上
 72
     1
 11
292.6779221794205
 21
26.56593308748109
 31
0.0
100
AcDbAttributeDefinition
280
     0
  3
製図
  2
DRAWN
 70
     0
280
     0
  0
ATTDEF
  5
2743
330
2203
100
AcDbEntity
  8
図面枠
100
AcDbText
 10
269.6279221794205
 20
26.56593308748109
 30
0.0
 40
3.0
  1
田上
 72
     1
 11
272.9279221794205
 21
26.56593308748109
 31
0.0
100
AcDbAttributeDefinition
280
     0
  3
設計
  2
DESIGN
 70
     0
280
     0
  0
ATTDEF
  5
2744
330
2203
100
AcDbEntity
  8
図面枠
100
AcDbText
 10
249.8779221794205
 20
26.56593308748109
 30
0.0
 40
3.0
  1
田上
 72
     1
 11
253.1779221794205
 21
26.56593308748109
 31
0.0
100
AcDbAttributeDefinition
280
     0
  3
検図
  2
CHECK
 70
     0
280
     0
  0
ATTDEF
  5
2745
330
2203
100
AcDbEntity
  8
図面枠
100
AcDbText
 10
230.1279221794205
 20
26.56593308748109
 30
0.0
 40
3.0
  1
田上
 72
     1
 11
233.4279221794205
 21
26.56593308748109
 31
0.0
100
AcDbAttributeDefinition
280
     0
  3
承認
  2
APPROVE
 70
     0
280
     0
  0
ATTDEF
  5
2746
330
2203
100
AcDbEntity
  8
履歴
100
AcDbText
 10
21.26962706202095
 20
12.05614926659427
 30
0.0
 40
3.0
  1
田上
100
AcDbAttributeDefinition
280
     0
  3
履歴A
  2
HISTORY_A
 70
     0
280
     0
  0
ATTDEF
  5
2747
330
2203
100
AcDbEntity
  8
履歴
100
AcDbText
 10
21.26962706202095
 20
17.05614926659427
 30
0.0
 40
3.0
  1
田上
100
AcDbAttributeDefinition
280
     0
  3
履歴B
  2
HISTORY_B
 70
     0
280
     0
  0
ATTDEF
  5
2748
330
2203
100
AcDbEntity
  8
履歴
100
AcDbText
 10
21.26962706202095
 20
22.05614926659428
 30
0.0
 40
3.0
  1
田上
100
AcDbAttributeDefinition
280
     0
  3
履歴C
  2
HISTORY_C
 70
     0
280
     0
  0
ATTDEF
  5
2749
330
2203
100
AcDbEntity
  8
履歴
100
AcDbText
 10
21.26962706202095
 20
27.05614926659428
 30
0.0
 40
3.0
  1
田上
100
AcDbAttributeDefinition
280
     0
  3
履歴D
  2
HISTORY_D
 70
     0
280
     0
  0
ATTDEF
  5
274A
330
2203
100
AcDbEntity
  8
履歴
100
AcDbText
 10
21.26962706202095
 20
32.05614926659428
 30
0.0
 40
3.0
  1
田上
100
AcDbAttributeDefinition
280
     0
  3
履歴E
  2
HISTORY_E
 70
     0
280
     0
  0
ATTDEF
  5
274B
330
2203
100
AcDbEntity
  8
履歴
100
AcDbText
 10
21.26962706202095
 20
37.05614926659428
 30
0.0
 40
3.0
  1
田上
100
AcDbAttributeDefinition
280
     0
  3
履歴F
  2
HISTORY_F
 70
     0
280
     0
  0
ATTDEF
  5
274C
330
2203
100
AcDbEntity
  8
履歴
100
AcDbText
 10
21.26962706202095
 20
42.05614926659428
 30
0.0
 40
3.0
  1
田上
100
AcDbAttributeDefinition
280
     0
  3
履歴G
  2
HISTORY_G
 70
     0
280
     0
  0
ATTDEF
  5
274D
330
2203
100
AcDbEntity
  8
履歴
100
AcDbText
 10
21.26962706202095
 20
47.05614926659428
 30
0.0
 40
3.0
  1
田上
100
AcDbAttributeDefinition
280
     0
  3
履歴H
  2
HISTORY_H
 70
     0
280
     0
  0
ATTDEF
  5
274E
330
2203
100
AcDbEntity
  8
履歴
100
AcDbText
 10
21.26962706202095
 20
52.05614926659428
 30
0.0
 40
3.0
  1
田上
100
AcDbAttributeDefinition
280
     0
  3
履歴H
  2
HISTORY_I
 70
     0
280
     0
  0
ATTDEF
  5
274F
330
2203
100
AcDbEntity
  8
履歴
100
AcDbText
 10
21.26962706202095
 20
57.05614926659428
 30
0.0
 40
3.0
  1
田上
100
AcDbAttributeDefinition
280
     0
  3
履歴I
  2
HISTORY_J
 70
     0
280
     0
  0
LWPOLYLINE
  5
2750
330
2203
100
AcDbEntity
  8
DEFPOINTS
 62
   137
100
AcDbPolyline
 90
        4
 70
     1
 43
0.0
 10
0.0
 20
0.0
 10
408.18
 20
0.0
 10
408.18
 20
285.2399999999999
 10
0.0
 20
285.2399999999999
  0
SOLID
  5
2751
330
2203
100
AcDbEntity
  8
図面枠
100
AcDbTrace
 10
394.0521657161253
 20
7.075379784683192
 30
0.0
 11
393.5529221794207
 21
7.574623321387846
 31
0.0
 12
13.62859074716996
 22
7.075379784683192
 32
0.0
 13
14.12783428387465
 23
7.574623321387846
 33
0.0
  0
SOLID
  5
2752
330
2203
100
AcDbEntity
  8
図面枠
100
AcDbTrace
 10
13.62859074716996
 20
278.6638637520214
 30
0.0
 11
14.12783428387465
 21
278.1646202153167
 31
0.0
 12
394.0521657161253
 22
278.6638637520214
 32
0.0
 13
393.5529221794207
 23
278.1646202153167
 33
0.0
  0
SOLID
  5
2753
330
2203
100
AcDbEntity
  8
図面枠
100
AcDbTrace
 10
13.62859074716996
 20
7.075379784683192
 30
0.0
 11
14.12783428387465
 21
7.574623321387846
 31
0.0
 12
13.62859074716996
 22
278.6638637520214
 32
0.0
 13
14.12783428387465
 23
278.1646202153167
 33
0.0
  0
SOLID
  5
2754
330
2203
100
AcDbEntity
  8
図面枠
100
AcDbTrace
 10
394.0521657161253
 20
278.6638637520214
 30
0.0
 11
393.5529221794207
 21
278.1646202153167
 31
0.0
 12
394.0521657161253
 22
7.075379784683192
 32
0.0
 13
393.5529221794207
 23
7.574623321387846
 33
0.0
  0
LINE
  5
2755
330
2203
100
AcDbEntity
  8
図面枠
100
AcDbLine
 10
317.5529221794207
 20
22.57462332138786
 30
0.0
 11
393.5529221794206
 21
22.57462332138786
 31
0.0
  0
LINE
  5
2756
330
2203
100
AcDbEntity
  8
図面枠
100
AcDbLine
 10
223.5529221794205
 20
37.57462332138786
 30
0.0
 11
393.5529221794206
 21
37.57462332138786
 31
0.0
  0
LINE
  5
2757
330
2203
100
AcDbEntity
  8
図面枠
100
AcDbLine
 10
317.5529221794207
 20
7.574623321387846
 30
0.0
 11
317.5529221794207
 21
37.57462332138786
 31
0.0
  0
LINE
  5
2758
330
2203
100
AcDbEntity
  8
図面枠
100
AcDbLine
 10
302.5529221794205
 20
37.57462332138786
 30
0.0
 11
302.5529221794205
 21
7.574623321387846
 31
0.0
  0
LINE
  5
2759
330
2203
100
AcDbEntity
  8
図面枠
100
AcDbLine
 10
223.5529221794205
 20
7.574623321387846
 30
0.0
 11
223.5529221794205
 21
37.57462332138786
 31
0.0
  0
LINE
  5
275A
330
2203
100
AcDbEntity
  8
図面枠
100
AcDbLine
 10
244.1390776861418
 20
16.22257502528505
 30
0.0
 11
246.1042036861414
 21
13.41608402528523
 31
0.0
  0
LINE
  5
275B
330
2203
100
AcDbEntity
  8
図面枠
100
AcDbLine
 10
243.4792036861414
 20
15.25412852528525
 30
0.0
 11
245.3528701861416
 21
16.56608402528509
 31
0.0
  0
ARC
  5
275C
330
2203
100
AcDbEntity
  8
図面枠
100
AcDbCircle
 10
226.6792036861417
 20
16.30358402528516
 30
0.0
 40
0.2625
100
AcDbArc
 50
44.99999999999971
 51
180.0
  0
LINE
  5
275D
330
2203
100
AcDbEntity
  8
図面枠
100
AcDbLine
 10
226.4167036861414
 20
13.41608402528523
 30
0.0
 11
226.4167036861414
 21
16.30358402528516
 31
0.0
  0
LINE
  5
275E
330
2203
100
AcDbEntity
  8
図面枠
100
AcDbLine
 10
224.9003416861425
 20
16.56608402528509
 30
0.0
 11
224.9003416861425
 21
13.41608402528523
 31
0.0
  0
LINE
  5
275F
330
2203
100
AcDbEntity
  8
図面枠
100
AcDbLine
 10
234.6252691861415
 20
16.22257502528505
 30
0.0
 11
236.5903966861416
 21
13.41608402528523
 31
0.0
  0
LINE
  5
2760
330
2203
100
AcDbEntity
  8
図面枠
100
AcDbLine
 10
233.3055226861412
 20
16.22257502528505
 30
0.0
 11
231.3403966861416
 21
13.41608402528523
 31
0.0
  0
LINE
  5
2761
330
2203
100
AcDbEntity
  8
図面枠
100
AcDbLine
 10
230.6167036861417
 20
13.67858402528516
 30
0.0
 11
230.6167036861417
 21
16.56608402528509
 31
0.0
  0
LINE
  5
2762
330
2203
100
AcDbEntity
  8
図面枠
100
AcDbLine
 10
226.8555766861415
 20
16.49800502528542
 30
0.0
 11
230.1778321861422
 21
13.48416302528524
 31
0.0
  0
ARC
  5
2763
330
2203
100
AcDbEntity
  8
図面枠
100
AcDbCircle
 10
230.3542036861415
 20
13.67858402528516
 30
0.0
 40
0.2625
100
AcDbArc
 50
227.7867300000003
 51
0.0
  0
LINE
  5
2764
330
2203
100
AcDbEntity
  8
図面枠
100
AcDbLine
 10
233.9653966861416
 20
15.25412852528525
 30
0.0
 11
235.8390631861417
 21
16.56608402528509
 31
0.0
  0
ARC
  5
2765
330
2203
100
AcDbEntity
  8
図面枠
100
AcDbCircle
 10
233.9653966861416
 20
15.76052702528518
 30
0.0
 40
0.8055569999999999
100
AcDbArc
 50
34.99999999999984
 51
145.0000000000001
  0
ARC
  5
2766
330
2203
100
AcDbEntity
  8
図面枠
100
AcDbCircle
 10
239.557611186142
 20
14.20358402528536
 30
0.0
 40
0.7875000000000001
100
AcDbArc
 50
270.0
 51
51.39531799999993
  0
LINE
  5
2767
330
2203
100
AcDbEntity
  8
図面枠
100
AcDbLine
 10
240.8542036861414
 20
13.41608402528523
 30
0.0
 11
242.8193311861416
 21
16.22257502528505
 31
0.0
  0
LINE
  5
2768
330
2203
100
AcDbEntity
  8
図面枠
100
AcDbLine
 10
237.1792036861417
 20
16.56608402528509
 30
0.0
 11
237.1792036861417
 21
13.41608402528523
 31
0.0
  0
LINE
  5
2769
330
2203
100
AcDbEntity
  8
図面枠
100
AcDbLine
 10
237.1792036861417
 20
13.41608402528523
 30
0.0
 11
239.557611186142
 21
13.41608402528523
 31
0.0
  0
LINE
  5
276A
330
2203
100
AcDbEntity
  8
図面枠
100
AcDbLine
 10
239.557611186142
 20
16.56608402528509
 30
0.0
 11
237.1792036861417
 21
16.56608402528509
 31
0.0
  0
LINE
  5
276B
330
2203
100
AcDbEntity
  8
図面枠
100
AcDbLine
 10
238.754203686142
 20
14.99108402528516
 30
0.0
 11
239.557611186142
 21
14.99108402528516
 31
0.0
  0
ARC
  5
276C
330
2203
100
AcDbEntity
  8
図面枠
100
AcDbCircle
 10
239.557611186142
 20
15.7785840252853
 30
0.0
 40
0.7875000000000001
100
AcDbArc
 50
270.0
 51
90.0
  0
ARC
  5
276D
330
2203
100
AcDbEntity
  8
図面枠
100
AcDbCircle
 10
243.4792036861414
 20
15.76052702528518
 30
0.0
 40
0.8055569999999999
100
AcDbArc
 50
34.99999999999984
 51
145.0000000000001
  0
TEXT
  5
276E
330
2203
100
AcDbEntity
  8
図面枠
100
AcDbText
 10
247.5647041418997
 20
15.21551532138774
 30
0.0
 40
4.0
  1
株式会社 因幡電機製作所
 41
0.9789911996157989
  7
JX_FONT
 72
     5
 11
300.5607610811016
 21
15.21551532138774
 31
0.0
100
AcDbText
  0
TEXT
  5
276F
330
2203
100
AcDbEntity
  8
図面枠
100
AcDbText
 10
249.1644646134095
 20
10.32355232138771
 30
0.0
 40
2.0
  1
INABA ELECTRIC WORK CO., LTD.
 41
1.252231573578152
 72
     5
 11
298.2644646134089
 21
10.32355232138771
 31
0.0
100
AcDbText
  0
TEXT
  5
2770
330
2203
100
AcDbEntity
  8
図面枠
100
AcDbText
 10
307.0448633044352
 20
8.843123321387976
 30
0.0
 40
3.5
  1
mm
 41
1.073907801268937
 72
     5
 11
313.3829091794206
 21
8.843123321387976
 31
0.0
100
AcDbText
  0
LINE
  5
2771
330
2203
100
AcDbEntity
  8
図面枠
100
AcDbLine
 10
302.5529221794205
 20
17.57462332138785
 30
0.0
 11
317.5529221794207
 21
17.57462332138785
 31
0.0
  0
TEXT
  5
2772
330
2203
100
AcDbEntity
  8
図面枠
100
AcDbText
 10
308.6292161794209
 20
14.19967632138783
 30
0.0
 40
2.0
  1
UNITS
 41
1.194829028061642
 72
     5
 11
316.7292161794205
 21
14.19967632138783
 31
0.0
100
AcDbText
  0
TEXT
  5
2773
330
2203
100
AcDbEntity
  8
図面枠
100
AcDbText
 10
303.8064931794207
 20
14.19967632138783
 30
0.0
 40
2.5
  1
単位
 41
0.75
  7
JX_FONT
 72
     5
 11
307.8064931794207
 21
14.19967632138783
 31
0.0
100
AcDbText
  0
TEXT
  5
2774
330
2203
100
AcDbEntity
  8
図面枠
100
AcDbText
 10
244.5564931794207
 20
34.19967632138783
 30
0.0
 40
2.5
  1
検図
 41
0.7741935483870968
  7
JX_FONT
 72
     5
 11
248.5564931794207
 21
34.19967632138783
 31
0.0
100
AcDbText
  0
LINE
  5
2775
330
2203
100
AcDbEntity
  8
図面枠
100
AcDbLine
 10
302.5529221794205
 20
33.57462332138786
 30
0.0
 11
223.5529221794205
 21
33.57462332138786
 31
0.0
  0
LINE
  5
2776
330
2203
100
AcDbEntity
  8
図面枠
100
AcDbLine
 10
223.5529221794205
 20
22.57462332138786
 30
0.0
 11
302.5529221794205
 21
22.57462332138786
 31
0.0
  0
TEXT
  5
2777
330
2203
100
AcDbEntity
  8
図面枠
100
AcDbText
 10
224.8064931794207
 20
34.19967632138783
 30
0.0
 40
2.5
  1
承認
 41
0.75
  7
JX_FONT
 72
     5
 11
228.8064931794207
 21
34.19967632138783
 31
0.0
100
AcDbText
  0
LINE
  5
2778
330
2203
100
AcDbEntity
  8
図面枠
100
AcDbLine
 10
243.3029221794205
 20
22.57462332138786
 30
0.0
 11
243.3029221794205
 21
37.57462332138786
 31
0.0
  0
TEXT
  5
2779
330
2203
100
AcDbEntity
  8
図面枠
100
AcDbText
 10
229.4729194180687
 20
34.19967632138783
 30
0.0
 40
2.0
  1
APPROVED BY
 41
0.760648612716757
 72
     5
 11
242.6321404180686
 21
34.19967632138783
 31
0.0
100
AcDbText
  0
TEXT
  5
277A
330
2203
100
AcDbEntity
  8
図面枠
100
AcDbText
 10
269.1406179317272
 20
34.19967632138783
 30
0.0
 40
2.0
  1
DESIGNED BY
 41
0.8381669426751553
 72
     5
 11
282.2998389317271
 21
34.19967632138783
 31
0.0
100
AcDbText
  0
LINE
  5
277B
330
2203
100
AcDbEntity
  8
図面枠
100
AcDbLine
 10
263.0529221794205
 20
37.57462332138786
 30
0.0
 11
263.0529221794205
 21
22.57462332138786
 31
0.0
  0
TEXT
  5
277C
330
2203
100
AcDbEntity
  8
図面枠
100
AcDbText
 10
249.8937121794207
 20
34.19967632138783
 30
0.0
 40
2.0
  1
CHECKED BY
 41
0.8132514615907123
 72
     5
 11
261.8566411794201
 21
34.19967632138783
 31
0.0
100
AcDbText
  0
TEXT
  5
277D
330
2203
100
AcDbEntity
  8
図面枠
100
AcDbText
 10
264.3064931794207
 20
34.19967632138783
 30
0.0
 40
2.5
  1
設計
 41
0.75
  7
JX_FONT
 72
     5
 11
268.3064931794207
 21
34.19967632138783
 31
0.0
100
AcDbText
  0
TEXT
  5
277E
330
2203
100
AcDbEntity
  8
図面枠
100
AcDbText
 10
290.0040941794206
 20
34.19967632138783
 30
0.0
 40
2.0
  1
DRAWN BY
 41
0.9007633587786395
 72
     5
 11
301.8040941794208
 21
34.19967632138783
 31
0.0
100
AcDbText
  0
LINE
  5
277F
330
2203
100
AcDbEntity
  8
図面枠
100
AcDbLine
 10
282.8029221794206
 20
22.57462332138786
 30
0.0
 11
282.8029221794206
 21
37.57462332138786
 31
0.0
  0
TEXT
  5
2780
330
2203
100
AcDbEntity
  8
図面枠
100
AcDbText
 10
284.0564931794207
 20
34.19967632138783
 30
0.0
 40
2.5
  1
製図
 41
0.7741935483870968
  7
JX_FONT
 72
     5
 11
288.0564931794207
 21
34.19967632138783
 31
0.0
100
AcDbText
  0
LINE
  5
2781
330
2203
100
AcDbEntity
  8
図面枠
100
AcDbLine
 10
316.5529221794205
 20
34.94873132138784
 30
0.0
 11
316.5529221794205
 21
29.94873132138783
 31
0.0
  0
LINE
  5
2782
330
2203
100
AcDbEntity
  8
図面枠
100
AcDbLine
 10
310.5529221794205
 20
30.94873132138783
 30
0.0
 11
310.5529221794205
 21
33.94873132138783
 31
0.0
  0
CIRCLE
  5
2783
330
2203
100
AcDbEntity
  8
図面枠
100
AcDbCircle
 10
306.0529221794205
 20
32.44873132138784
 30
0.0
 40
2.5
  0
CIRCLE
  5
2784
330
2203
100
AcDbEntity
  8
図面枠
100
AcDbCircle
 10
306.0529221794205
 20
32.44873132138784
 30
0.0
 40
1.5
  0
LINE
  5
2785
330
2203
100
AcDbEntity
  8
図面枠
100
AcDbLine
 10
317.5529221794207
 20
27.57462332138786
 30
0.0
 11
302.5529221794205
 21
27.57462332138786
 31
0.0
  0
LINE
  5
2786
330
2203
100
AcDbEntity
  8
図面枠
100
AcDbLine
 10
316.9624321794211
 20
32.44873132138784
 30
0.0
 11
303.2491101794204
 21
32.44873132138784
 31
0.0
  0
TEXT
  5
2787
330
2203
100
AcDbEntity
  8
0
100
AcDbText
 10
308.6292161794209
 20
24.19967632138783
 30
0.0
 40
2.0
  1
SCALE
 41
1.109589041095839
 72
     5
 11
316.7292161794205
 21
24.19967632138783
 31
0.0
100
AcDbText
  0
TEXT
  5
2788
330
2203
100
AcDbEntity
  8
図面枠
100
AcDbText
 10
303.8064931794207
 20
24.19967632138783
 30
0.0
 40
2.5
  1
尺度
 41
0.75
  7
JX_FONT
 72
     5
 11
307.8064931794207
 21
24.19967632138783
 31
0.0
100
AcDbText
  0
LINE
  5
2789
330
2203
100
AcDbEntity
  8
図面枠
100
AcDbLine
 10
316.5529221794205
 20
29.94873132138783
 30
0.0
 11
310.5529221794205
 21
30.94873132138783
 31
0.0
  0
LINE
  5
278A
330
2203
100
AcDbEntity
  8
図面枠
100
AcDbLine
 10
310.5529221794205
 20
33.94873132138783
 30
0.0
 11
316.5529221794205
 21
34.94873132138784
 31
0.0
  0
TEXT
  5
278B
330
2203
100
AcDbEntity
  8
0
100
AcDbText
 10
368.1893971794208
 20
19.19967632138783
 30
0.0
 40
2.0
  1
MODEL
 41
1.213333333333282
 72
     5
 11
377.2893971794204
 21
19.19967632138783
 31
0.0
100
AcDbText
  0
TEXT
  5
278C
330
2203
100
AcDbEntity
  8
0
100
AcDbText
 10
358.5354661794212
 20
19.19967632138783
 30
0.0
 40
2.5
  1
型 式
 41
0.8780487804878049
  7
JX_FONT
 72
     5
 11
364.5354661794212
 21
19.19967632138783
 31
0.0
100
AcDbText
  0
TEXT
  5
278D
330
2203
100
AcDbEntity
  8
図面枠
100
AcDbText
 10
319.5354661794211
 20
19.19967632138783
 30
0.0
 40
2.5
  1
図面番号
 41
0.7058823529411765
  7
JX_FONT
 72
     5
 11
327.5354661794211
 21
19.19967632138783
 31
0.0
100
AcDbText
  0
TEXT
  5
278E
330
2203
100
AcDbEntity
  8
図面枠
100
AcDbText
 10
329.1893971794209
 20
19.19967632138783
 30
0.0
 40
2.0
  1
DRAWNING NO.
 41
1.156069306358364
 72
     5
 11
349.1893961794206
 21
19.19967632138783
 31
0.0
100
AcDbText
  0
LINE
  5
278F
330
2203
100
AcDbEntity
  8
図面枠
100
AcDbLine
 10
356.5529221794207
 20
22.57462332138786
 30
0.0
 11
356.5529221794207
 21
7.574623321387846
 31
0.0
  0
TEXT
  5
2790
330
2203
100
AcDbEntity
  8
図面枠
100
AcDbText
 10
324.8868451794208
 20
33.25460432138785
 30
0.0
 40
2.0
  1
TITLE
 41
0.8678571428570784
  7
JX_FONT
 72
     5
 11
332.9868451794202
 21
33.25460432138785
 31
0.0
100
AcDbText
  0
TEXT
  5
2791
330
2203
100
AcDbEntity
  8
図面枠
100
AcDbText
 10
319.5354661794211
 20
33.25460432138785
 30
0.0
 40
2.5
  1
名称
 41
0.75
  7
JX_FONT
 72
     5
 11
323.5354661794211
 21
33.25460432138785
 31
0.0
100
AcDbText
  0
ENDBLK
  5
2205
330
2203
100
AcDbEntity
  8
0
100
AcDbBlockEnd
  0
BLOCK
  5
317E
330
317D
100
AcDbEntity
  8
0
100
AcDbBlockBegin
  2
2014
 70
     0
 10
0.0
 20
0.0
 30
0.0
  3
2014
  1

  0
ENDBLK
  5
317F
330
317D
100
AcDbEntity
  8
0
100
AcDbBlockEnd
  0
BLOCK
  5
919A
330
9199
100
AcDbEntity
  8
0
100
AcDbBlockBegin
  2
*D3
 70
     1
 10
0.0
 20
0.0
 30
0.0
  3
*D3
  1

  0
LINE
  5
AE60
330
9199
100
AcDbEntity
  8
OBJECT1
 62
     1
440
 16777216
370
    -2
100
AcDbLine
 10
2846.066905340414
 20
913.733217482277
 30
0.0
 11
2812.919167277886
 21
913.7332174822772
 31
0.0
  0
LINE
  5
AE61
330
9199
100
AcDbEntity
  8
OBJECT1
 62
     1
440
 16777216
370
    -2
100
AcDbLine
 10
2846.066905340414
 20
983.7332174822773
 30
0.0
 11
2812.919167277886
 21
983.7332174822773
 31
0.0
  0
LINE
  5
AE62
330
9199
100
AcDbEntity
  8
OBJECT1
 62
     1
440
 16777216
370
    -2
100
AcDbLine
 10
2817.919167277887
 20
923.7332174822768
 30
0.0
 11
2817.919167277887
 21
973.7332174822768
 31
0.0
  0
INSERT
  5
AE63
330
9199
100
AcDbEntity
  8
OBJECT1
 62
     1
440
 16777216
370
    -2
100
AcDbBlockReference
  2
_OPEN
 10
2817.919167277887
 20
913.733217482277
 30
0.0
 41
10.0
 42
10.0
 43
10.0
 50
270.0
  0
INSERT
  5
AE64
330
9199
100
AcDbEntity
  8
OBJECT1
 62
     1
440
 16777216
370
    -2
100
AcDbBlockReference
  2
_OPEN
 10
2817.919167277887
 20
983.7332174822773
 30
0.0
 41
10.0
 42
10.0
 43
10.0
 50
90.0
  0
MTEXT
  5
AE65
330
9199
100
AcDbEntity
  8
OBJECT1
 62
     2
440
 16777216
100
AcDbMText
 10
2807.319167277886
 20
948.7332174822777
 30
0.0
 40
12.0
 41
0.0
 46
0.0
 71
     5
 72
     1
  1
\A1;70(挿入長)
 11
0.0000000000000001
 21
1.0
 31
0.0
 73
     1
 44
1.0
  0
POINT
  5
AE66
330
9199
100
AcDbEntity
  8
DEFPOINTS
 62
     0
440
 16777216
100
AcDbPoint
 10
2851.066905340413
 20
913.733217482277
 30
0.0
  0
POINT
  5
AE67
330
9199
100
AcDbEntity
  8
DEFPOINTS
 62
     0
440
 16777216
100
AcDbPoint
 10
2851.066905340413
 20
983.7332174822773
 30
0.0
  0
POINT
  5
AE68
330
9199
100
AcDbEntity
  8
DEFPOINTS
 62
     0
440
 16777216
100
AcDbPoint
 10
2817.919167277887
 20
983.7332174822773
 30
0.0
  0
ENDBLK
  5
919B
330
9199
100
AcDbEntity
  8
0
100
AcDbBlockEnd
  0
BLOCK
  5
91A6
330
91A5
100
AcDbEntity
  8
0
100
AcDbBlockBegin
  2
*D4
 70
     1
 10
0.0
 20
0.0
 30
0.0
  3
*D4
  1

  0
LINE
  5
91EC
330
91A5
100
AcDbEntity
  8
OBJECT1
 62
     1
440
 16777216
370
    -2
100
AcDbLine
 10
2851.066905340413
 20
988.733217482277
 30
0.0
 11
2851.066905340413
 21
1015.517625425143
 31
0.0
  0
LINE
  5
91ED
330
91A5
100
AcDbEntity
  8
OBJECT1
 62
     1
440
 16777216
370
    -2
100
AcDbLine
 10
2927.366905340414
 20
988.733217482277
 30
0.0
 11
2927.366905340414
 21
1015.517625425143
 31
0.0
  0
LINE
  5
91EE
330
91A5
100
AcDbEntity
  8
OBJECT1
 62
     1
440
 16777216
370
    -2
100
AcDbLine
 10
2861.066905340414
 20
1010.517625425143
 30
0.0
 11
2917.366905340414
 21
1010.517625425143
 31
0.0
  0
INSERT
  5
91EF
330
91A5
100
AcDbEntity
  8
OBJECT1
 62
     1
440
 16777216
370
    -2
100
AcDbBlockReference
  2
_OPEN
 10
2851.066905340413
 20
1010.517625425143
 30
0.0
 41
10.0
 42
10.0
 43
10.0
 50
180.0
  0
INSERT
  5
91F0
330
91A5
100
AcDbEntity
  8
OBJECT1
 62
     1
440
 16777216
370
    -2
100
AcDbBlockReference
  2
_OPEN
 10
2927.366905340414
 20
1010.517625425143
 30
0.0
 41
10.0
 42
10.0
 43
10.0
  0
MTEXT
  5
91F1
330
91A5
100
AcDbEntity
  8
OBJECT1
 62
     2
440
 16777216
100
AcDbMText
 10
2889.216905340413
 20
1020.518806527506
 30
0.0
 40
12.0
 41
0.0
 46
0.0
 71
     5
 72
     1
  1
\A1;φ76.3xt2.8
 73
     1
 44
1.0
  0
POINT
  5
91F2
330
91A5
100
AcDbEntity
  8
DEFPOINTS
 62
     0
440
 16777216
100
AcDbPoint
 10
2851.066905340413
 20
983.7332174822773
 30
0.0
  0
POINT
  5
91F3
330
91A5
100
AcDbEntity
  8
DEFPOINTS
 62
     0
440
 16777216
100
AcDbPoint
 10
2927.366905340414
 20
983.7332174822773
 30
0.0
  0
POINT
  5
91F4
330
91A5
100
AcDbEntity
  8
DEFPOINTS
 62
     0
440
 16777216
100
AcDbPoint
 10
2927.366905340414
 20
1010.517625425143
 30
0.0
  0
ENDBLK
  5
91A7
330
91A5
100
AcDbEntity
  8
0
100
AcDbBlockEnd
  0
BLOCK
  5
BBC6
330
BBC5
100
AcDbEntity
  8
0
100
AcDbBlockBegin
  2
*D5
 70
     1
 10
0.0
 20
0.0
 30
0.0
  3
*D5
  1

  0
LINE
  5
BC90
330
BBC5
100
AcDbEntity
  8
OBJECT1
 62
     1
440
 16777216
370
    -2
100
AcDbLine
 10
3114.354793266058
 20
530.7601221830573
 30
0.0
 11
2982.280169520695
 21
530.7601221830573
 31
0.0
  0
LINE
  5
BC91
330
BBC5
100
AcDbEntity
  8
OBJECT1
 62
     1
440
 16777216
370
    -2
100
AcDbLine
 10
3196.534999565058
 20
879.074005191474
 30
0.0
 11
2982.280169520695
 21
879.074005191474
 31
0.0
  0
LINE
  5
BC92
330
BBC5
100
AcDbEntity
  8
OBJECT1
 62
     1
440
 16777216
370
    -2
100
AcDbLine
 10
2987.280169520694
 20
540.7601221830573
 30
0.0
 11
2987.280169520694
 21
869.074005191474
 31
0.0
  0
INSERT
  5
BC93
330
BBC5
100
AcDbEntity
  8
OBJECT1
 62
     1
440
 16777216
370
    -2
100
AcDbBlockReference
  2
_OPEN
 10
2987.280169520694
 20
530.7601221830573
 30
0.0
 41
10.0
 42
10.0
 43
10.0
 50
270.0
  0
INSERT
  5
BC94
330
BBC5
100
AcDbEntity
  8
OBJECT1
 62
     1
440
 16777216
370
    -2
100
AcDbBlockReference
  2
_OPEN
 10
2987.280169520694
 20
879.074005191474
 30
0.0
 41
10.0
 42
10.0
 43
10.0
 50
90.0
  0
MTEXT
  5
BC95
330
BBC5
100
AcDbEntity
  8
OBJECT1
 62
     2
440
 16777216
100
AcDbMText
 10
2977.280169520696
 20
704.9170636872661
 30
0.0
 40
12.0
 41
0.0
 46
0.0
 71
     5
 72
     1
  1
\A1;348
 11
0.0000000000000001
 21
1.0
 31
0.0
 73
     1
 44
1.0
  0
POINT
  5
BC96
330
BBC5
100
AcDbEntity
  8
DEFPOINTS
 62
     0
440
 16777216
100
AcDbPoint
 10
3119.354793266058
 20
530.7601221830573
 30
0.0
  0
POINT
  5
BC97
330
BBC5
100
AcDbEntity
  8
DEFPOINTS
 62
     0
440
 16777216
100
AcDbPoint
 10
3201.534999565057
 20
879.074005191474
 30
0.0
  0
POINT
  5
BC98
330
BBC5
100
AcDbEntity
  8
DEFPOINTS
 62
     0
440
 16777216
100
AcDbPoint
 10
2987.280169520694
 20
879.074005191474
 30
0.0
  0
ENDBLK
  5
BBC7
330
BBC5
100
AcDbEntity
  8
0
100
AcDbBlockEnd
  0
BLOCK
  5
BBD2
330
BBD1
100
AcDbEntity
  8
0
100
AcDbBlockBegin
  2
*D6
 70
     1
 10
0.0
 20
0.0
 30
0.0
  3
*D6
  1

  0
LINE
  5
BC99
330
BBD1
100
AcDbEntity
  8
OBJECT1
 62
     1
440
 16777216
370
    -2
100
AcDbLine
 10
3163.384999565057
 20
252.3827115139372
 30
0.0
 11
3163.384999565057
 21
227.0835424388956
 31
0.0
  0
LINE
  5
BC9A
330
BBD1
100
AcDbEntity
  8
OBJECT1
 62
     1
440
 16777216
370
    -2
100
AcDbLine
 10
3239.684999565059
 20
252.3827115139372
 30
0.0
 11
3239.684999565059
 21
227.0835424388956
 31
0.0
  0
LINE
  5
BC9B
330
BBD1
100
AcDbEntity
  8
OBJECT1
 62
     1
440
 16777216
370
    -2
100
AcDbLine
 10
3153.384999565057
 20
232.0835424388956
 30
0.0
 11
3143.384999565058
 21
232.0835424388956
 31
0.0
  0
LINE
  5
BC9C
330
BBD1
100
AcDbEntity
  8
OBJECT1
 62
     1
440
 16777216
370
    -2
100
AcDbLine
 10
3249.684999565057
 20
232.0835424388956
 30
0.0
 11
3427.884999565057
 21
232.0835424388956
 31
0.0
  0
LINE
  5
BC9D
330
BBD1
100
AcDbEntity
  8
OBJECT1
 62
     1
440
 16777216
370
    -2
100
AcDbLine
 10
3163.384999565057
 20
232.0835424388956
 30
0.0
 11
3239.684999565059
 21
232.0835424388956
 31
0.0
  0
INSERT
  5
BC9E
330
BBD1
100
AcDbEntity
  8
OBJECT1
 62
     1
440
 16777216
370
    -2
100
AcDbBlockReference
  2
_OPEN
 10
3163.384999565057
 20
232.0835424388956
 30
0.0
 41
10.0
 42
10.0
 43
10.0
  0
INSERT
  5
BC9F
330
BBD1
100
AcDbEntity
  8
OBJECT1
 62
     1
440
 16777216
370
    -2
100
AcDbBlockReference
  2
_OPEN
 10
3239.684999565059
 20
232.0835424388956
 30
0.0
 41
10.0
 42
10.0
 43
10.0
 50
180.0
  0
MTEXT
  5
BCA0
330
BBD1
100
AcDbEntity
  8
OBJECT1
 62
     2
440
 16777216
100
AcDbMText
 10
3343.784999565058
 20
242.0847235412578
 30
0.0
 40
12.0
 41
0.0
 46
0.0
 71
     5
 72
     1
  1
\A1;適合ポール：%%c76.3xt2.8
 73
     1
 44
1.0
  0
POINT
  5
BCA1
330
BBD1
100
AcDbEntity
  8
DEFPOINTS
 62
     0
440
 16777216
100
AcDbPoint
 10
3163.384999565057
 20
257.3827115139372
 30
0.0
  0
POINT
  5
BCA2
330
BBD1
100
AcDbEntity
  8
DEFPOINTS
 62
     0
440
 16777216
100
AcDbPoint
 10
3239.684999565059
 20
257.3827115139372
 30
0.0
  0
POINT
  5
BCA3
330
BBD1
100
AcDbEntity
  8
DEFPOINTS
 62
     0
440
 16777216
100
AcDbPoint
 10
3239.684999565059
 20
232.0835424388956
 30
0.0
  0
ENDBLK
  5
BBD3
330
BBD1
100
AcDbEntity
  8
0
100
AcDbBlockEnd
  0
BLOCK
  5
BBE0
330
BBDF
100
AcDbEntity
  8
0
100
AcDbBlockBegin
  2
*D7
 70
     1
 10
0.0
 20
0.0
 30
0.0
  3
*D7
  1

  0
LINE
  5
BCA4
330
BBDF
100
AcDbEntity
  8
OBJECT1
 62
     1
440
 16777216
370
    -2
100
AcDbLine
 10
3288.715205864058
 20
530.7601221830545
 30
0.0
 11
3367.46819136266
 21
530.7601221830545
 31
0.0
  0
LINE
  5
BCA5
330
BBDF
100
AcDbEntity
  8
OBJECT1
 62
     1
440
 16777216
370
    -2
100
AcDbLine
 10
3244.684999565058
 20
601.5402837324939
 30
0.0
 11
3367.46819136266
 21
601.5402837324938
 31
0.0
  0
LINE
  5
BCA6
330
BBDF
100
AcDbEntity
  8
OBJECT1
 62
     1
440
 16777216
370
    -2
100
AcDbLine
 10
3362.468191362658
 20
540.7601221830542
 30
0.0
 11
3362.468191362658
 21
591.5402837324937
 31
0.0
  0
INSERT
  5
BCA7
330
BBDF
100
AcDbEntity
  8
OBJECT1
 62
     1
440
 16777216
370
    -2
100
AcDbBlockReference
  2
_OPEN
 10
3362.468191362658
 20
530.7601221830545
 30
0.0
 41
10.0
 42
10.0
 43
10.0
 50
270.0
  0
INSERT
  5
BCA8
330
BBDF
100
AcDbEntity
  8
OBJECT1
 62
     1
440
 16777216
370
    -2
100
AcDbBlockReference
  2
_OPEN
 10
3362.468191362658
 20
601.5402837324938
 30
0.0
 41
10.0
 42
10.0
 43
10.0
 50
90.0
  0
MTEXT
  5
BCA9
330
BBDF
100
AcDbEntity
  8
OBJECT1
 62
     2
440
 16777216
100
AcDbMText
 10
3352.468191362658
 20
566.1502029577746
 30
0.0
 40
12.0
 41
0.0
 46
0.0
 71
     5
 72
     1
  1
\A1;70
 11
0.0000000000000001
 21
1.0
 31
0.0
 73
     1
 44
1.0
  0
POINT
  5
BCAA
330
BBDF
100
AcDbEntity
  8
DEFPOINTS
 62
     0
440
 16777216
100
AcDbPoint
 10
3283.715205864059
 20
530.7601221830545
 30
0.0
  0
POINT
  5
BCAB
330
BBDF
100
AcDbEntity
  8
DEFPOINTS
 62
     0
440
 16777216
100
AcDbPoint
 10
3239.684999565059
 20
601.5402837324939
 30
0.0
  0
POINT
  5
BCAC
330
BBDF
100
AcDbEntity
  8
DEFPOINTS
 62
     0
440
 16777216
100
AcDbPoint
 10
3362.468191362658
 20
601.5402837324938
 30
0.0
  0
ENDBLK
  5
BBE1
330
BBDF
100
AcDbEntity
  8
0
100
AcDbBlockEnd
  0
BLOCK
  5
BBEC
330
BBEB
100
AcDbEntity
  8
0
100
AcDbBlockBegin
  2
*D8
 70
     1
 10
0.0
 20
0.0
 30
0.0
  3
*D8
  1

  0
LINE
  5
BCAD
330
BBEB
100
AcDbEntity
  8
OBJECT1
 62
     1
440
 16777216
370
    -2
100
AcDbLine
 10
3026.534999565058
 20
709.074005191474
 30
0.0
 11
3026.534999565058
 21
935.3622686151179
 31
0.0
  0
LINE
  5
BCAE
330
BBEB
100
AcDbEntity
  8
OBJECT1
 62
     1
440
 16777216
370
    -2
100
AcDbLine
 10
3376.534999565058
 20
709.074005191474
 30
0.0
 11
3376.534999565058
 21
935.3622686151179
 31
0.0
  0
LINE
  5
BCAF
330
BBEB
100
AcDbEntity
  8
OBJECT1
 62
     1
440
 16777216
370
    -2
100
AcDbLine
 10
3036.534999565058
 20
930.3622686151179
 30
0.0
 11
3366.534999565058
 21
930.3622686151179
 31
0.0
  0
INSERT
  5
BCB0
330
BBEB
100
AcDbEntity
  8
OBJECT1
 62
     1
440
 16777216
370
    -2
100
AcDbBlockReference
  2
_OPEN
 10
3026.534999565058
 20
930.3622686151179
 30
0.0
 41
10.0
 42
10.0
 43
10.0
 50
180.0
  0
INSERT
  5
BCB1
330
BBEB
100
AcDbEntity
  8
OBJECT1
 62
     1
440
 16777216
370
    -2
100
AcDbBlockReference
  2
_OPEN
 10
3376.534999565058
 20
930.3622686151179
 30
0.0
 41
10.0
 42
10.0
 43
10.0
  0
MTEXT
  5
BCB2
330
BBEB
100
AcDbEntity
  8
OBJECT1
 62
     2
440
 16777216
100
AcDbMText
 10
3201.534999565057
 20
940.3622686151178
 30
0.0
 40
12.0
 41
0.0
 46
0.0
 71
     5
 72
     1
  1
\A1;%%c350
 73
     1
 44
1.0
  0
POINT
  5
BCB3
330
BBEB
100
AcDbEntity
  8
DEFPOINTS
 62
     0
440
 16777216
100
AcDbPoint
 10
3026.534999565058
 20
704.074005191474
 30
0.0
  0
POINT
  5
BCB4
330
BBEB
100
AcDbEntity
  8
DEFPOINTS
 62
     0
440
 16777216
100
AcDbPoint
 10
3376.534999565058
 20
704.074005191474
 30
0.0
  0
POINT
  5
BCB5
330
BBEB
100
AcDbEntity
  8
DEFPOINTS
 62
     0
440
 16777216
100
AcDbPoint
 10
3376.534999565058
 20
930.3622686151179
 30
0.0
  0
ENDBLK
  5
BBED
330
BBEB
100
AcDbEntity
  8
0
100
AcDbBlockEnd
  0
BLOCK
  5
BBF8
330
BBF7
100
AcDbEntity
  8
0
100
AcDbBlockBegin
  2
*D9
 70
     1
 10
0.0
 20
0.0
 30
0.0
  3
*D9
  1

  0
LINE
  5
BCB6
330
BBF7
100
AcDbEntity
  8
OBJECT1
 62
     1
440
 16777216
370
    -2
100
AcDbLine
 10
3172.534999565058
 20
296.7602827324956
 30
0.0
 11
2982.280169520695
 21
296.7602827324956
 31
0.0
  0
LINE
  5
BCB7
330
BBF7
100
AcDbEntity
  8
OBJECT1
 62
     1
440
 16777216
370
    -2
100
AcDbLine
 10
3095.961650264244
 20
530.7601221830573
 30
0.0
 11
2982.280169520695
 21
530.7601221830573
 31
0.0
  0
LINE
  5
BCB8
330
BBF7
100
AcDbEntity
  8
OBJECT1
 62
     1
440
 16777216
370
    -2
100
AcDbLine
 10
2987.280169520694
 20
306.7602827324956
 30
0.0
 11
2987.280169520694
 21
520.7601221830572
 31
0.0
  0
INSERT
  5
BCB9
330
BBF7
100
AcDbEntity
  8
OBJECT1
 62
     1
440
 16777216
370
    -2
100
AcDbBlockReference
  2
_OPEN
 10
2987.280169520694
 20
296.7602827324956
 30
0.0
 41
10.0
 42
10.0
 43
10.0
 50
270.0
  0
INSERT
  5
BCBA
330
BBF7
100
AcDbEntity
  8
OBJECT1
 62
     1
440
 16777216
370
    -2
100
AcDbBlockReference
  2
_OPEN
 10
2987.280169520694
 20
530.7601221830573
 30
0.0
 41
10.0
 42
10.0
 43
10.0
 50
90.0
  0
MTEXT
  5
BCBB
330
BBF7
100
AcDbEntity
  8
OBJECT1
 62
     2
440
 16777216
100
AcDbMText
 10
2977.278988418332
 20
413.760202457777
 30
0.0
 40
12.0
 41
0.0
 46
0.0
 71
     5
 72
     1
  1
\A1;234
 11
0.0000000000000001
 21
1.0
 31
0.0
 73
     1
 44
1.0
  0
POINT
  5
BCBC
330
BBF7
100
AcDbEntity
  8
DEFPOINTS
 62
     0
440
 16777216
100
AcDbPoint
 10
3177.534999565058
 20
296.7602827324956
 30
0.0
  0
POINT
  5
BCBD
330
BBF7
100
AcDbEntity
  8
DEFPOINTS
 62
     0
440
 16777216
100
AcDbPoint
 10
3100.961650264244
 20
530.7601221830573
 30
0.0
  0
POINT
  5
BCBE
330
BBF7
100
AcDbEntity
  8
DEFPOINTS
 62
     0
440
 16777216
100
AcDbPoint
 10
2987.280169520694
 20
530.7601221830573
 30
0.0
  0
ENDBLK
  5
BBF9
330
BBF7
100
AcDbEntity
  8
0
100
AcDbBlockEnd
  0
ENDSEC
  0
SECTION
  2
ENTITIES
  0
INSERT
  5
37F7
330
18
100
AcDbEntity
  8
OBJECT1
100
AcDbBlockReference
  2
2014
 10
304.272392369779
 20
276.310311956832
 30
-0.00152582
  0
LWPOLYLINE
  5
9A0E
330
18
100
AcDbEntity
  8
OBJECT
370
    15
100
AcDbPolyline
 90
       30
 70
   128
 43
0.0
 10
4194.254938571368
 20
902.2891797707867
 10
4194.032866043188
 20
902.3577039603567
 10
4192.206156757733
 20
903.0134570969114
 10
4190.457651373863
 20
903.7367762238453
 10
4188.794837260064
 20
904.5245639776103
 10
4187.224834841654
 20
905.3734469301025
 10
4185.754367110017
 20
906.2797900341955
 10
4184.389730833735
 20
907.2397121895731
 10
4183.136769594838
 20
908.2491028621971
 10
4182.000848765716
 20
909.3036396862423
 10
4180.986832533744
 20
910.3988069731324
 10
4180.099063072107
 20
911.5299150484123
 10
4179.341341945927
 20
912.6921203336522
 10
4178.7169138334
 20
913.8804460873965
 10
4178.228452631564
 20
915.0898037163315
 10
4177.878050006275
 20
916.3150145654274
 10
4177.667206435368
 20
917.5508320937295
 10
4177.596824783388
 20
918.7919643408561
 10
4177.667206435368
 20
920.0330965879823
 10
4177.878050006275
 20
921.2689141162847
 10
4178.228452631564
 20
922.4941249653799
 10
4178.716913833401
 20
923.7034825943153
 10
4179.341341945929
 20
924.8918083480594
 10
4180.099063072107
 20
926.0540136332993
 10
4180.986832533744
 20
927.1851217085792
 10
4182.000848765716
 20
928.2802889954691
 10
4183.136769594839
 20
929.3348258195143
 10
4184.389730833735
 20
930.3442164921381
 10
4185.754367110019
 20
931.3041386475159
 10
4187.224834841654
 20
932.2104817516088
  0
LWPOLYLINE
  5
9A0F
330
18
100
AcDbEntity
  8
OBJECT
370
    15
100
AcDbPolyline
 90
       12
 70
   128
 43
0.0
 10
4177.092946762317
 20
922.0497881170835
 10
4177.250408421762
 20
922.8188966622493
 10
4177.61792946634
 20
924.054625573801
 10
4178.123238928491
 20
925.2740295203967
 10
4178.764217364718
 20
926.4719938981119
 10
4179.538176288704
 20
927.6434940280248
 10
4180.441869447755
 20
928.7836162314643
 10
4181.471506438703
 20
929.887578439691
 10
4182.622768606186
 20
930.9507502515472
 10
4183.89082715658
 20
931.9686723549768
 10
4185.270363411645
 20
932.9370752309253
 10
4186.755591116905
 20
933.8518970611859
  0
LWPOLYLINE
  5
9A10
330
18
100
AcDbEntity
  8
OBJECT
370
    15
100
AcDbPolyline
 90
       12
 70
   128
 43
0.0
 10
4177.388995451518
 20
921.0737188156944
 10
4177.489173334298
 20
921.5610308821966
 10
4177.843756991266
 20
922.8008610434855
 10
4178.338046550571
 20
924.0246488227445
 10
4178.96992538844
 20
925.2271537728235
 10
4179.736687702678
 20
926.4032265829147
 10
4180.635050099339
 20
927.5478311286907
 10
4181.661165652726
 20
928.6560660377643
 10
4182.810640378502
 20
929.7231856781147
 10
4184.078552049423
 20
930.7446204796155
 10
4185.459471273062
 20
931.7159965016333
 10
4186.947484741298
 20
932.6331541629119
  0
ARC
  5
9A11
330
18
100
AcDbEntity
  8
OBJECT
370
    15
100
AcDbCircle
 10
4192.587186940401
 20
921.0054403744031
 30
0.0
 40
17.31275516475459
100
AcDbArc
 50
137.7151769415393
 51
148.7517124734198
  0
LWPOLYLINE
  5
9A12
330
18
100
AcDbEntity
  8
OBJECT
370
    15
100
AcDbPolyline
 90
       11
 70
   128
 43
0.0
 10
4180.952588003498
 20
910.1991971259456
 10
4180.635050099339
 20
910.5612207658653
 10
4179.736687702678
 20
911.7058253116411
 10
4178.96992538844
 20
912.8818981217323
 10
4178.338046550571
 20
914.0844030718117
 10
4177.843756991266
 20
915.3081908510705
 10
4177.489173334298
 20
916.5480210123593
 10
4177.275813961325
 20
917.7985844125853
 10
4177.204592509939
 20
919.0545259472779
 10
4177.275813961325
 20
920.3104674819709
 10
4177.388995451518
 20
921.0737188156944
  0
ARC
  5
9A13
330
18
100
AcDbEntity
  8
OBJECT
370
    15
100
AcDbCircle
 10
4192.208831203148
 20
922.7228823375352
 30
0.0
 40
16.99754967341973
100
AcDbArc
 50
195.5710747698161
 51
232.0750214251408
  0
LWPOLYLINE
  5
9A14
330
18
100
AcDbEntity
  8
OBJECT
370
    15
100
AcDbPolyline
 90
       19
 70
   128
 43
0.0
 10
4178.232091257933
 20
914.3185731736123
 10
4178.218560646373
 20
914.3424295273742
 10
4177.604166753392
 20
915.5603080370303
 10
4177.127619003583
 20
916.7985909481702
 10
4176.790916203818
 20
918.0520844719312
 10
4176.59547060265
 20
919.315531020856
 10
4176.542101966859
 20
920.5836312610379
 10
4176.631034143045
 20
921.8510663393743
 10
4176.861894118755
 20
923.1125201926824
 10
4177.233713587024
 20
924.3627018451144
 10
4177.744933007783
 20
925.5963676003515
 10
4178.393408149122
 20
926.8083430354867
 10
4179.176419080937
 20
927.9935447043543
 10
4180.090681583266
 20
929.1470014592688
 10
4181.132360921441
 20
930.2638753017442
 10
4182.297087930312
 20
931.3394816747447
 10
4183.579977340031
 20
932.3693091113423
 10
4184.975648266578
 20
933.3490381573779
 10
4186.478246781059
 20
934.2745594887519
  0
LWPOLYLINE
  5
9A15
330
18
100
AcDbEntity
  8
OBJECT
370
    15
100
AcDbPolyline
 90
       20
 70
   128
 43
0.0
 10
4179.426285781501
 20
912.1543006172448
 10
4178.576754598692
 20
913.3125635548568
 10
4177.852902285724
 20
914.5067703927445
 10
4177.263076133487
 20
915.7252966944232
 10
4176.809699864153
 20
916.9631352739463
 10
4176.494636498062
 20
918.2151995870752
 10
4176.319180698166
 20
919.4763446329796
 10
4176.284053449982
 20
920.7413880961514
 10
4176.38939909891
 20
922.0051316416499
 10
4176.634784757077
 20
923.2623822761739
 10
4177.019202082186
 20
924.5079736871872
 10
4177.541071420985
 20
925.7367874724035
 10
4178.198248300421
 20
926.9437741723994
 10
4178.988032239733
 20
928.1239740199263
 10
4179.907177847307
 20
929.2725373206597
 10
4180.951908156685
 20
930.3847443816296
 10
4182.117930146931
 20
931.4560249054553
 10
4183.400452383577
 20
932.481976770676
 10
4184.794204707652
 20
933.4583841210113
 10
4186.293459891898
 20
934.3812346892192
  0
LWPOLYLINE
  5
9A16
330
18
100
AcDbEntity
  8
OBJECT
370
    15
100
AcDbPolyline
 90
       12
 70
   128
 43
0.0
 10
4175.662887837282
 20
923.1240544559121
 10
4175.876666092802
 20
924.0942736472712
 10
4176.279543493182
 20
925.3547221588483
 10
4176.820089394698
 20
926.5978820872883
 10
4177.496127209796
 20
927.8187476663257
 10
4178.304934772788
 20
929.0124029011696
 10
4179.243255301087
 20
930.1740413634835
 10
4180.307310509099
 20
931.2989855451723
 10
4181.492815822051
 20
932.3827056930584
 10
4182.794997628466
 20
933.4208380485986
 10
4184.208612501808
 20
934.4092024191988
 10
4185.727968313903
 20
935.3438190103762
  0
LWPOLYLINE
  5
9A17
330
18
100
AcDbEntity
  8
OBJECT
370
    15
100
AcDbPolyline
 90
       14
 70
   128
 43
0.0
 10
4175.47491207008
 20
921.0306372006476
 10
4175.478819488726
 20
921.8857290818156
 10
4175.602092869776
 20
923.1658828152971
 10
4175.865762606522
 20
924.4389456721304
 10
4176.268766993997
 20
925.6997914775093
 10
4176.809483275769
 20
926.9433432503847
 10
4177.485734178215
 20
928.1645936466707
 10
4178.294796677628
 20
929.3586251220542
 10
4179.23341296488
 20
930.5206297332093
 10
4180.297803563457
 20
931.6459284976891
 10
4181.48368254809
 20
932.7299902345371
 10
4182.786274802657
 20
933.7684498097512
 10
4184.200335247889
 20
934.75712571314
 10
4185.720169961458
 20
935.6920368957871
  0
LWPOLYLINE
  5
9A18
330
18
100
AcDbEntity
  8
OBJECT
370
    15
100
AcDbPolyline
 90
       14
 70
   128
 43
0.0
 10
4175.489770418013
 20
922.242456381784
 10
4175.478819488726
 20
923.4208258081606
 10
4175.602092869776
 20
924.700979541642
 10
4175.865762606522
 20
925.974042398475
 10
4176.268766993997
 20
927.2348882038546
 10
4176.809483275769
 20
928.4784399767302
 10
4177.485734178215
 20
929.699690373016
 10
4178.294796677628
 20
930.8937218483992
 10
4179.23341296488
 20
932.0557264595542
 10
4180.297803563457
 20
933.1810252240344
 10
4181.48368254809
 20
934.2650869608824
 10
4182.786274802657
 20
935.3035465360962
 10
4184.200335247889
 20
936.2922224394852
 10
4185.720169961458
 20
937.2271336221324
  0
LWPOLYLINE
  5
9A19
330
18
100
AcDbEntity
  8
OBJECT
370
    15
100
AcDbPolyline
 90
        9
 70
   128
 43
0.0
 10
4176.974396431801
 20
928.4976317088073
 10
4177.525470306378
 20
929.471465093755
 10
4178.333558096325
 20
930.6640580723763
 10
4179.271043595554
 20
931.8246627707948
 10
4180.334151880841
 20
932.9486058435172
 10
4181.518602190339
 20
934.0313615684801
 10
4182.819625160695
 20
935.0685700705296
 10
4184.231982031596
 20
936.0560548771044
 10
4185.749985740407
 20
936.9898397354159
  0
LWPOLYLINE
  5
9A1A
330
18
100
AcDbEntity
  8
OBJECT
370
    15
100
AcDbPolyline
 90
       10
 70
   128
 43
0.0
 10
4185.832747783114
 20
937.164483787175
 10
4185.058349855941
 20
936.7029809637953
 10
4183.658213482301
 20
935.7876729618828
 10
4182.35464059321
 20
934.8239876264067
 10
4181.152757355885
 20
933.8154420600146
 10
4180.057127549967
 20
932.7656152112393
 10
4179.071969915967
 20
931.6783097514868
 10
4178.201122290604
 20
930.5575644767056
 10
4177.447991650612
 20
929.4076581212426
 10
4177.015628075897
 20
928.604750196189
  0
ARC
  5
9A1B
330
18
100
AcDbEntity
  8
OBJECT
370
    15
100
AcDbCircle
 10
4210.468907302987
 20
975.3991078379614
 30
0.0
 40
70.0
100
AcDbArc
 50
0.0
 51
242.2977520477355
  0
LINE
  5
9A26
330
18
100
AcDbEntity
  8
OBJECT
370
    15
100
AcDbLine
 10
4177.270150452392
 20
917.4250712881447
 30
0.0
 11
4177.538802450597
 21
916.3392580531095
 31
0.0
  0
ARC
  5
9A27
330
18
100
AcDbEntity
  8
OBJECT
370
    15
100
AcDbCircle
 10
4188.195975653502
 20
920.1594657296494
 30
0.0
 40
11.26279580241746
100
AcDbArc
 50
170.3378745791745
 51
194.0507440229161
  0
ARC
  5
9A28
330
18
100
AcDbEntity
  8
OBJECT
370
    15
100
AcDbCircle
 10
4187.229092009465
 20
921.0585104533315
 30
0.0
 40
11.74919363102016
100
AcDbArc
 50
169.8746063277291
 51
193.7450160541908
  0
LINE
  5
9A29
330
18
100
AcDbEntity
  8
OBJECT
370
    15
100
AcDbLine
 10
4175.517062773077
 20
923.0934693628043
 30
0.0
 11
4175.474904118712
 21
921.7789048248075
 31
0.0
  0
LINE
  5
9A2A
330
18
100
AcDbEntity
  8
OBJECT
370
    15
100
AcDbLine
 10
4175.47491207008
 20
921.0306372006476
 30
0.0
 11
4175.485938713761
 21
920.6870391372735
 31
0.0
  0
ARC
  5
9A2B
330
18
100
AcDbEntity
  8
OBJECT
370
    15
100
AcDbCircle
 10
4188.07681984587
 20
922.6050753192478
 30
0.0
 40
12.56924924048452
100
AcDbArc
 50
152.0430933387295
 51
177.773139575387
  0
LINE
  5
9A2C
330
18
100
AcDbEntity
  8
OBJECT
370
    15
100
AcDbLine
 10
4175.468907302986
 20
925.8989517955734
 30
0.0
 11
4175.468907302986
 21
922.9399916652353
 31
0.0
  0
LINE
  5
9A2D
330
18
100
AcDbEntity
  8
OBJECT1
100
AcDbLine
 10
4194.254938571368
 20
925.9084080510213
 30
0.0
 11
4194.254938571368
 21
873.9756167225761
 31
0.0
  0
LINE
  5
9A2E
330
18
100
AcDbEntity
  8
OBJECT1
100
AcDbLine
 10
4226.6917926155
 20
925.6888921361598
 30
0.0
 11
4226.6917926155
 21
873.9756167225763
 31
0.0
  0
SPLINE
  5
9A40
330
18
100
AcDbEntity
  8
OBJECT1
100
AcDbSpline
210
0.0
220
0.0
230
1.0
 70
     9
 71
     3
 72
    56
 73
    52
 74
     0
 42
0.000000001
 43
0.0000000001
 40
0.0
 40
0.0
 40
0.0
 40
0.0
 40
0.1290585797547908
 40
0.1290585797547908
 40
0.2581171595095817
 40
0.2581171595095817
 40
0.3871757392643725
 40
0.3871757392643725
 40
0.6526671898703783
 40
0.6526671898703783
 40
0.9181586404763839
 40
0.9181586404763839
 40
1.330732421680322
 40
1.330732421680322
 40
1.74330620288426
 40
1.74330620288426
 40
2.155879984088199
 40
2.155879984088199
 40
2.568453765292135
 40
2.568453765292135
 40
2.768815262993106
 40
2.768815262993106
 40
2.969176760694076
 40
2.969176760694076
 40
3.084649663871521
 40
3.084649663871521
 40
3.200122567048968
 40
3.200122567048968
 40
3.315595470226411
 40
3.315595470226411
 40
3.431068373403859
 40
3.431068373403859
 40
3.650073132004868
 40
3.650073132004868
 40
3.869077890605876
 40
3.869077890605876
 40
4.323537880353643
 40
4.323537880353643
 40
4.777997870101408
 40
4.777997870101408
 40
5.23245785984917
 40
5.23245785984917
 40
5.607609994738417
 40
5.607609994738417
 40
5.858549217881098
 40
5.858549217881098
 40
6.03695065991337
 40
6.03695065991337
 40
6.166944014391445
 40
6.166944014391445
 40
6.283185307179584
 40
6.283185307179584
 40
6.283185307179584
 40
6.283185307179584
 10
4194.754938571366
 20
873.9756167225761
 30
0.0
 10
4194.754938571366
 20
873.9069060567311
 30
0.0
 10
4194.77134197627
 20
873.8341704294336
 30
0.0
 10
4194.880664280065
 20
873.6390814335919
 30
0.0
 10
4194.976327684048
 20
873.5204388218919
 30
0.0
 10
4195.267564145441
 20
873.264955414659
 30
0.0
 10
4195.46191361243
 20
873.1287427706902
 30
0.0
 10
4196.197046004399
 20
872.7112053907115
 30
0.0
 10
4196.886037127677
 20
872.4297196869914
 30
0.0
 10
4198.580643622976
 20
871.9163059777629
 30
0.0
 10
4199.586519711714
 20
871.6828973010542
 30
0.0
 10
4202.459286655911
 20
871.17434189761
 30
0.0
 10
4204.49582458422
 20
870.9482710159482
 30
0.0
 10
4208.795168027004
 20
870.7045362646837
 30
0.0
 10
4211.056229703344
 20
870.6868255549743
 30
0.0
 10
4215.418145258154
 20
870.8628451636981
 30
0.0
 10
4217.517170268364
 20
871.0565940767857
 30
0.0
 10
4221.191785461054
 20
871.6203642760854
 30
0.0
 10
4222.766918445316
 20
871.9915815771567
 30
0.0
 10
4224.496709721059
 20
872.6122965791978
 30
0.0
 10
4224.965759610072
 20
872.8262016099549
 30
0.0
 10
4225.680475420975
 20
873.2494735465218
 30
0.0
 10
4225.922897448175
 20
873.4604092559685
 30
0.0
 10
4226.1259252786
 20
873.7304170072967
 30
0.0
 10
4226.16325556015
 20
873.8133356619307
 30
0.0
 10
4226.196737092865
 20
873.9493631956799
 30
0.0
 10
4226.196589569616
 20
874.0043395853334
 30
0.0
 10
4226.161999891703
 20
874.1410507004722
 30
0.0
 10
4226.123829860201
 20
874.2245146743075
 30
0.0
 10
4225.9734004717
 20
874.4227101123842
 30
0.0
 10
4225.861365589785
 20
874.5354528549817
 30
0.0
 10
4225.42315711989
 20
874.8761954890747
 30
0.0
 10
4224.996397908014
 20
875.1147204748152
 30
0.0
 10
4223.899735725473
 20
875.5704050559897
 30
0.0
 10
4223.230223472201
 20
875.7892366877671
 30
0.0
 10
4220.862370176921
 20
876.4051246090845
 30
0.0
 10
4218.828198695155
 20
876.7397610045419
 30
0.0
 10
4214.321708608073
 20
877.1673723049586
 30
0.0
 10
4211.851641219088
 20
877.2607570312711
 30
0.0
 10
4206.98368528711
 20
877.1866832334541
 30
0.0
 10
4204.588864914987
 20
877.0192178871889
 30
0.0
 10
4200.738274272136
 20
876.5085357949663
 30
0.0
 10
4199.191628716692
 20
876.2011999469786
 30
0.0
 10
4197.129786912006
 20
875.6053263191814
 30
0.0
 10
4196.441938932011
 20
875.3437571302326
 30
0.0
 10
4195.554519015389
 20
874.8892055507871
 30
0.0
 10
4195.27195167211
 20
874.6976459324201
 30
0.0
 10
4194.945237874072
 20
874.3965906945634
 30
0.0
 10
4194.858319308013
 20
874.2802992328853
 30
0.0
 10
4194.768403832306
 20
874.101961487762
 30
0.0
 10
4194.754938571366
 20
874.0375034769581
 30
0.0
 10
4194.754938571366
 20
873.9756167225761
 30
0.0
  0
ELLIPSE
  5
9A41
330
18
100
AcDbEntity
  8
OBJECT1
100
AcDbEllipse
 10
4210.473365593433
 20
873.9756167225761
 30
0.0
 11
-16.21842702206709
 21
0.0
 31
0.0
210
0.0
220
0.0
230
1.0
 40
0.2315962455830919
 41
0.0
 42
6.283185307179584
  0
ARC
  5
9A43
330
18
100
AcDbEntity
  8
OBJECT
370
    15
100
AcDbCircle
 10
4210.468907302987
 20
975.3991078379614
 30
0.0
 40
70.00000000000001
100
AcDbArc
 50
297.6356776938452
 51
0.0
  0
LWPOLYLINE
  5
9A44
330
18
100
AcDbEntity
  8
OBJECT
370
    15
100
AcDbPolyline
 90
       13
 70
   128
 43
0.0
 10
4240.791631816238
 20
924.8395240318142
 10
4241.152917823238
 20
923.9096189278615
 10
4241.490412127421
 20
922.7058352226778
 10
4241.686362420187
 20
921.4916447992315
 10
4241.739874625292
 20
920.2725877299384
 10
4241.65070457882
 20
919.0542262926019
 10
4241.419259143239
 20
917.8421195910177
 10
4241.046594350988
 20
916.641798190056
 10
4240.53441058604
 20
915.4587388809634
 10
4239.88504482544
 20
914.2983396920206
 10
4239.101459976213
 20
913.1658952585773
 10
4238.187231356305
 20
912.0665726648461
 10
4237.891433409011
 20
911.7475032320719
  0
ARC
  5
9A45
330
18
100
AcDbEntity
  8
OBJECT
370
    15
100
AcDbCircle
 10
4229.354225723461
 20
920.1791303107096
 30
0.0
 40
11.91721832420774
100
AcDbArc
 50
1.182400863106539
 51
42.30046174370282
  0
ARC
  5
9A46
330
18
100
AcDbEntity
  8
OBJECT
370
    15
100
AcDbCircle
 10
4230.706184044427
 20
919.0109734317182
 30
0.0
 40
11.67993662674054
100
AcDbArc
 50
351.7127880010515
 51
38.3553910883053
  0
ARC
  5
9A47
330
18
100
AcDbEntity
  8
OBJECT
370
    15
100
AcDbCircle
 10
4228.362186059874
 20
921.005930849482
 30
0.0
 40
17.30387574513679
100
AcDbArc
 50
33.56773382780938
 51
42.30937135515374
  0
LWPOLYLINE
  5
9A48
330
18
100
AcDbEntity
  8
OBJECT
370
    15
100
AcDbPolyline
 90
       11
 70
   128
 43
0.0
 10
4243.60848407367
 20
920.7159806540737
 10
4243.66200064465
 20
920.3104674819709
 10
4243.733222096036
 20
919.0545259472775
 10
4243.66200064465
 20
917.7985844125846
 10
4243.448641271675
 20
916.548021012359
 10
4243.094057614708
 20
915.3081908510705
 10
4242.599768055401
 20
914.0844030718117
 10
4241.967889217535
 20
912.8818981217319
 10
4241.201126903297
 20
911.7058253116411
 10
4240.302764506636
 20
910.5612207658653
 10
4240.095254705091
 20
910.32250441166
  0
LWPOLYLINE
  5
9A49
330
18
100
AcDbEntity
  8
OBJECT
370
    15
100
AcDbPolyline
 90
       10
 70
   128
 43
0.0
 10
4239.134880610158
 20
909.2812568051828
 10
4239.601140314174
 20
909.6663690653974
 10
4240.721131781639
 20
910.7222497908846
 10
4241.730812704392
 20
911.8177656991818
 10
4242.625988471028
 20
912.9487484728723
 10
4243.402913939227
 20
914.1106715478114
 10
4244.058404693181
 20
915.2986720247692
 10
4244.589951755044
 20
916.5076328554953
 10
4244.995802821629
 20
917.7323307931603
 10
4245.067182463603
 20
918.0481829688774
  0
LWPOLYLINE
  5
9A4A
330
18
100
AcDbEntity
  8
OBJECT
370
    15
100
AcDbPolyline
 90
       16
 70
   128
 43
0.0
 10
4242.015692846815
 20
918.5890630007961
 10
4241.916830088018
 20
918.0291440138685
 10
4241.599773165285
 20
916.8213212077819
 10
4241.143678238478
 20
915.6284208771319
 10
4240.55058233826
 20
914.4557708043763
 10
4239.823134374897
 20
913.3086083294047
 10
4238.964583307581
 20
912.1920569583092
 10
4237.978763633797
 20
911.1111034805587
 10
4236.870078263527
 20
910.0705756967917
 10
4235.64347885476
 20
909.0751208566812
 10
4234.304443698225
 20
908.1291849031947
 10
4232.858953249984
 20
907.2369926159288
 10
4231.313463421276
 20
906.4025287422223
 10
4229.674876744852
 20
905.6295202003036
 10
4227.95051154658
 20
904.9214194339715
 10
4226.6917926155
 20
904.4744600842321
  0
LWPOLYLINE
  5
9A4B
330
18
100
AcDbEntity
  8
OBJECT
370
    15
100
AcDbPolyline
 90
       16
 70
   128
 43
0.0
 10
4242.264158582243
 20
917.3274817662152
 10
4242.186354125048
 20
916.9028951811922
 10
4241.86657986984
 20
915.6847207445403
 10
4241.406575987052
 20
914.4815966762187
 10
4240.808396965684
 20
913.298896420378
 10
4240.074714418461
 20
912.1419022034663
 10
4239.208805149742
 20
911.0157814425207
 10
4238.214536520522
 20
909.92556366623
 10
4237.096349175862
 20
908.8761180518366
 10
4235.859237211887
 20
907.8721316782127
 10
4234.508725870944
 20
906.918088592223
 10
4233.050846864522
 20
906.0182497818876
 10
4231.492111434167
 20
905.1766341457726
 10
4229.839481270704
 20
904.3970005436138
 10
4228.10033742162
 20
903.6828310083375
 10
4226.6917926155
 20
903.1826698881081
  0
LWPOLYLINE
  5
9A4C
330
18
100
AcDbEntity
  8
OBJECT
370
    15
100
AcDbPolyline
 90
       43
 70
   128
 43
0.0
 10
4186.478246781059
 20
934.2745594887519
 10
4188.081470463113
 20
935.1419911473596
 10
4189.778594835456
 20
935.9476948233712
 10
4191.562501568681
 20
936.6882911155663
 10
4193.425708337999
 20
937.3606737057215
 10
4195.360400206704
 20
937.9620223875836
 10
4197.358462404749
 20
938.4898148957978
 10
4199.411514364899
 20
938.9418374851633
 10
4201.510944873747
 20
939.3161942158512
 10
4203.647948190136
 20
939.6113149056358
 10
4205.813560979494
 20
939.825961715781
 10
4207.998699909182
 20
939.9592343429716
 10
4210.194199747134
 20
940.0105737954923
 10
4212.390851804046
 20
939.9797647378388
 10
4214.579442557797
 20
939.8669363939044
 10
4216.750792298177
 20
939.6725620049751
 10
4218.895793629777
 20
939.3974568447875
 10
4221.005449671571
 20
939.0427747999899
 10
4223.070911792967
 20
938.6100035303384
 10
4225.083516728025
 20
938.1009582289363
 10
4227.034822912218
 20
937.5177740086838
 10
4228.916645889284
 20
936.8628969468719
 10
4230.721092639675
 20
936.1390738254828
 10
4232.440594686631
 20
935.3493406102343
 10
4234.067939841
 20
934.4970097166834
 10
4235.59630245166
 20
933.5856561168029
 10
4237.019272034681
 20
932.6191023443083
 10
4238.330880161111
 20
931.6014024616237
 10
4239.525625490656
 20
930.5368250557318
 10
4240.598496846196
 20
929.42983533424
 10
4241.544994232419
 20
928.2850763967468
 10
4242.361147710357
 20
927.1073497600674
 10
4243.043534048689
 20
925.9015952190047
 10
4243.589291081966
 20
924.6728701271342
 10
4243.996129715525
 20
923.4263281845024
 10
4244.262343526755
 20
922.1671978212215
 10
4244.38681592241
 20
920.9007602676134
 10
4244.369024822012
 20
919.6323274028962
 10
4244.209044847612
 20
918.367219475316
 10
4243.907547010826
 20
917.1107427871772
 10
4243.465795898353
 20
915.8681674383664
 10
4242.88564436788
 20
914.644705221722
 10
4242.705723348045
 20
914.3185731736167
  0
LWPOLYLINE
  5
9A4D
330
18
100
AcDbEntity
  8
OBJECT
370
    15
100
AcDbPolyline
 90
       36
 70
   128
 43
0.0
 10
4186.755591116905
 20
933.8518970611859
 10
4188.340280711208
 20
934.7093007650807
 10
4190.017785455679
 20
935.5056900935061
 10
4191.781069312443
 20
936.237724712854
 10
4193.622736456225
 20
936.9023342155307
 10
4195.535062294996
 20
937.4967309983141
 10
4197.510025869607
 20
938.0184219545295
 10
4199.539343496481
 20
938.465218931006
 10
4201.614503512252
 20
938.8352479059514
 10
4203.72680197464
 20
939.1269568492512
 10
4205.86737916983
 20
939.3391222322204
 10
4208.027256773148
 20
939.4708541595102
 10
4210.197375507326
 20
939.5216001016379
 10
4212.368633140217
 20
939.4911472124864
 10
4214.531922662746
 20
939.3796232220562
 10
4216.678170486857
 20
939.1874959007203
 10
4218.798374503303
 20
938.9155710972335
 10
4220.883641839619
 20
938.5649893587219
 10
4222.925226159911
 20
938.1372211468328
 10
4224.914564350039
 20
937.6340606701068
 10
4226.843312434292
 20
937.0576183584441
 10
4228.703380572915
 20
936.4103120112272
 10
4230.486966993718
 20
935.6948566562319
 10
4232.186590715409
 20
934.9142531618547
 10
4233.795122925438
 20
934.0717756504302
 10
4235.305816880717
 20
933.170957765423
 10
4236.712336205788
 20
932.2155778500986
 10
4238.008781469805
 20
931.2096430998407
 10
4239.189714930783
 20
930.1573727545784
 10
4240.250183343383
 20
929.0631804018307
 10
4241.185738734546
 20
927.9316554645822
 10
4241.992457059827
 20
926.767543951653
 10
4242.666954662225
 20
925.5757285512855
 10
4243.206402464383
 20
924.3612081514543
 10
4243.608537834751
 20
923.1290768727923
 10
4243.857546140112
 20
921.9735121903951
  0
LWPOLYLINE
  5
9A4E
330
18
100
AcDbEntity
  8
OBJECT
370
    15
100
AcDbPolyline
 90
       36
 70
   128
 43
0.0
 10
4186.947484741298
 20
932.6331541629119
 10
4188.536220552019
 20
933.4921660535432
 10
4190.218875494575
 20
934.2893537527324
 10
4191.988244182176
 20
935.0213035803657
 10
4193.836749906463
 20
935.6848812149094
 10
4195.756477082137
 20
936.2772451150586
 10
4197.739205142709
 20
936.7958586876511
 10
4199.776443742234
 20
937.238501149751
 10
4201.859469112259
 20
937.6032770383787
 10
4203.979361418364
 20
937.888624327178
 10
4206.127042956242
 20
938.093321115252
 10
4208.293317023827
 20
938.2164908595274
 10
4210.468907302987
 20
938.2576061282501
 10
4212.644497582147
 20
938.2164908595274
 10
4214.810771649733
 20
938.093321115252
 10
4216.95845318761
 20
937.888624327178
 10
4219.078345493715
 20
937.6032770383787
 10
4221.161370863739
 20
937.238501149751
 10
4223.198609463262
 20
936.7958586876511
 10
4225.181337523838
 20
936.2772451150586
 10
4227.101064699512
 20
935.6848812149094
 10
4228.949570423798
 20
935.0213035803657
 10
4230.7189391114
 20
934.2893537527324
 10
4232.401594053956
 20
933.4921660535432
 10
4233.990329864677
 20
932.6331541629119
 10
4235.478343332913
 20
931.7159965016328
 10
4236.859262556552
 20
930.7446204796153
 10
4238.127174227474
 20
929.7231856781147
 10
4239.27664895325
 20
928.6560660377636
 10
4240.302764506636
 20
927.5478311286903
 10
4241.201126903297
 20
926.4032265829142
 10
4241.967889217535
 20
925.227153772823
 10
4242.599768055401
 20
924.0246488227439
 10
4243.094057614708
 20
922.800861043485
 10
4243.448641271675
 20
921.5610308821961
 10
4243.60848407367
 20
920.7159806540737
  0
LWPOLYLINE
  5
9A4F
330
18
100
AcDbEntity
  8
OBJECT
370
    15
100
AcDbPolyline
 90
       34
 70
   128
 43
0.0
 10
4185.749985740407
 20
936.9898397354159
 10
4187.36752382196
 20
937.8661646234123
 10
4189.078083021303
 20
938.6815008900637
 10
4190.87477552027
 20
939.4325654639917
 10
4192.750366672298
 20
940.1163340732406
 10
4194.697304133799
 20
940.7300534229532
 10
4196.70774827477
 20
941.2712522819161
 10
4198.773603746237
 20
941.7377514333375
 10
4200.886552077339
 20
942.1276724497824
 10
4203.038085170904
 20
942.4394452569384
 10
4205.219539562532
 20
942.6718144557479
 10
4207.422131305319
 20
942.8238443774617
 10
4209.636991339708
 20
942.8949228512426
 10
4211.855201206062
 20
942.8847636691644
 10
4214.067828956151
 20
942.7934077386664
 10
4216.265965118958
 20
942.6212229178373
 10
4218.440758575979
 20
942.3689025341799
 10
4220.583452201538
 20
942.0374625928239
 10
4222.685418124657
 20
941.6282376854328
 10
4224.738192470439
 20
941.1428756162763
 10
4226.733509441102
 20
940.5833307671013
 10
4228.663334599452
 20
939.9518562275263
 10
4230.519897220681
 20
939.2509947226486
 10
4232.295721582389
 20
938.4835683743832
 10
4233.983657066631
 20
937.652667337776
 10
4235.576906952958
 20
936.76163735804
 10
4237.069055786407
 20
935.8140662984203
 10
4238.454095210271
 20
934.8137696931347
 10
4239.726448159628
 20
933.7647753835646
 10
4240.880991318223
 20
932.6713072995575
 10
4241.913075748246
 20
931.5377684511563
 10
4242.818545609961
 20
930.3687231992276
 10
4243.593754895817
 20
929.1688788763933
 10
4243.973728814578
 20
928.4776742679186
  0
LWPOLYLINE
  5
9A50
330
18
100
AcDbEntity
  8
OBJECT
370
    15
100
AcDbPolyline
 90
       37
 70
   128
 43
0.0
 10
4185.727968313903
 20
935.3438190103762
 10
4187.346947155147
 20
936.2209244509859
 10
4189.059029969159
 20
937.0369869469865
 10
4190.857322802709
 20
937.7887205027317
 10
4192.734584565255
 20
938.4730981525107
 10
4194.683256186245
 20
939.0873641490763
 10
4196.69549105284
 20
939.6290450600606
 10
4198.763186605431
 20
940.0959597276184
 10
4200.878016963808
 20
940.4862280511776
 10
4203.031466452538
 20
940.7982785579433
 10
4205.214863890573
 20
941.0308547306591
 10
4207.419417507048
 20
941.1830200671651
 10
4209.636250342633
 20
941.254161851357
 10
4211.856435993916
 20
941.2439936203783
 10
4214.071034556879
 20
941.1525563181067
 10
4216.271128624742
 20
940.9802181302863
 10
4218.447859195199
 20
940.727673001974
 10
4220.592461342507
 20
940.3959378432665
 10
4222.696299510743
 20
939.9863484345642
 10
4224.750902286142
 20
939.5005540478548
 10
4226.747996508482
 20
938.9405108056743
 10
4228.679540584197
 20
938.308473804496
 10
4230.537756867017
 20
937.6069880342495
 10
4232.315162975818
 20
936.8388781305476
 10
4234.004601923524
 20
936.0072370008721
 10
4235.599270935771
 20
935.1154133705296
 10
4237.092748843273
 20
934.1669982985164
 10
4238.479021937613
 20
933.1658107175895
 10
4239.752508186312
 20
932.1158820567747
 10
4240.90807970972
 20
931.0214400082243
 10
4241.941083429161
 20
929.8868915037898
 10
4242.847359803252
 20
928.7168049698676
 10
4243.623259576898
 20
927.5158919319553
 10
4244.265658475558
 20
926.2889880430007
 10
4244.771969785598
 20
925.0410336119376
 10
4245.140154770073
 20
923.7770537108017
 10
4245.264210151971
 20
923.1834493634252
  0
LWPOLYLINE
  5
9A51
330
18
100
AcDbEntity
  8
OBJECT
370
    15
100
AcDbPolyline
 90
       45
 70
   128
 43
0.0
 10
4186.293459891898
 20
934.3812346892192
 10
4187.892057175172
 20
935.2467362843649
 10
4189.583427578344
 20
936.0513323747442
 10
4191.360620897623
 20
936.7917167024367
 10
4193.216334264456
 20
937.4648468694273
 10
4195.14294215457
 20
938.0679568394739
 10
4197.13252772289
 20
938.5985683043442
 10
4199.176915335547
 20
939.0545008677117
 10
4201.267704165323
 20
939.4338810048767
 10
4203.396302712445
 20
939.7351497614796
 10
4205.553964108896
 20
939.9570691595764
 10
4207.731822061187
 20
940.0987272847597
 10
4209.920927283837
 20
940.1595420334073
 10
4212.112284273927
 20
940.1392635046716
 10
4214.29688827554
 20
940.0379750273772
 10
4216.465762282239
 20
939.8560928176047
 10
4218.609993925507
 20
939.5943642683663
 10
4220.720772097584
 20
939.2538648784121
 10
4222.789423158202
 20
938.8359938327722
 10
4224.80744657643
 20
938.3424682532064
 10
4226.766549861173
 20
937.7753161421814
 10
4228.658682636813
 20
937.1368680493761
 10
4230.476069723914
 20
936.4297474949497
 10
4232.211243089103
 20
935.6568601889373
 10
4233.85707253283
 20
934.8213820910633
 10
4235.406794988882
 20
933.9267463600412
 10
4236.854042315273
 20
932.9766292459892
 10
4238.192867462304
 20
931.9749349839275
 10
4239.417768910271
 20
930.9257797504423
 10
4240.523713276378
 20
929.8334747494306
 10
4241.506155998009
 20
928.7025084964406
 10
4242.361060007282
 20
927.5375283743976
 10
4243.084912320249
 20
926.3433215365099
 10
4243.674738472487
 20
925.1247952348307
 10
4244.128114741822
 20
923.8869566553081
 10
4244.443178107913
 20
922.6348923421792
 10
4244.618633907808
 20
921.3737472962746
 10
4244.653761155992
 20
920.1087038331031
 10
4244.548415507064
 20
918.8449602876046
 10
4244.303029848896
 20
917.5877096530806
 10
4243.918612523789
 20
916.3421182420668
 10
4243.39674318499
 20
915.1133044568508
 10
4242.739566305554
 20
913.9063177568553
 10
4241.949782366242
 20
912.7261179093279
 10
4241.511528824474
 20
912.1543006172462
  0
LWPOLYLINE
  5
9A52
330
18
100
AcDbEntity
  8
OBJECT
370
    15
100
AcDbPolyline
 90
       53
 70
   128
 43
0.0
 10
4187.609617630957
 20
931.9883513755222
 10
4189.17038037139
 20
932.8316560842086
 10
4190.824276150948
 20
933.6135687931257
 10
4192.564072904202
 20
934.3306703969457
 10
4194.382162942622
 20
934.9798251928127
 10
4196.270596221057
 20
935.5581945919739
 10
4198.221115101269
 20
936.0632495322056
 10
4200.225190460481
 20
936.4927815367586
 10
4202.27405898706
 20
936.8449123714666
 10
4204.358761500247
 20
937.1181022577847
 10
4206.470182126379
 20
937.3111566058502
 10
4208.599088160282
 20
937.4232312381179
 10
4210.736170437543
 20
937.4538360807383
 10
4212.87208404112
 20
937.4028373065208
 10
4214.99748916428
 20
937.2704579201297
 10
4217.103091951201
 20
937.0572767829386
 10
4219.17968513664
 20
936.76422608182
 10
4221.218188306962
 20
936.3925872529259
 10
4223.209687606475
 20
935.9439853782973
 10
4225.145474715453
 20
935.4203820797893
 10
4227.017084929406
 20
934.8240669414037
 10
4228.816334173077
 20
934.1576474975139
 10
4230.53535478732
 20
933.4240378307878
 10
4232.166629932371
 20
932.6264458296387
 10
4233.703026457078
 20
931.7683591609508
 10
4235.137826090358
 20
930.8535300193963
 10
4236.464754818479
 20
929.8859587200453
 10
4237.678010319736
 20
928.8698762060027
 10
4238.772287336519
 20
927.8097255475728
 10
4239.742800873854
 20
926.7101425138433
 10
4240.585307122985
 20
925.5759353016447
 10
4241.296122018445
 20
924.4120635105316
 10
4241.872137347555
 20
923.2236164557139
 10
4242.310834341842
 20
922.0157909137766
 10
4242.610294690968
 20
920.7938683984988
 10
4242.769208931024
 20
919.5631920661361
 10
4242.786882170467
 20
918.3291433511602
 10
4242.663237128726
 20
917.0971184346132
 10
4242.398814474101
 20
915.8725046479814
 10
4241.994770459583
 20
914.6606569157667
 10
4241.452871866846
 20
913.4668743397623
 10
4240.775488280553
 20
912.2963770274298
 10
4239.965581726779
 20
911.1542832656976
 10
4239.026693720812
 20
910.045587139994
 10
4237.962929781009
 20
908.9751366963831
 10
4236.778941476424
 20
907.9476127422919
 10
4235.479906086663
 20
906.9675083785307
 10
4234.071503962955
 20
906.0391093521078
 10
4232.559893689439
 20
905.1664753157448
 10
4230.951685153233
 20
904.3534220760532
 10
4229.253910641075
 20
903.603504907978
 10
4227.47399408893
 20
902.9200030084883
 10
4226.6917926155
 20
902.6609539881688
  0
LWPOLYLINE
  5
9A53
330
18
100
AcDbEntity
  8
OBJECT
370
    15
100
AcDbPolyline
 90
       54
 70
   128
 43
0.0
 10
4187.224834841654
 20
932.2104817516088
 10
4188.794837260064
 20
933.0593647041013
 10
4190.457651373863
 20
933.8471524578663
 10
4192.206156757733
 20
934.5704715847997
 10
4194.032866043188
 20
935.2262247213543
 10
4195.929956980623
 20
935.8116038319264
 10
4197.889305935396
 20
936.3241022332953
 10
4199.902522674486
 20
936.7615253286247
 10
4201.960986294733
 20
937.1220000050684
 10
4204.055882138898
 20
937.4039826547196
 10
4206.178239541361
 20
937.6062657845816
 10
4208.318970241894
 20
937.7279831872375
 10
4210.468907302987
 20
937.7686136500825
 10
4212.618844364079
 20
937.7279831872375
 10
4214.759575064614
 20
937.6062657845816
 10
4216.881932467077
 20
937.4039826547196
 10
4218.97682831124
 20
937.1220000050684
 10
4221.035291931489
 20
936.7615253286247
 10
4223.048508670577
 20
936.3241022332953
 10
4225.007857625352
 20
935.8116038319264
 10
4226.904948562786
 20
935.2262247213543
 10
4228.731657848242
 20
934.5704715847997
 10
4230.480163232111
 20
933.8471524578663
 10
4232.14297734591
 20
933.0593647041013
 10
4233.712979764321
 20
932.2104817516088
 10
4235.183447495955
 20
931.3041386475159
 10
4236.548083772241
 20
930.3442164921381
 10
4237.801045011137
 20
929.3348258195138
 10
4238.936965840259
 20
928.2802889954691
 10
4239.950982072229
 20
927.1851217085787
 10
4240.838751533868
 20
926.054013633299
 10
4241.596472660044
 20
924.8918083480592
 10
4242.220900772575
 20
923.7034825943153
 10
4242.709361974411
 20
922.4941249653799
 10
4243.059764599699
 20
921.2689141162842
 10
4243.270608170607
 20
920.0330965879823
 10
4243.340989822587
 20
918.7919643408555
 10
4243.270608170607
 20
917.5508320937288
 10
4243.059764599699
 20
916.3150145654267
 10
4242.709361974411
 20
915.0898037163312
 10
4242.220900772574
 20
913.8804460873959
 10
4241.596472660044
 20
912.6921203336522
 10
4240.838751533868
 20
911.5299150484116
 10
4239.950982072229
 20
910.3988069731324
 10
4238.936965840259
 20
909.3036396862419
 10
4237.801045011137
 20
908.2491028621967
 10
4236.548083772241
 20
907.2397121895731
 10
4235.183447495955
 20
906.279790034195
 10
4233.71297976432
 20
905.3734469301025
 10
4232.142977345908
 20
904.52456397761
 10
4230.480163232111
 20
903.7367762238448
 10
4228.731657848242
 20
903.0134570969114
 10
4226.904948562786
 20
902.3577039603567
 10
4226.6917926155
 20
902.2919311308239
  0
LWPOLYLINE
  5
9A54
330
18
100
AcDbEntity
  8
OBJECT
370
    15
100
AcDbPolyline
 90
       39
 70
   128
 43
0.0
 10
4185.720169961458
 20
935.6920368957871
 10
4187.339659105389
 20
936.5694188003322
 10
4189.052281568488
 20
937.3857385195112
 10
4190.851141224555
 20
938.1377090219304
 10
4192.728994700653
 20
938.8223023877792
 10
4194.678280543608
 20
939.4367620011971
 10
4196.69114966732
 20
939.9786136501905
 10
4198.759496958255
 20
940.4456754894107
 10
4200.874993911887
 20
940.8360668256802
 10
4203.029122168633
 20
941.1482156908716
 10
4205.213207814288
 20
941.3808651716774
 10
4207.418456306819
 20
941.5330784707494
 10
4209.635987888874
 20
941.604242678856
 10
4211.856873343434
 20
941.5940712428474
 10
4214.072169948624
 20
941.5026051195074
 10
4216.272957486891
 20
941.3302126106312
 10
4218.450374163569
 20
941.0775878800073
 10
4220.595652290209
 20
940.7457481582643
 10
4222.700153588955
 20
940.3360296468401
 10
4224.755403975852
 20
939.8500821375732
 10
4226.753127682978
 20
939.2898623695716
 10
4228.685280582045
 20
938.6576261501136
 10
4230.544082575273
 20
937.9559192713124
 10
4232.32204892309
 20
937.1875672591057
 10
4234.012020382531
 20
936.3556639958611
 10
4235.607192034996
 20
935.4635592624044
 10
4237.101140687246
 20
934.5148452496356
 10
4238.48785073534
 20
933.5133420940403
 10
4239.761738387342
 20
932.4630824953523
 10
4240.91767414729
 20
931.3682954782931
 10
4241.951003469859
 20
930.2333893637813
 10
4242.857565502572
 20
929.0629340181826
 10
4243.633709840092
 20
927.8616424520691
 10
4244.276311223105
 20
926.6343518425887
 10
4244.782782122643
 20
925.3860040558617
 10
4245.151083159153
 20
924.1216257478278
 10
4245.379731314346
 20
922.8463081236796
 10
4245.467805902804
 20
921.5651864373739
 10
4245.462902535894
 20
921.0306372006476
  0
LWPOLYLINE
  5
9A55
330
18
100
AcDbEntity
  8
OBJECT
370
    15
100
AcDbPolyline
 90
       39
 70
   128
 43
0.0
 10
4185.720169961458
 20
937.2271336221324
 10
4187.339659105389
 20
938.1045155266775
 10
4189.052281568488
 20
938.9208352458563
 10
4190.851141224555
 20
939.6728057482755
 10
4192.728994700653
 20
940.3573991141243
 10
4194.678280543608
 20
940.9718587275426
 10
4196.69114966732
 20
941.5137103765356
 10
4198.759496958255
 20
941.9807722157562
 10
4200.874993911887
 20
942.371163552025
 10
4203.029122168633
 20
942.6833124172167
 10
4205.213207814288
 20
942.9159618980222
 10
4207.418456306819
 20
943.0681751970947
 10
4209.635987888874
 20
943.1393394052012
 10
4211.856873343434
 20
943.1291679691929
 10
4214.072169948624
 20
943.0377018458521
 10
4216.272957486891
 20
942.8653093369755
 10
4218.450374163569
 20
942.6126846063526
 10
4220.595652290209
 20
942.280844884609
 10
4222.700153588955
 20
941.8711263731854
 10
4224.755403975852
 20
941.3851788639188
 10
4226.753127682978
 20
940.8249590959165
 10
4228.685280582045
 20
940.192722876459
 10
4230.544082575273
 20
939.4910159976577
 10
4232.32204892309
 20
938.7226639854507
 10
4234.012020382531
 20
937.8907607222059
 10
4235.607192034996
 20
936.9986559887497
 10
4237.101140687246
 20
936.0499419759806
 10
4238.48785073534
 20
935.0484388203854
 10
4239.761738387342
 20
933.9981792216976
 10
4240.91767414729
 20
932.9033922046381
 10
4241.951003469859
 20
931.7684860901263
 10
4242.857565502572
 20
930.5980307445279
 10
4243.633709840092
 20
929.3967391784146
 10
4244.276311223105
 20
928.1694485689341
 10
4244.782782122643
 20
926.921100782207
 10
4245.151083159153
 20
925.6567224741733
 10
4245.379731314346
 20
924.3814048500247
 10
4245.467805902804
 20
923.1002831637194
 10
4245.448044187962
 20
922.242456381784
  0
LWPOLYLINE
  5
9A56
330
18
100
AcDbEntity
  8
OBJECT
370
    15
100
AcDbPolyline
 90
       36
 70
   128
 43
0.0
 10
4243.931226758364
 20
928.5841072012448
 10
4243.684236194962
 20
929.0721161589162
 10
4242.968618807354
 20
930.2250443283288
 10
4242.134814149187
 20
931.3509536576177
 10
4241.185767292686
 20
932.4455902581863
 10
4240.12495577026
 20
933.5047960463004
 10
4238.956344909634
 20
934.5245733871516
 10
4237.684333459123
 20
935.5011252851287
 10
4236.313702729915
 20
936.4308743609964
 10
4234.849575074568
 20
937.3104680376327
 10
4233.297413604971
 20
938.1367612974342
 10
4231.662943297396
 20
938.9068468876839
 10
4229.952133612265
 20
939.618044568972
 10
4228.171202248274
 20
940.2678886709503
 10
4226.326597885043
 20
940.8541309468596
 10
4224.424981870991
 20
941.3747448950827
 10
4222.473208500673
 20
941.827930929846
 10
4220.47830380629
 20
942.2121218587072
 10
4218.447442949938
 20
942.5259882340096
 10
4216.387926385154
 20
942.7684432529833
 10
4214.307154990808
 20
942.9386469716536
 10
4212.212604389462
 20
943.036009668174
 10
4210.111798659233
 20
943.0601942436688
 10
4208.012283640869
 20
943.0111175870813
 10
4205.921611277955
 20
942.8889517145218
 10
4203.847295338834
 20
942.6941230191156
 10
4201.796784760162
 20
942.4273093310139
 10
4199.777442807254
 20
942.0894368849561
 10
4197.796521187725
 20
941.6816761796948
 10
4195.861134914741
 20
941.2054368176519
 10
4193.978238148564
 20
940.6623614186695
 10
4192.154601259143
 20
940.0543187565023
 10
4190.396789363549
 20
939.3833963454918
 10
4188.71114258835
 20
938.6518928160104
 10
4187.103758270164
 20
937.8623105684438
 10
4185.832747783114
 20
937.164483787175
  0
LWPOLYLINE
  5
9A57
330
18
100
AcDbEntity
  8
OBJECT
370
    15
100
AcDbPolyline
 90
        8
 70
   128
 43
0.0
 10
4223.973395115983
 20
930.769783666714
 10
4224.089292825339
 20
930.6678640564051
 10
4224.854889286674
 20
929.9092120460457
 10
4225.494061221071
 20
929.112506890547
 10
4226.001191562589
 20
928.2847500634636
 10
4226.371823631551
 20
927.4332159215534
 10
4226.602700300008
 20
926.565387777474
 10
4226.6917926155
 20
925.6888921361598
  0
LWPOLYLINE
  5
9A58
330
18
100
AcDbEntity
  8
OBJECT
370
    15
100
AcDbPolyline
 90
        7
 70
   128
 43
0.0
 10
4194.254938571368
 20
925.9084080510213
 10
4194.379599250607
 20
926.7834571222048
 10
4194.645653347524
 20
927.6479222949106
 10
4195.050762769147
 20
928.4942066181185
 10
4195.59136739931
 20
929.3148729147667
 10
4196.262716385088
 20
930.1027091399319
 10
4196.964419489992
 20
930.769783666714
  0
ARC
  5
9A59
330
18
100
AcDbEntity
  8
OBJECT
370
    15
100
AcDbCircle
 10
4198.853816665415
 20
912.1287050915546
 30
0.0
 40
22.70669645988113
100
AcDbArc
 50
119.1033078425042
 51
138.2581966726896
  0
LWPOLYLINE
  5
9A5A
330
18
100
AcDbEntity
  8
OBJECT
370
    15
100
AcDbPolyline
 90
       27
 70
   128
 43
0.0
 10
4194.254938571368
 20
904.8800592839917
 10
4192.793481960844
 20
905.451722713726
 10
4191.163249939632
 20
906.1890375957652
 10
4189.625018167511
 20
906.9895241141416
 10
4188.186117019373
 20
907.8493675860555
 10
4186.853403514463
 20
908.7644704657924
 10
4185.633228639545
 20
909.7304718713955
 10
4184.531407083567
 20
910.7427683662519
 10
4183.553189528008
 20
911.7965358965667
 10
4182.703237624995
 20
912.8867527801745
 10
4181.985601782415
 20
914.0082236371428
 10
4181.403701861868
 20
915.1556041481233
 10
4180.960310881469
 20
916.3234265224671
 10
4180.657541801159
 20
917.5061255547367
 10
4180.496837453489
 20
918.6980651454458
 10
4180.478963667856
 20
919.8935651596377
 10
4180.60400562099
 20
921.0869284953172
 10
4180.87136743104
 20
922.2724682327347
 10
4181.279774997227
 20
923.4445347351508
 10
4181.827282071508
 20
924.5975425719244
 10
4182.511279533343
 20
925.725997135636
 10
4183.328507823332
 20
926.8245208263953
 10
4184.275072476513
 20
927.8878786785504
 10
4185.346462681247
 20
928.9110033076848
 10
4186.537572775306
 20
929.8890190590125
 10
4187.842726576659
 20
930.8172652420926
 10
4189.255704433077
 20
931.6913183411417
  0
LWPOLYLINE
  5
9A5B
330
18
100
AcDbEntity
  8
OBJECT
370
    15
100
AcDbPolyline
 90
       29
 70
   128
 43
0.0
 10
4194.254938571368
 20
902.6567753255028
 10
4193.011560378455
 20
903.0844835124167
 10
4191.251463129248
 20
903.7848810049124
 10
4189.575398873773
 20
904.5509006544701
 10
4187.990696614567
 20
905.3791928520675
 10
4186.5042858514
 20
906.2661356866723
 10
4185.122666280341
 20
907.2078507829406
 10
4183.851879372237
 20
908.2002202603646
 10
4182.697481954907
 20
909.2389047397153
 10
4181.664521914528
 20
910.3193623180445
 10
4180.757516122535
 20
911.436868429271
 10
4179.980430684483
 20
912.5865365035068
 10
4179.336663597267
 20
913.7633393347812
 10
4178.829029890567
 20
914.9621310637364
 10
4178.459749317418
 20
916.1776696791589
 10
4178.230436647808
 20
917.4046399399619
 10
4178.142094607696
 20
918.6376766173832
 10
4178.195109494345
 20
919.8713879557622
 10
4178.389249487145
 20
921.1003792493192
 10
4178.723665661306
 20
922.3192764318293
 10
4179.196895699982
 20
923.5227495760456
 10
4179.806870288626
 20
924.7055362001184
 10
4180.550922163559
 20
925.8624642790847
 10
4181.425797775249
 20
926.9884748608223
 10
4182.427671515244
 20
928.0786441875562
 10
4183.552162444597
 20
929.1282052262003
 10
4184.794353450586
 20
930.1325685133807
 10
4186.148812748
 20
931.0873422239902
 10
4187.609617630957
 20
931.9883513755222
  0
LWPOLYLINE
  5
9A5C
330
18
100
AcDbEntity
  8
OBJECT
370
    15
100
AcDbPolyline
 90
        9
 70
   128
 43
0.0
 10
4179.888495204359
 20
922.2178183837042
 10
4180.152005357476
 20
923.23525442587
 10
4180.587999538825
 20
924.4096250151352
 10
4181.160333448816
 20
925.5643246087199
 10
4181.866395659084
 20
926.6940845772204
 10
4182.702964569704
 20
927.7937500850212
 10
4183.666223108621
 20
928.8583036106313
 10
4184.751776148046
 20
929.8828878404783
 10
4185.881472230017
 20
930.8070464790544
  0
LWPOLYLINE
  5
9A5D
330
18
100
AcDbEntity
  8
OBJECT
370
    15
100
AcDbPolyline
 90
       42
 70
   128
 43
0.0
 10
4193.63976619359
 20
929.160453357773
 10
4194.994503293397
 20
929.8840977436647
 10
4196.442305279707
 20
930.5449613521396
 10
4197.974464901015
 20
931.139069671695
 10
4199.581767569081
 20
931.6628496649924
 10
4201.254546776534
 20
932.1131512575217
 10
4202.982742232395
 20
932.4872662825207
 10
4204.755960365849
 20
932.7829447682091
 10
4206.563536834392
 20
932.9984084693832
 10
4208.394600660454
 20
933.1323615619922
 10
4210.23813961074
 20
933.1839984363753
 10
4212.083066425078
 20
933.1530085422933
 10
4213.918285496528
 20
933.0395782566172
 10
4215.732759601651
 20
932.8443897624303
 10
4217.515576279683
 20
932.5686169463043
 10
4219.256013461346
 20
932.2139183384036
 10
4220.943603952644
 20
931.7824271378912
 10
4222.568198385793
 20
931.2767383836197
 10
4224.120026258712
 20
930.6998933472568
 10
4225.589754695977
 20
930.0553612427265
 10
4226.968544577843
 20
929.3470183619438
 10
4228.248103699713
 20
928.5791247623407
 10
4229.420736642475
 20
927.7562986463783
 10
4230.479391053632
 20
926.8834885871356
 10
4231.417700060993
 20
925.965943767008
 10
4232.230020563779
 20
925.009182408506
 10
4232.911467170906
 20
924.0189585870153
 10
4233.457941582297
 20
923.0012276251144
 10
4233.866157236541
 20
921.9621102765572
 10
4234.133659076658
 20
920.9078559153461
 10
4234.258838315112
 20
919.8448049512567
 10
4234.24094210923
 20
918.7793506978712
 10
4234.080078088902
 20
917.7179009224353
 10
4233.777213709271
 20
916.6668393087931
 10
4233.334170432356
 20
915.6324870651618
 10
4232.753612772551
 20
914.6210649076405
 10
4232.039032271937
 20
913.6386556480935
 10
4231.194726501722
 20
912.6911676114024
 10
4230.225773216156
 20
911.7842991021053
 10
4229.137999814308
 20
910.9235041341237
 10
4227.937948293408
 20
910.1139596296793
 10
4226.6917926155
 20
909.3945692694772
  0
LWPOLYLINE
  5
9A5E
330
18
100
AcDbEntity
  8
OBJECT
370
    15
100
AcDbPolyline
 90
       50
 70
   128
 43
0.0
 10
4189.255704433077
 20
931.6913183411417
 10
4190.76977286161
 20
932.5070130951013
 10
4192.377716636694
 20
933.2604623470032
 10
4194.071873173985
 20
933.9480755680437
 10
4195.844169046067
 20
934.5665759680867
 10
4197.686158456018
 20
935.1130161110623
 10
4199.589063485453
 20
935.5847919608425
 10
4201.543815925333
 20
935.9796552906566
 10
4203.541100490093
 20
936.2957243969193
 10
4205.571399209222
 20
936.5314930664007
 10
4207.62503678473
 20
936.6858377540243
 10
4209.692226698347
 20
936.7580229370638
 10
4211.763117848747
 20
936.7477046202495
 10
4213.827841496515
 20
936.6549319750598
 10
4215.876558293201
 20
936.4801471053979
 10
4217.899505170287
 20
936.2241829407643
 10
4219.88704186466
 20
935.8882592669683
 10
4221.829696858852
 20
935.4739769132953
 10
4223.718212517135
 20
934.9833101238228
 10
4225.54358920237
 20
934.4185971492512
 10
4227.297128163383
 20
933.7825291040736
 10
4228.970472988469
 20
933.078137142189
 10
4230.555649427495
 20
932.3087780120742
 10
4232.045103392844
 20
931.4781180603475
 10
4233.431736958081
 20
930.5901157599612
 10
4234.708942182796
 20
929.6490028462686
 10
4235.870632602455
 20
928.6592641508857
 10
4236.911272233181
 20
927.6256162294188
 10
4237.825901953232
 20
926.5529848849361
 10
4238.610163135462
 20
925.4464816942663
 10
4239.260318418194
 20
924.3113796490128
 10
4239.773269515424
 20
923.1530880273433
 10
4240.146571981582
 20
921.977126616318
 10
4240.378446860409
 20
920.7890994075912
 10
4240.467789162516
 20
919.5946678918359
 10
4240.414173131147
 20
918.3995240791665
 10
4240.217854271106
 20
917.2093633741155
 10
4239.879768131166
 20
916.0298574344396
 10
4239.401525845749
 20
914.8666271430847
 10
4238.785406457131
 20
913.7252158221215
 10
4238.034346054782
 20
912.6110628162898
 10
4237.151923783549
 20
911.5294775720453
 10
4236.142344787405
 20
910.4856143356281
 10
4235.01042017003
 20
909.484447590732
 10
4233.761544067699
 20
908.5307483528255
 10
4232.401667943777
 20
907.6290614330901
 10
4230.937272227275
 20
906.7836837803231
 10
4229.375335430667
 20
905.9986440040235
 10
4227.723300894091
 20
905.2776831762308
 10
4226.6917926155
 20
904.8890244399146
  0
LWPOLYLINE
  5
9A5F
330
18
100
AcDbEntity
  8
OBJECT
370
    15
100
AcDbPolyline
 90
       33
 70
   128
 43
0.0
 10
4187.809601377485
 20
931.9685481553243
 10
4188.563790384425
 20
932.3898431171903
 10
4190.064769267144
 20
933.1516848861662
 10
4191.646933196198
 20
933.8585524579933
 10
4193.303866430358
 20
934.5074176484391
 10
4195.029046042867
 20
935.0955996444881
 10
4196.815654824766
 20
935.620663663462
 10
4198.65661379801
 20
936.0804344629988
 10
4200.544615017695
 20
936.4730070813967
 10
4202.472154341957
 20
936.7967553306469
 10
4204.431564085228
 20
937.0503384689024
 10
4206.415045543963
 20
937.2327063596358
 10
4208.414701410178
 20
937.343103330285
 10
4210.422568090285
 20
937.381070873778
 10
4212.430647938642
 20
937.3464492877726
 10
4214.430932448677
 20
937.2393789567842
 10
4216.415442779832
 20
937.0603007667842
 10
4218.376272599154
 20
936.8099534188806
 10
4220.305610063138
 20
936.4893711844416
 10
4222.195769613306
 20
936.0998807132274
 10
4224.039223717164
 20
935.6430968410268
 10
4225.828634592954
 20
935.1209173115291
 10
4227.556885981412
 20
934.5355162638654
 10
4229.217115041218
 20
933.8893362425308
 10
4230.802744436171
 20
933.1850783495143
 10
4232.307514624895
 20
932.4256899703367
 10
4233.725516216503
 20
931.6143492647631
 10
4235.051221954091
 20
930.7544453391676
 10
4236.27951734675
 20
929.8495527774344
 10
4237.405680807092
 20
928.9034416821353
 10
4238.425486798024
 20
927.9199847346719
 10
4239.335196929416
 20
926.903119092157
 10
4239.891304651274
 20
926.1724534969465
  0
LWPOLYLINE
  5
9A60
330
18
100
AcDbEntity
  8
OBJECT
370
    15
100
AcDbPolyline
 90
       16
 70
   128
 43
0.0
 10
4194.254938571368
 20
904.4691024082434
 10
4193.879259941878
 20
904.5927094828387
 10
4192.114870900634
 20
905.2671517194257
 10
4190.432455441473
 20
906.0081201572007
 10
4188.839527640248
 20
906.8123054512497
 10
4187.343201899209
 20
907.6761159148288
 10
4185.950161172352
 20
908.5956935607152
 10
4184.666627117731
 20
909.5669313319119
 10
4183.498332310016
 20
910.5854914447606
 10
4182.450494637431
 20
911.6468247625382
 10
4181.527793997379
 20
912.7461911130053
 10
4180.734351394913
 20
913.8786804591646
 10
4180.073710537305
 20
915.0392348286812
 10
4179.548822007
 20
916.2226709040112
 10
4179.162030083592
 20
917.4237031723592
 10
4178.935994132713
 20
918.4989703837024
  0
LWPOLYLINE
  5
9A61
330
18
100
AcDbEntity
  8
OBJECT
370
    15
100
AcDbPolyline
 90
       16
 70
   128
 43
0.0
 10
4194.254938571368
 20
903.180915774857
 10
4193.737078572373
 20
903.3513038525946
 10
4191.957567856461
 20
904.031526388109
 10
4190.260733276215
 20
904.7788452868042
 10
4188.654153306782
 20
905.589922841065
 10
4187.145003324307
 20
906.461136581642
 10
4185.740023558966
 20
907.3885954564792
 10
4184.445488991452
 20
908.368157209097
 10
4183.267181327399
 20
909.3954468789167
 10
4182.210363174871
 20
910.4658763408943
 10
4181.279754540287
 20
911.574664797202
 10
4180.479511747715
 20
912.7168601294313
 10
4179.813208875731
 20
913.8873610159564
 10
4179.283821794705
 20
915.0809397156743
 10
4178.893714875854
 20
916.2922654163667
 10
4178.700712069282
 20
917.1688388402976
  0
LWPOLYLINE
  5
9A62
330
18
100
AcDbEntity
  8
OBJECT
370
    15
100
AcDbPolyline
 90
       16
 70
   128
 43
0.0
 10
4179.934461339965
 20
917.7608799558914
 10
4179.98573277278
 20
917.490036097943
 10
4180.32963002479
 20
916.3431060848822
 10
4180.797051607402
 20
915.2117397193558
 10
4181.386702311089
 20
914.1000587949251
 10
4182.096794139586
 20
913.0124959211999
 10
4182.924849931501
 20
911.953723106021
 10
4183.867616222521
 20
910.9284905044608
 10
4184.921089491902
 20
909.9414482327173
 10
4186.080616191676
 20
908.997007214605
 10
4187.341015768434
 20
908.0992607130067
 10
4188.696689924557
 20
907.2519594128689
 10
4190.141678588124
 20
906.458532530771
 10
4191.66967423993
 20
905.7221197589948
 10
4193.274232650433
 20
905.0455082024216
 10
4194.254938571368
 20
904.6857284194894
  0
LWPOLYLINE
  5
9A63
330
18
100
AcDbEntity
  8
OBJECT
370
    15
100
AcDbPolyline
 90
       11
 70
   128
 43
0.0
 10
4181.006209591581
 20
910.1015520316634
 10
4181.946409305363
 20
909.1225458422798
 10
4183.058508955083
 20
908.1163864146006
 10
4184.275214071773
 20
907.1525254587712
 10
4185.591706815261
 20
906.2346942337063
 10
4187.002800996732
 20
905.3663848933954
 10
4188.502956871668
 20
904.5508630587635
 10
4190.086333054988
 20
903.7911541784946
 10
4191.74684442586
 20
903.0900341456742
 10
4193.478144341198
 20
902.4500530051533
 10
4194.254938571368
 20
902.2006304991963
  0
LWPOLYLINE
  5
9A64
330
18
100
AcDbEntity
  8
OBJECT
370
    15
100
AcDbPolyline
 90
       10
 70
   128
 43
0.0
 10
4194.254938571368
 20
916.0068939023867
 10
4194.064030262302
 20
916.1087700734551
 10
4192.827489205228
 20
916.8809977891008
 10
4191.699713357095
 20
917.7068522219954
 10
4190.687655831029
 20
918.5812417049358
 10
4189.79755629822
 20
919.4987753359958
 10
4189.034902518279
 20
920.4537962152285
 10
4188.404396505363
 20
921.4404163213382
 10
4187.909925538709
 20
922.4525528132843
 10
4187.613835703363
 20
923.2782171269507
  0
LWPOLYLINE
  5
9A65
330
18
100
AcDbEntity
  8
OBJECT
370
    15
100
AcDbPolyline
 90
       22
 70
   128
 43
0.0
 10
4194.254938571368
 20
909.3990752805298
 10
4193.316591110757
 20
909.9201591377221
 10
4192.089572302019
 20
910.7161175940687
 10
4190.97308897657
 20
911.5645737610067
 10
4189.9738557965
 20
912.4604249233152
 10
4189.097882267729
 20
913.3982833266939
 10
4188.350436598128
 20
914.3725085803524
 10
4187.736014013903
 20
915.3772415789838
 10
4187.258309724771
 20
916.4064397401128
 10
4186.920196700537
 20
917.4539133448982
 10
4186.723708392712
 20
918.5133627638307
 10
4186.670026505097
 20
919.5784163434453
 10
4186.759473886882
 20
920.6426687261956
 10
4186.991512590988
 20
921.6997193730264
 10
4187.364747109345
 20
922.7432110569713
 10
4187.876932765646
 20
923.7668680962601
 10
4188.524989215085
 20
924.7645340970118
 10
4189.305018969923
 20
925.7302089785067
 10
4190.212330839433
 20
926.6580850583832
 10
4191.241468143274
 20
927.5425819807184
 10
4192.386241528605
 20
928.3783802769471
 10
4193.63976619359
 20
929.160453357773
  0
ARC
  5
9A66
330
18
100
AcDbEntity
  8
OBJECT
370
    15
100
AcDbCircle
 10
4189.412792570116
 20
920.1634665164835
 30
0.0
 40
10.6081974375496
100
AcDbArc
 50
168.908416514231
 51
189.0273892527156
  0
ARC
  5
9A67
330
18
100
AcDbEntity
  8
OBJECT
370
    15
100
AcDbCircle
 10
4190.018277001678
 20
920.0980687420225
 30
0.0
 40
10.3491940654676
100
AcDbArc
 50
168.1808810238725
 51
192.4180300586364
  0
LINE
  5
9A68
330
18
100
AcDbEntity
  8
OBJECT
370
    15
100
AcDbLine
 10
4179.668908102987
 20
920.4250459646273
 30
0.0
 11
4179.668908102987
 21
920.0984296398731
 31
0.0
  0
LWPOLYLINE
  5
9A69
330
18
100
AcDbEntity
  8
OBJECT
370
    15
100
AcDbPolyline
 90
       13
 70
   128
 43
0.0
 10
4182.824088785042
 20
911.9858350355803
 10
4182.05281682686
 20
912.8877607405016
 10
4181.236212263853
 20
914.012403622735
 10
4180.552989783495
 20
915.1663059211694
 10
4180.006266773258
 20
916.3442026442764
 10
4179.598537804843
 20
917.5407193194722
 10
4179.331663252017
 20
918.7503965155995
 10
4179.206860802151
 20
919.9677147530652
 10
4179.224699900202
 20
921.1871196879556
 10
4179.385099150456
 20
922.403047455236
 10
4179.687326687923
 20
923.6099500553892
 10
4180.130003517669
 20
924.8023206686664
 10
4180.146182789734
 20
924.8395240318064
  0
ARC
  5
9A6A
330
18
100
AcDbEntity
  8
OBJECT
370
    15
100
AcDbCircle
 10
4191.798021645727
 20
920.092841798211
 30
0.0
 40
12.13366205812842
100
AcDbArc
 50
138.1540663378858
 51
178.4311187064458
  0
LWPOLYLINE
  5
9A6B
330
18
100
AcDbEntity
  8
OBJECT
370
    15
100
AcDbPolyline
 90
       11
 70
   128
 43
0.0
 10
4178.700712069282
 20
917.1688388402976
 10
4178.644630431377
 20
917.515928043401
 10
4178.537680932871
 20
918.7464624224359
 10
4178.573344042756
 20
919.9783726882172
 10
4178.751460480927
 20
921.2061568304479
 10
4179.071234736134
 20
922.4243312670996
 10
4179.531238618922
 20
923.627455335422
 10
4180.12941764029
 20
924.8101555912628
 10
4180.863100187512
 20
925.9671498081743
 10
4181.729009456232
 20
927.0932705691194
 10
4181.884594963872
 20
927.2760653216195
  0
LWPOLYLINE
  5
9A6C
330
18
100
AcDbEntity
  8
OBJECT
370
    15
100
AcDbPolyline
 90
       16
 70
   128
 43
0.0
 10
4226.6917926155
 20
904.6822216545301
 10
4226.860068271931
 20
904.7397551577123
 10
4228.499383954892
 20
905.3864593948519
 10
4230.065615727705
 20
906.0943553678512
 10
4231.552309190775
 20
906.8608961482235
 10
4232.953264796487
 20
907.6833221069923
 10
4234.26254167252
 20
908.55865294955
 10
4235.474421647378
 20
909.4836360139604
 10
4236.583403187291
 20
910.454674387339
 10
4237.584361409061
 20
911.4678762837497
 10
4238.472533666532
 20
912.5189536946487
 10
4239.243617837959
 20
913.6031795475416
 10
4239.893911611992
 20
914.7153884032848
 10
4240.420471459193
 20
915.850054895883
 10
4240.821242077887
 20
917.0014681877471
 10
4241.021513051348
 20
917.851632573099
  0
LWPOLYLINE
  5
9A6D
330
18
100
AcDbEntity
  8
OBJECT
370
    15
100
AcDbPolyline
 90
       12
 70
   128
 43
0.0
 10
4226.6917926155
 20
902.1948367532896
 10
4226.76647291668
 20
902.217469716232
 10
4228.523543171364
 20
902.8329300249872
 10
4230.212446856527
 20
903.510488594485
 10
4231.82677826631
 20
904.2477152222577
 10
4233.360392415432
 20
905.0419691381128
 10
4234.807420728344
 20
905.8904049996801
 10
4236.162284673286
 20
906.7899761569853
 10
4237.419698122734
 20
907.7374256754072
 10
4238.574654712998
 20
908.7292505453715
 10
4239.622523185558
 20
909.7617446861168
 10
4240.030698178498
 20
910.2277560000953
  0
ARC
  5
9A6E
330
18
100
AcDbEntity
  8
OBJECT
370
    15
100
AcDbCircle
 10
4230.929605613452
 20
920.0984196536833
 30
0.0
 40
10.33929283122864
100
AcDbArc
 50
348.0594179281035
 51
11.92514174906607
  0
LINE
  5
9A6F
330
18
100
AcDbEntity
  8
OBJECT
370
    15
100
AcDbLine
 10
4241.268906502988
 20
920.0984296398731
 30
0.0
 11
4241.268906502988
 21
920.4250459646273
 31
0.0
  0
LWPOLYLINE
  5
9A70
330
18
100
AcDbEntity
  8
OBJECT
370
    15
100
AcDbPolyline
 90
       10
 70
   128
 43
0.0
 10
4233.323978902612
 20
923.2782171269507
 10
4233.027889067265
 20
922.4525528132843
 10
4232.533418100612
 20
921.4404163213375
 10
4231.902912087697
 20
920.4537962152285
 10
4231.140258307755
 20
919.4987753359958
 10
4230.250158774946
 20
918.5812417049358
 10
4229.238101248879
 20
917.7068522219949
 10
4228.110325400744
 20
916.8809977891008
 10
4226.873784343673
 20
916.1087700734547
 10
4226.6917926155
 20
916.0116521401223
  0
LWPOLYLINE
  5
9A71
330
18
100
AcDbEntity
  8
OBJECT
370
    15
100
AcDbPolyline
 90
       10
 70
   128
 43
0.0
 10
4235.867675677208
 20
930.1562083944631
 10
4235.896110178877
 20
930.1322365350779
 10
4237.011484236471
 20
929.1183826883504
 10
4238.005750603327
 20
928.0633728646799
 10
4238.87437267006
 20
926.9720208319156
 10
4239.6133871134
 20
925.8493061790696
 10
4240.21942197995
 20
924.7003515955972
 10
4240.68971207161
 20
923.5303994977384
 10
4241.022111562561
 20
922.344788108575
 10
4241.045760036981
 20
922.2348643473688
  0
LINE
  5
9A72
330
18
100
AcDbEntity
  8
OBJECT
370
    15
100
AcDbLine
 10
4243.399012155378
 20
916.3392580531095
 30
0.0
 11
4243.667664153583
 21
917.4250712881447
 31
0.0
  0
ARC
  5
9A73
330
18
100
AcDbEntity
  8
OBJECT
370
    15
100
AcDbCircle
 10
4231.522621920428
 20
920.163541943228
 30
0.0
 40
10.61053822415722
100
AcDbArc
 50
351.4664665710944
 51
11.0886905098501
  0
ARC
  5
9A74
330
18
100
AcDbEntity
  8
OBJECT
370
    15
100
AcDbCircle
 10
4232.721241524639
 20
920.1602312356053
 30
0.0
 40
11.28296363149474
100
AcDbArc
 50
345.9708787637143
 51
9.248088299817835
  0
ARC
  5
9A75
330
18
100
AcDbEntity
  8
OBJECT
370
    15
100
AcDbCircle
 10
4233.669623155138
 20
921.0592295931821
 30
0.0
 40
11.78756791112759
100
AcDbArc
 50
345.7557629740284
 51
10.38190377358933
  0
LINE
  5
9A76
330
18
100
AcDbEntity
  8
OBJECT
370
    15
100
AcDbLine
 10
4245.462910487262
 20
921.7789048248075
 30
0.0
 11
4245.420751832898
 21
923.0934693628043
 31
0.0
  0
LINE
  5
9A77
330
18
100
AcDbEntity
  8
OBJECT
370
    15
100
AcDbLine
 10
4245.451875892212
 20
920.6870391372735
 30
0.0
 11
4245.462902535894
 21
921.0306372006476
 31
0.0
  0
ARC
  5
9A78
330
18
100
AcDbEntity
  8
OBJECT
370
    15
100
AcDbCircle
 10
4232.918802688248
 20
922.620077433412
 30
0.0
 40
12.51090853352447
100
AcDbArc
 50
2.168494476216475
 51
27.91746331134361
  0
LINE
  5
9A79
330
18
100
AcDbEntity
  8
OBJECT
370
    15
100
AcDbLine
 10
4245.468907302988
 20
922.9399916652353
 30
0.0
 11
4245.468907302988
 21
925.8989517955734
 31
0.0
  0
MTEXT
  5
BDB4
330
18
100
AcDbEntity
  8
7：文字
 62
     7
 48
2.0
100
AcDbMText
 10
4315.174464084526
 20
991.0834887369079
 30
0.0
 40
15.0
 41
188.2662939976999
 46
0.0
 71
     1
 72
     5
  1
{\fMS PGothic|b0|i0|c128|p50;LP-2047CK-38N\PLP-2047CK-76N\PLP-2047CKP-76N\P\PLP-2047WK-38N}
 73
     1
 44
1.0
1001
ACAD
1000
ACAD_MTEXT_COLUMN_INFO_BEGIN
1070
    75
1070
     2
1070
    79
1070
     0
1070
    76
1070
     1
1070
    78
1070
     0
1070
    48
1040
188.2662939976999
1070
    49
1040
15.0
1070
    50
1070
     1
1040
0.0
1000
ACAD_MTEXT_COLUMN_INFO_END
  0
ENDSEC
  0
SECTION
  2
OBJECTS
  0
DICTIONARY
  5
C
330
0
100
AcDbDictionary
281
     1
  3
ACAD_CIP_PREVIOUS_PRODUCT_INFO
350
317C
  3
ACAD_COLOR
350
315C
  3
ACAD_DETAILVIEWSTYLE
350
3175
  3
ACAD_GROUP
350
D
  3
ACAD_LAYOUT
350
75E
  3
ACAD_MATERIAL
350
312A
  3
ACAD_MLEADERSTYLE
350
3171
  3
ACAD_MLINESTYLE
350
1B
  3
ACAD_PLOTSETTINGS
350
75F
  3
ACAD_PLOTSTYLENAME
350
75C
  3
ACAD_SCALELIST
350
315F
  3
ACAD_SECTIONVIEWSTYLE
350
3173
  3
ACAD_TABLESTYLE
350
315D
  3
ACAD_VISUALSTYLE
350
3143
  3
AcadDim
350
2413
  3
ACDB_RECOMPOSE_DATA
350
BDD7
  3
ACDBVARIABLEDICTIONARY
350
33
  3
CONTENTDICTIONARY
350
23
  0
DICTIONARY
  5
3A03
330
8
100
AcDbDictionary
280
     1
281
     1
  0
DICTIONARY
  5
320B
330
2
100
AcDbDictionary
280
     1
281
     1
  3
ACAD_LAYERSTATES
360
320C
  0
DICTIONARY
  5
39E7
330
E
100
AcDbDictionary
280
     1
281
     1
  3
ADSK_XREC_LAYER_RECONCILED
360
39E8
  0
DICTIONARY
  5
39E9
330
32A
100
AcDbDictionary
280
     1
281
     1
  3
ADSK_XREC_LAYER_RECONCILED
360
39EA
  0
DICTIONARY
  5
39EB
330
32C
100
AcDbDictionary
280
     1
281
     1
  3
ADSK_XREC_LAYER_RECONCILED
360
39EC
  0
DICTIONARY
  5
39EF
330
32E
100
AcDbDictionary
280
     1
281
     1
  3
ADSK_XREC_LAYER_RECONCILED
360
39F0
  0
DICTIONARY
  5
39F1
330
32F
100
AcDbDictionary
280
     1
281
     1
  3
ADSK_XREC_LAYER_RECONCILED
360
39F2
  0
DICTIONARY
  5
39F3
330
330
100
AcDbDictionary
280
     1
281
     1
  3
ADSK_XREC_LAYER_RECONCILED
360
39F4
  0
DICTIONARY
  5
39F5
330
331
100
AcDbDictionary
280
     1
281
     1
  3
ADSK_XREC_LAYER_RECONCILED
360
39F6
  0
DICTIONARY
  5
39F7
330
11B8
100
AcDbDictionary
280
     1
281
     1
  3
ADSK_XREC_LAYER_RECONCILED
360
39F8
  0
DICTIONARY
  5
39F9
330
138B
100
AcDbDictionary
280
     1
281
     1
  3
ADSK_XREC_LAYER_RECONCILED
360
39FA
  0
DICTIONARY
  5
39FB
330
23F8
100
AcDbDictionary
280
     1
281
     1
  3
ADSK_XREC_LAYER_RECONCILED
360
39FC
  0
DICTIONARY
  5
2C3D
330
2C3C
100
AcDbDictionary
280
     1
281
     1
  3
ADSK_XREC_LAYER_RECONCILED
360
2C3F
  0
DICTIONARY
  5
46A8
330
46A7
100
AcDbDictionary
280
     1
281
     1
  0
DICTIONARY
  5
9ADC
330
9ADB
100
AcDbDictionary
280
     1
281
     1
  0
DICTIONARY
  5
BDA9
330
BDA8
100
AcDbDictionary
280
     1
281
     1
  0
DICTIONARY
  5
4ABC
330
18
100
AcDbDictionary
280
     1
281
     1
  3
ACAD_SORTENTS
360
4B9F
  0
XRECORD
  5
317C
102
{ACAD_REACTORS
330
C
102
}
330
C
100
AcDbXrecord
280
     1
300
ACDLT
300
2014
300
ACDLT_F_S
  0
DICTIONARY
  5
315C
102
{ACAD_REACTORS
330
C
102
}
330
C
100
AcDbDictionary
281
     1
  0
DICTIONARY
  5
3175
102
{ACAD_REACTORS
330
C
102
}
330
C
100
AcDbDictionary
281
     1
  3
Imperial24
350
46AA
  3
Metric50
350
3176
  0
DICTIONARY
  5
D
102
{ACAD_REACTORS
330
C
102
}
330
C
100
AcDbDictionary
281
     1
  0
DICTIONARY
  5
75E
102
{ACAD_REACTORS
330
C
102
}
330
C
100
AcDbDictionary
281
     1
  3
Model
350
760
  3
ﾚｲｱｳﾄ1
350
761
  0
DICTIONARY
  5
312A
102
{ACAD_REACTORS
330
C
102
}
330
C
100
AcDbDictionary
281
     1
  3
ByBlock
350
3133
  3
ByLayer
350
312B
  3
Global
350
313B
  0
DICTIONARY
  5
3171
102
{ACAD_REACTORS
330
C
102
}
330
C
100
AcDbDictionary
281
     1
  3
Standard
350
3172
  0
DICTIONARY
  5
1B
102
{ACAD_REACTORS
330
C
102
}
330
C
100
AcDbDictionary
281
     1
  3
STANDARD
350
1C
  0
DICTIONARY
  5
75F
102
{ACAD_REACTORS
330
C
102
}
330
C
100
AcDbDictionary
281
     1
  3
M_A3_W
350
3ACC
  3
M_A3_W_PDF
350
3ACE
  3
M_A3_W_PDF_COLOR
350
3ACF
  3
M_A4_W
350
3AD0
  3
M_A4_W_BP
350
3AD2
  3
M_A4_W_PDF
350
3AD1
  0
ACDBDICTIONARYWDFLT
  5
75C
102
{ACAD_REACTORS
330
C
102
}
330
C
100
AcDbDictionary
281
     1
  3
Normal
350
75D
100
AcDbDictionaryWithDefault
340
75D
  0
DICTIONARY
  5
315F
102
{ACAD_REACTORS
330
C
102
}
330
C
100
AcDbDictionary
281
     1
  3
A0
350
3160
  3
A1
350
3161
  3
A2
350
3162
  3
A3
350
3163
  3
A4
350
3164
  3
A5
350
3165
  3
A6
350
3166
  3
A7
350
3167
  3
A8
350
3168
  3
A9
350
3169
  3
B0
350
316A
  3
B1
350
316B
  3
B2
350
316C
  3
B3
350
316D
  3
B4
350
316E
  3
B5
350
316F
  3
B6
350
3170
  0
DICTIONARY
  5
3173
102
{ACAD_REACTORS
330
C
102
}
330
C
100
AcDbDictionary
281
     1
  3
Imperial24
350
46A9
  3
Metric50
350
3174
  0
DICTIONARY
  5
315D
102
{ACAD_REACTORS
330
C
102
}
330
C
100
AcDbDictionary
281
     1
  3
Standard
350
315E
  0
DICTIONARY
  5
3143
102
{ACAD_REACTORS
330
C
102
}
330
C
100
AcDbDictionary
281
     1
  3
2dWireframe
350
3149
  3
Basic
350
3148
  3
Brighten
350
314F
  3
ColorChange
350
3153
  3
Conceptual
350
314C
  3
Dim
350
314E
  3
EdgeColorOff
350
315B
  3
Facepattern
350
3152
  3
Flat
350
3144
  3
FlatWithEdges
350
3145
  3
Gouraud
350
3146
  3
GouraudWithEdges
350
3147
  3
Hidden
350
314B
  3
JitterOff
350
3159
  3
Linepattern
350
3151
  3
OverhangOff
350
315A
  3
Realistic
350
314D
  3
Shaded
350
3158
  3
Shaded with edges
350
3157
  3
Shades of Gray
350
3154
  3
Sketchy
350
3155
  3
Thicken
350
3150
  3
Wireframe
350
314A
  3
X-Ray
350
3156
  0
XRECORD
  5
2413
102
{ACAD_REACTORS
330
C
102
}
330
C
100
AcDbXrecord
280
     1
 90
   990106
  3
OPEN
 60
     0
 61
     0
 62
     1
 63
     3
 64
     1
 65
     0
 66
     0
 67
     3
 68
     1
 69
     0
 70
     0
 71
     0
 72
     0
 40
0.0
170
     2
  0
XRECORD
  5
BDD7
102
{ACAD_REACTORS
330
C
102
}
330
C
100
AcDbXrecord
280
     1
 90
        1
330
315E
330
3174
330
3176
330
46A9
330
46AA
330
BDB4
  0
DICTIONARY
  5
33
102
{ACAD_REACTORS
330
C
102
}
330
C
100
AcDbDictionary
281
     1
  3
CANNOSCALE
350
3A56
  3
CMLEADERSTYLE
350
3A53
  3
CTABLESTYLE
350
3A52
  3
CVIEWDETAILSTYLE
350
3A54
  3
CVIEWSECTIONSTYLE
350
3A55
  3
DIMADEC
350
34
  3
DIMASSOC
350
23F7
  3
INDEXCTL
350
3A57
  3
LAYEREVAL
350
BD96
  3
LAYERNOTIFY
350
BD97
  3
LIGHTINGUNITS
350
BD95
  3
MSLTSCALE
350
BD94
  3
SORTENTS
350
1383
  0
DICTIONARY
  5
23
102
{ACAD_REACTORS
330
C
102
}
330
C
100
AcDbDictionary
281
     1
  0
DICTIONARY
  5
320C
102
{ACAD_REACTORS
330
320B
102
}
330
320B
100
AcDbDictionary
281
     1
  0
XRECORD
  5
39E8
102
{ACAD_REACTORS
330
39E7
102
}
330
39E7
100
AcDbXrecord
280
     1
290
     1
  0
XRECORD
  5
39EA
102
{ACAD_REACTORS
330
39E9
102
}
330
39E9
100
AcDbXrecord
280
     1
290
     1
  0
XRECORD
  5
39EC
102
{ACAD_REACTORS
330
39EB
102
}
330
39EB
100
AcDbXrecord
280
     1
290
     1
  0
XRECORD
  5
39F0
102
{ACAD_REACTORS
330
39EF
102
}
330
39EF
100
AcDbXrecord
280
     1
290
     1
  0
XRECORD
  5
39F2
102
{ACAD_REACTORS
330
39F1
102
}
330
39F1
100
AcDbXrecord
280
     1
290
     1
  0
XRECORD
  5
39F4
102
{ACAD_REACTORS
330
39F3
102
}
330
39F3
100
AcDbXrecord
280
     1
290
     1
  0
XRECORD
  5
39F6
102
{ACAD_REACTORS
330
39F5
102
}
330
39F5
100
AcDbXrecord
280
     1
290
     1
  0
XRECORD
  5
39F8
102
{ACAD_REACTORS
330
39F7
102
}
330
39F7
100
AcDbXrecord
280
     1
290
     1
  0
XRECORD
  5
39FA
102
{ACAD_REACTORS
330
39F9
102
}
330
39F9
100
AcDbXrecord
280
     1
290
     1
  0
XRECORD
  5
39FC
102
{ACAD_REACTORS
330
39FB
102
}
330
39FB
100
AcDbXrecord
280
     1
290
     1
  0
XRECORD
  5
2C3F
102
{ACAD_REACTORS
330
2C3D
102
}
330
2C3D
100
AcDbXrecord
280
     1
290
     1
  0
SORTENTSTABLE
  5
4B9F
102
{ACAD_REACTORS
330
4ABC
102
}
330
4ABC
100
AcDbSortentsTable
330
18
331
37F7
  5
37F7
  0
ACDBDETAILVIEWSTYLE
  5
46AA
102
{ACAD_XDICTIONARY
360
BD9F
102
}
102
{ACAD_REACTORS
330
3175
102
}
330
3175
100
AcDbModelDocViewStyle
 70
     0
  3
Imperial24
290
     0
100
AcDbDetailViewStyle
 70
     0
 71
     0
 90
        3
 71
     1
340
F
 62
   256
 40
0.24
340
0
 62
   256
 40
0.24
300

 40
0.36
280
     3
 71
     2
340
14
 90
       25
 62
   256
 71
     3
340
F
 62
   256
 40
0.24
 90
        1
 40
0.75
 90
        1
300
%<\AcVar ViewType \f "%tc1">% %<\AcVar ViewDetailId>%\PSCALE %<\AcVar ViewScale \f "%sn">%
 71
     4
340
14
 90
       25
 62
   256
340
14
 90
       25
 62
   256
280
     0
  0
ACDBDETAILVIEWSTYLE
  5
3176
102
{ACAD_XDICTIONARY
360
BD9B
102
}
102
{ACAD_REACTORS
330
3175
102
}
330
3175
100
AcDbModelDocViewStyle
 70
     0
  3
Metric50
290
     0
100
AcDbDetailViewStyle
 70
     0
 71
     0
 90
        3
 71
     1
340
F
 62
   256
 40
5.0
340
0
 62
   256
 40
5.0
300

 40
0.0
280
     1
 71
     2
340
14
 90
       25
 62
   256
 71
     3
340
F
 62
   256
 40
5.0
 90
        0
 40
15.0
 90
        1
300
%<\AcVar ViewDetailId>% (%<\AcVar ViewScale \f "%sn">%)
 71
     4
340
14
 90
       25
 62
   256
340
14
 90
       25
 62
   256
280
     0
  0
LAYOUT
  5
760
102
{ACAD_REACTORS
330
75E
102
}
330
75E
100
AcDbPlotSettings
  1

  2
CubePDF
  4
A3
  6

 40
3.174999952316281
 41
3.174999952316281
 42
3.17498779296875
 43
3.17498779296875
 44
297.0318298339844
 45
420.1583251953125
 46
2.707958475983104
 47
2.782260315641224
 48
2711.18630137626
 49
1089.804529389952
140
4343.90630137626
141
2230.764529389952
142
1.0
143
4.0
 70
  3748
 72
     1
 73
     1
 74
     1
  7
TAGAI1.CTB
 75
     0
147
0.2534075963934029
 76
     0
 77
     2
 78
   300
148
-2710.997480698888
149
51.2068322146001
100
AcDbLayout
  1
Model
 70
     1
 71
     0
 10
0.0
 20
0.0
 11
12.0
 21
9.0
 12
0.0
 22
0.0
 32
0.0
 14
0.0
 24
0.0
 34
0.0
 15
0.0
 25
0.0
 35
0.0
146
0.0
 13
0.0
 23
0.0
 33
0.0
 16
1.0
 26
0.0
 36
0.0
 17
0.0
 27
1.0
 37
0.0
 76
     0
330
18
331
3128
1001
ACAD_PSEXT
1000
CubePDF
1000
CubePDF
1000
CubePDF:
1000
CubePDF
1070
     0
  0
LAYOUT
  5
761
102
{ACAD_REACTORS
330
75E
102
}
330
75E
100
AcDbPlotSettings
  1

  2
Canon LASER SHOT LBP-850
  4

  6

 40
0.0
 41
0.0
 42
0.0
 43
0.0
 44
0.0
 45
0.0
 46
0.0
 47
0.0
 48
0.0
 49
0.0
140
0.0
141
0.0
142
1.0
143
1.0
 70
   688
 72
     0
 73
     0
 74
     5
  7
tagai1.ctb
 75
    16
147
1.0
 76
     0
 77
     2
 78
   300
148
0.0
149
0.0
100
AcDbLayout
  1
ﾚｲｱｳﾄ1
 70
     1
 71
     1
 10
0.0
 20
0.0
 11
420.0
 21
297.0
 12
0.0
 22
0.0
 32
0.0
 14
1.000000000000000E+20
 24
1.000000000000000E+20
 34
1.000000000000000E+20
 15
-1.000000000000000E+20
 25
-1.000000000000000E+20
 35
-1.000000000000000E+20
146
0.0
 13
0.0
 23
0.0
 33
0.0
 16
1.0
 26
0.0
 36
0.0
 17
0.0
 27
1.0
 37
0.0
 76
     0
330
15
  0
MATERIAL
  5
3133
102
{ACAD_XDICTIONARY
360
3134
102
}
102
{ACAD_REACTORS
330
312A
102
}
330
312A
100
AcDbMaterial
  1
ByBlock
 72
     0
 43
0.0208333333333333
 43
0.0
 43
0.0
 43
0.0
 43
0.0
 43
0.0208333333333333
 43
0.0
 43
0.0
 43
0.0
 43
0.0
 43
1.0
 43
0.0
 43
0.0
 43
0.0
 43
0.0
 43
1.0
 77
     0
 47
0.0208333333333333
 47
0.0
 47
0.0
 47
0.0
 47
0.0
 47
0.0208333333333333
 47
0.0
 47
0.0
 47
0.0
 47
0.0
 47
1.0
 47
0.0
 47
0.0
 47
0.0
 47
0.0
 47
1.0
171
     0
 49
0.0208333333333333
 49
0.0
 49
0.0
 49
0.0
 49
0.0
 49
0.0208333333333333
 49
0.0
 49
0.0
 49
0.0
 49
0.0
 49
1.0
 49
0.0
 49
0.0
 49
0.0
 49
0.0
 49
1.0
175
     0
142
0.0208333333333333
142
0.0
142
0.0
142
0.0
142
0.0
142
0.0208333333333333
142
0.0
142
0.0
142
0.0
142
0.0
142
1.0
142
0.0
142
0.0
142
0.0
142
0.0
142
1.0
179
     0
144
0.0208333333333333
144
0.0
144
0.0
144
0.0
144
0.0
144
0.0208333333333333
144
0.0
144
0.0
144
0.0
144
0.0
144
1.0
144
0.0
144
0.0
144
0.0
144
0.0
144
1.0
147
0.0208333333333333
147
0.0
147
0.0
147
0.0
147
0.0
147
0.0208333333333333
147
0.0
147
0.0
147
0.0
147
0.0
147
1.0
147
0.0
147
0.0
147
0.0
147
0.0
147
1.0
  0
MATERIAL
  5
312B
102
{ACAD_XDICTIONARY
360
312C
102
}
102
{ACAD_REACTORS
330
312A
102
}
330
312A
100
AcDbMaterial
  1
ByLayer
 72
     0
 43
0.0208333333333333
 43
0.0
 43
0.0
 43
0.0
 43
0.0
 43
0.0208333333333333
 43
0.0
 43
0.0
 43
0.0
 43
0.0
 43
1.0
 43
0.0
 43
0.0
 43
0.0
 43
0.0
 43
1.0
 77
     0
 47
0.0208333333333333
 47
0.0
 47
0.0
 47
0.0
 47
0.0
 47
0.0208333333333333
 47
0.0
 47
0.0
 47
0.0
 47
0.0
 47
1.0
 47
0.0
 47
0.0
 47
0.0
 47
0.0
 47
1.0
171
     0
 49
0.0208333333333333
 49
0.0
 49
0.0
 49
0.0
 49
0.0
 49
0.0208333333333333
 49
0.0
 49
0.0
 49
0.0
 49
0.0
 49
1.0
 49
0.0
 49
0.0
 49
0.0
 49
0.0
 49
1.0
175
     0
142
0.0208333333333333
142
0.0
142
0.0
142
0.0
142
0.0
142
0.0208333333333333
142
0.0
142
0.0
142
0.0
142
0.0
142
1.0
142
0.0
142
0.0
142
0.0
142
0.0
142
1.0
179
     0
144
0.0208333333333333
144
0.0
144
0.0
144
0.0
144
0.0
144
0.0208333333333333
144
0.0
144
0.0
144
0.0
144
0.0
144
1.0
144
0.0
144
0.0
144
0.0
144
0.0
144
1.0
147
0.0208333333333333
147
0.0
147
0.0
147
0.0
147
0.0
147
0.0208333333333333
147
0.0
147
0.0
147
0.0
147
0.0
147
1.0
147
0.0
147
0.0
147
0.0
147
0.0
147
1.0
  0
MATERIAL
  5
313B
102
{ACAD_XDICTIONARY
360
313C
102
}
102
{ACAD_REACTORS
330
312A
102
}
330
312A
100
AcDbMaterial
  1
Global
 72
     0
 43
0.0208333333333333
 43
0.0
 43
0.0
 43
0.0
 43
0.0
 43
0.0208333333333333
 43
0.0
 43
0.0
 43
0.0
 43
0.0
 43
1.0
 43
0.0
 43
0.0
 43
0.0
 43
0.0
 43
1.0
 77
     0
 47
0.0208333333333333
 47
0.0
 47
0.0
 47
0.0
 47
0.0
 47
0.0208333333333333
 47
0.0
 47
0.0
 47
0.0
 47
0.0
 47
1.0
 47
0.0
 47
0.0
 47
0.0
 47
0.0
 47
1.0
171
     0
 49
0.0208333333333333
 49
0.0
 49
0.0
 49
0.0
 49
0.0
 49
0.0208333333333333
 49
0.0
 49
0.0
 49
0.0
 49
0.0
 49
1.0
 49
0.0
 49
0.0
 49
0.0
 49
0.0
 49
1.0
175
     0
142
0.0208333333333333
142
0.0
142
0.0
142
0.0
142
0.0
142
0.0208333333333333
142
0.0
142
0.0
142
0.0
142
0.0
142
1.0
142
0.0
142
0.0
142
0.0
142
0.0
142
1.0
179
     0
144
0.0208333333333333
144
0.0
144
0.0
144
0.0
144
0.0
144
0.0208333333333333
144
0.0
144
0.0
144
0.0
144
0.0
144
1.0
144
0.0
144
0.0
144
0.0
144
0.0
144
1.0
147
0.0208333333333333
147
0.0
147
0.0
147
0.0
147
0.0
147
0.0208333333333333
147
0.0
147
0.0
147
0.0
147
0.0
147
1.0
147
0.0
147
0.0
147
0.0
147
0.0
147
1.0
  0
MLEADERSTYLE
  5
3172
102
{ACAD_REACTORS
330
3171
102
}
330
3171
100
AcDbMLeaderStyle
179
     2
170
     2
171
     1
172
     0
 90
        2
 40
0.0
 41
0.0
173
     1
 91
-1056964608
340
12
 92
       -2
290
     1
 42
2.0
291
     1
 43
0.36
  3
Standard
 44
4.0
300

342
F
174
     1
178
     6
175
     1
176
     0
 93
-1056964608
 45
4.0
292
     0
297
     0
 46
4.0
 94
-1056964608
 47
1.0
 49
1.0
140
1.0
293
     1
141
0.0
294
     1
177
     0
142
1.0
295
     0
296
     0
143
0.125
271
     0
272
     9
273
     9
298
     1
  0
MLINESTYLE
  5
1C
102
{ACAD_REACTORS
330
1B
102
}
330
1B
100
AcDbMlineStyle
  2
STANDARD
 70
     0
  3

 62
   256
 51
90.0
 52
90.0
 71
     2
 49
0.5
 62
   256
  6
BYLAYER
 49
-0.5
 62
   256
  6
BYLAYER
  0
PLOTSETTINGS
  5
3ACC
102
{ACAD_REACTORS
330
75F
102
}
330
75F
100
AcDbPlotSettings
  1
M_A3_W
  2
EPSON LP-S3000
  4
A3
  6

 40
5.873749732971191
 41
5.873747825622557
 42
5.87371826171875
 43
5.873748779296875
 44
297.0106506347656
 45
419.9466552734373
 46
0.0079587156531034
 47
0.0
 48
0.6602245427074767
 49
2.274885139995582
140
11080.66022454271
141
15602.27488513999
142
1.0
143
1.000055580778407
 70
  3764
 72
     1
 73
     1
 74
     1
  7
TAGAI1.CTB
 75
     0
147
0.9999444223106431
 76
     0
 77
     2
 78
   300
148
0.0249139833362051
149
0.0087050081928055
1001
ACAD_PSEXT
1000
EPSON LP-S3000
1000
EPSON LP-S3000
1000
IP_192.168.4.202
1000

1070
     0
  0
PLOTSETTINGS
  5
3ACE
102
{ACAD_REACTORS
330
75F
102
}
330
75F
100
AcDbPlotSettings
  1
M_A3_W_PDF
  2
CubePDF
  4
A3
  6

 40
3.174999952316281
 41
3.174999952316281
 42
3.17498779296875
 43
3.17498779296875
 44
297.0318298339844
 45
420.1583251953125
 46
0.7574572233700394
 47
0.0
 48
0.6602245427074767
 49
2.274885139995582
140
11080.66022454271
141
15602.27488513999
142
1.0
143
0.986454646906467
 70
  3764
 72
     1
 73
     1
 74
     1
  7
TAGAI1.CTB
 75
     0
147
1.013731349065069
 76
     0
 77
     2
 78
   300
148
0.0062252642686644
149
-0.0043545630755943
1001
ACAD_PSEXT
1000
CubePDF
1000
CubePDF
1000
CubePDF:
1000
CubePDF
1070
     0
  0
PLOTSETTINGS
  5
3ACF
102
{ACAD_REACTORS
330
75F
102
}
330
75F
100
AcDbPlotSettings
  1
M_A3_W_PDF_COLOR
  2
CubePDF
  4
A3
  6

 40
3.174999952316281
 41
3.174999952316281
 42
3.17498779296875
 43
3.17498779296875
 44
297.0318298339844
 45
420.1583251953125
 46
0.7574572233700394
 47
0.0
 48
0.6602245427074767
 49
2.274885139995582
140
11080.66022454271
141
15602.27488513999
142
1.0
143
0.986454646906467
 70
  3732
 72
     1
 73
     1
 74
     1
  7

 75
     0
147
1.013731349065069
 76
     0
 77
     2
 78
   300
148
0.0062252642686644
149
-0.0043545630755943
1001
ACAD_PSEXT
1000
CubePDF
1000
CubePDF
1000
CubePDF:
1000
CubePDF
1070
     0
  0
PLOTSETTINGS
  5
3AD0
102
{ACAD_REACTORS
330
75F
102
}
330
75F
100
AcDbPlotSettings
  1
M_A4_W
  2
EPSON LP-S3000
  4
A4
  6

 40
5.873749732971191
 41
5.873717308044432
 42
5.873748779296875
 43
5.873748779296875
 44
209.9733276367186
 45
297.0106506347656
 46
0.0
 47
0.7974249667111338
 48
0.6602245427074767
 49
2.274885139995582
140
11080.66022454271
141
15602.27488513999
142
1.0
143
1.439081479612396
 70
  3764
 72
     1
 73
     1
 74
     1
  7
TAGAI1.CTB
 75
     0
147
0.6948876864632718
 76
     0
 77
     2
 78
   300
148
0.0249139833362051
149
0.0087050081928055
1001
ACAD_PSEXT
1000
EPSON LP-S3000
1000
EPSON LP-S3000
1000
IP_192.168.4.202
1000

1070
     0
  0
PLOTSETTINGS
  5
3AD2
102
{ACAD_REACTORS
330
75F
102
}
330
75F
100
AcDbPlotSettings
  1
M_A4_W_BP
  2
EPSON LP-S3000.pc3
  4
A4
  6

 40
5.873749732971191
 41
5.873717308044432
 42
5.873748779296875
 43
5.873748779296875
 44
209.9733276367186
 45
297.0106506347656
 46
0.0
 47
0.7974249667111338
 48
0.6602245427074767
 49
2.274885139995582
140
11080.66022454271
141
15602.27488513999
142
1.0
143
1.439081479612396
 70
  3764
 72
     1
 73
     1
 74
     1
  7
TAGAI1.CTB
 75
     0
147
0.6948876864632718
 76
     0
 77
     2
 78
   300
148
0.0249139833362051
149
0.0087050081928055
1001
ACAD_PSEXT
1000
EPSON LP-S3000.pc3
1000
EPSON LP-S3000
1000
IP_192.168.4.202
1000

1070
     0
  0
PLOTSETTINGS
  5
3AD1
102
{ACAD_REACTORS
330
75F
102
}
330
75F
100
AcDbPlotSettings
  1
M_A4_W_PDF
  2
CubePDF
  4
A4
  6

 40
3.174999952316281
 41
3.174999952316281
 42
3.175003051757812
 43
3.17498779296875
 44
209.9098358154297
 45
297.0318298339844
 46
0.2149517764183457
 47
0.0
 48
0.6602245427074767
 49
2.274885139995582
140
11080.66022454271
141
15602.27488513999
142
1.0
143
1.404338201244389
 70
  3764
 72
     1
 73
     1
 74
     1
  7
TAGAI1.CTB
 75
     0
147
0.7120791837136498
 76
     0
 77
     2
 78
   300
148
0.0186822558410995
149
0.0087050081928055
1001
ACAD_PSEXT
1000
CubePDF
1000
CubePDF
1000
CubePDF:
1000
CubePDF
1070
     0
  0
ACDBPLACEHOLDER
  5
75D
102
{ACAD_REACTORS
330
75C
102
}
330
75C
  0
SCALE
  5
3160
102
{ACAD_REACTORS
330
315F
102
}
330
315F
100
AcDbScale
 70
     0
300
1:1
140
1.0
141
1.0
290
     1
  0
SCALE
  5
3161
102
{ACAD_REACTORS
330
315F
102
}
330
315F
100
AcDbScale
 70
     0
300
1:2
140
1.0
141
2.0
290
     0
  0
SCALE
  5
3162
102
{ACAD_REACTORS
330
315F
102
}
330
315F
100
AcDbScale
 70
     0
300
1:4
140
1.0
141
4.0
290
     0
  0
SCALE
  5
3163
102
{ACAD_REACTORS
330
315F
102
}
330
315F
100
AcDbScale
 70
     0
300
1:5
140
1.0
141
5.0
290
     0
  0
SCALE
  5
3164
102
{ACAD_REACTORS
330
315F
102
}
330
315F
100
AcDbScale
 70
     0
300
1:8
140
1.0
141
8.0
290
     0
  0
SCALE
  5
3165
102
{ACAD_REACTORS
330
315F
102
}
330
315F
100
AcDbScale
 70
     0
300
1:10
140
1.0
141
10.0
290
     0
  0
SCALE
  5
3166
102
{ACAD_REACTORS
330
315F
102
}
330
315F
100
AcDbScale
 70
     0
300
1:16
140
1.0
141
16.0
290
     0
  0
SCALE
  5
3167
102
{ACAD_REACTORS
330
315F
102
}
330
315F
100
AcDbScale
 70
     0
300
1:20
140
1.0
141
20.0
290
     0
  0
SCALE
  5
3168
102
{ACAD_REACTORS
330
315F
102
}
330
315F
100
AcDbScale
 70
     0
300
1:30
140
1.0
141
30.0
290
     0
  0
SCALE
  5
3169
102
{ACAD_REACTORS
330
315F
102
}
330
315F
100
AcDbScale
 70
     0
300
1:40
140
1.0
141
40.0
290
     0
  0
SCALE
  5
316A
102
{ACAD_REACTORS
330
315F
102
}
330
315F
100
AcDbScale
 70
     0
300
1:50
140
1.0
141
50.0
290
     0
  0
SCALE
  5
316B
102
{ACAD_REACTORS
330
315F
102
}
330
315F
100
AcDbScale
 70
     0
300
1:100
140
1.0
141
100.0
290
     0
  0
SCALE
  5
316C
102
{ACAD_REACTORS
330
315F
102
}
330
315F
100
AcDbScale
 70
     0
300
2:1
140
2.0
141
1.0
290
     0
  0
SCALE
  5
316D
102
{ACAD_REACTORS
330
315F
102
}
330
315F
100
AcDbScale
 70
     0
300
4:1
140
4.0
141
1.0
290
     0
  0
SCALE
  5
316E
102
{ACAD_REACTORS
330
315F
102
}
330
315F
100
AcDbScale
 70
     0
300
8:1
140
8.0
141
1.0
290
     0
  0
SCALE
  5
316F
102
{ACAD_REACTORS
330
315F
102
}
330
315F
100
AcDbScale
 70
     0
300
10:1
140
10.0
141
1.0
290
     0
  0
SCALE
  5
3170
102
{ACAD_REACTORS
330
315F
102
}
330
315F
100
AcDbScale
 70
     0
300
100:1
140
100.0
141
1.0
290
     0
  0
ACDBSECTIONVIEWSTYLE
  5
46A9
102
{ACAD_XDICTIONARY
360
BD9D
102
}
102
{ACAD_REACTORS
330
3173
102
}
330
3173
100
AcDbModelDocViewStyle
 70
     0
  3
Imperial24
290
     0
100
AcDbSectionViewStyle
 70
     0
 71
     0
 90
       78
 71
     1
340
F
 62
   256
 40
0.24
340
0
340
0
 62
   256
 40
0.24
300
I, O, Q, S, X, Z
 40
0.48
 90
        3
 40
0.18
 90
        1
 71
     2
340
14
 90
       25
 62
   256
340
14
 90
       50
 62
   256
 40
0.24
 40
0.0
 40
0.24
 71
     3
340
F
 62
   256
 40
0.24
 90
        1
 40
0.75
 90
        1
300
%<\AcVar ViewType \f "%tc1">% %<\AcVar ViewSectionStartId>%-%<\AcVar ViewSectionEndId>%\PSCALE %<\AcVar ViewScale \f "%sn">%
 71
     4
 62
   256
 62
   257
300
ANSI31
 40
1.0
 90
        0
290
     0
290
     0
 90
        6
 40
0.0
 40
1.570796326794896
 40
0.2617993877991494
 40
1.308996938995747
 40
-0.2617993877991494
 40
1.832595714594044
  0
ACDBSECTIONVIEWSTYLE
  5
3174
102
{ACAD_XDICTIONARY
360
BD99
102
}
102
{ACAD_REACTORS
330
3173
102
}
330
3173
100
AcDbModelDocViewStyle
 70
     0
  3
Metric50
290
     0
100
AcDbSectionViewStyle
 70
     0
 71
     0
 90
      102
 71
     1
340
F
 62
   256
 40
5.0
340
0
340
0
 62
   256
 40
5.0
300
I, O, Q, S, X, Z
 40
10.0
 90
        0
 40
2.5
 90
        0
 71
     2
340
14
 90
       25
 62
   256
340
14
 90
       50
 62
   256
 40
5.0
 40
2.5
 40
5.0
 71
     3
340
F
 62
   256
 40
5.0
 90
        0
 40
15.0
 90
        1
300
%<\AcVar ViewSectionStartId>%-%<\AcVar ViewSectionEndId>% (%<\AcVar ViewScale \f "%sn">%)
 71
     4
 62
   256
 62
   257
300
ANSI31
 40
1.0
 90
        0
290
     0
290
     0
 90
        6
 40
0.0
 40
1.570796326794896
 40
0.2617993877991494
 40
1.308996938995747
 40
-0.2617993877991494
 40
1.832595714594044
  0
TABLESTYLE
  5
315E
102
{ACAD_XDICTIONARY
360
39FF
102
}
102
{ACAD_REACTORS
330
315D
102
}
330
315D
100
AcDbTableStyle
280
     0
  3
Standard
 70
     0
 71
     0
 40
1.5
 41
1.5
280
     0
281
     0
  7
STANDARD
140
4.5
170
     2
 62
     0
 63
     7
283
     0
 90
      512
 91
        0
  1

274
    -2
284
     1
 64
     0
275
    -2
285
     1
 65
     0
276
    -2
286
     1
 66
     0
277
    -2
287
     1
 67
     0
278
    -2
288
     1
 68
     0
279
    -2
289
     1
 69
     0
  7
STANDARD
140
6.0
170
     5
 62
     0
 63
     7
283
     0
 90
      512
 91
        0
  1

274
    -2
284
     1
 64
     0
275
    -2
285
     1
 65
     0
276
    -2
286
     1
 66
     0
277
    -2
287
     1
 67
     0
278
    -2
288
     1
 68
     0
279
    -2
289
     1
 69
     0
  7
STANDARD
140
4.5
170
     5
 62
     0
 63
     7
283
     0
 90
      512
 91
        0
  1

274
    -2
284
     1
 64
     0
275
    -2
285
     1
 65
     0
276
    -2
286
     1
 66
     0
277
    -2
287
     1
 67
     0
278
    -2
288
     1
 68
     0
279
    -2
289
     1
 69
     0
  0
VISUALSTYLE
  5
3149
102
{ACAD_REACTORS
330
3143
102
}
330
3143
100
AcDbVisualStyle
  2
2dWireframe
 70
     4
177
     3
291
     0
 70
    58
 90
        0
176
     1
 90
        2
176
     1
 90
        0
176
     1
 90
        0
176
     1
 40
0.6
176
     1
 40
30.0
176
     1
 62
     7
176
     1
 90
        1
176
     1
 90
        4
176
     1
 62
     7
176
     1
 62
   257
176
     1
 90
        1
176
     1
 90
        1
176
     1
 40
1.0
176
     1
 90
        0
176
     1
 62
   257
176
     1
 40
1.0
176
     1
 90
        1
176
     1
 90
        6
176
     1
 90
        2
176
     1
 62
     7
176
     1
 90
        5
176
     1
 90
        0
176
     1
 90
        0
176
     1
290
     0
176
     1
 90
        1
176
     1
 40
0.0
176
     1
 90
        0
176
     1
290
     1
176
     1
290
     1
176
     1
290
     0
176
     1
290
     0
176
     1
290
     0
176
     1
290
     0
176
     1
290
     0
176
     1
290
     0
176
     1
290
     0
176
     1
 90
       50
176
     1
 40
0.0
176
     1
 40
1.0
176
     1
 90
        0
176
     1
 62
    18
176
     1
 90
       50
176
     1
 90
        3
176
     1
 62
     5
420
      255
176
     1
290
     0
176
     1
 90
       50
176
     1
 90
       50
176
     1
 90
       50
176
     1
290
     0
176
     1
 90
       50
176
     1
 62
   256
176
     0
 40
1.0
176
     0
 90
        2
176
     1
  1
strokes_ogs.tif
176
     1
290
     0
176
     1
 40
1.0
176
     1
 40
1.0
176
     1
  0
VISUALSTYLE
  5
3148
102
{ACAD_REACTORS
330
3143
102
}
330
3143
100
AcDbVisualStyle
  2
Basic
 70
     7
177
     3
291
     1
 70
    58
 90
        1
176
     1
 90
        0
176
     1
 90
        1
176
     1
 90
        0
176
     1
 40
0.6
176
     1
 40
30.0
176
     1
 62
     7
176
     1
 90
        0
176
     1
 90
        4
176
     1
 62
     7
176
     1
 62
   257
176
     1
 90
        1
176
     1
 90
        1
176
     1
 40
1.0
176
     1
 90
        8
176
     1
 62
     7
176
     1
 40
1.0
176
     1
 90
        1
176
     1
 90
        6
176
     1
 90
        2
176
     1
 62
     7
176
     1
 90
        5
176
     1
 90
        0
176
     1
 90
        0
176
     1
290
     0
176
     1
 90
        1
176
     1
 40
0.0
176
     1
 90
        0
176
     1
290
     0
176
     1
290
     1
176
     1
290
     1
176
     1
290
     0
176
     1
290
     0
176
     1
290
     0
176
     1
290
     0
176
     1
290
     0
176
     1
290
     0
176
     1
 90
       50
176
     1
 40
0.0
176
     1
 40
1.0
176
     1
 90
        0
176
     1
 62
    18
176
     1
 90
       50
176
     1
 90
        3
176
     1
 62
     5
420
      255
176
     1
290
     0
176
     1
 90
       50
176
     1
 90
       50
176
     1
 90
       50
176
     1
290
     0
176
     1
 90
       50
176
     1
 62
   256
176
     0
 40
1.0
176
     0
 90
        2
176
     1
  1
strokes_ogs.tif
176
     1
290
     0
176
     1
 40
1.0
176
     1
 40
1.0
176
     1
  0
VISUALSTYLE
  5
314F
102
{ACAD_REACTORS
330
3143
102
}
330
3143
100
AcDbVisualStyle
  2
Brighten
 70
    12
177
     3
291
     1
 70
    58
 90
        2
176
     1
 90
        2
176
     1
 90
        0
176
     1
 90
        0
176
     1
 40
0.6
176
     1
 40
30.0
176
     1
 62
     7
176
     1
 90
        1
176
     1
 90
        4
176
     1
 62
     7
176
     1
 62
   257
176
     1
 90
        1
176
     1
 90
        1
176
     1
 40
1.0
176
     1
 90
        8
176
     1
 62
     7
176
     1
 40
1.0
176
     1
 90
        1
176
     1
 90
        6
176
     1
 90
        2
176
     1
 62
     7
176
     1
 90
        5
176
     1
 90
        0
176
     1
 90
        0
176
     1
290
     0
176
     1
 90
        1
176
     1
 40
50.0
176
     1
 90
        0
176
     1
290
     0
176
     1
290
     1
176
     1
290
     1
176
     1
290
     0
176
     1
290
     0
176
     1
290
     0
176
     1
290
     0
176
     1
290
     0
176
     1
290
     0
176
     1
 90
       50
176
     1
 40
0.0
176
     1
 40
1.0
176
     1
 90
        0
176
     1
 62
    18
176
     1
 90
       50
176
     1
 90
        3
176
     1
 62
     5
420
      255
176
     1
290
     0
176
     1
 90
       50
176
     1
 90
       50
176
     1
 90
       50
176
     1
290
     0
176
     1
 90
       50
176
     1
 62
   256
176
     0
 40
1.0
176
     0
 90
        2
176
     1
  1
strokes_ogs.tif
176
     1
290
     0
176
     1
 40
1.0
176
     1
 40
1.0
176
     1
  0
VISUALSTYLE
  5
3153
102
{ACAD_REACTORS
330
3143
102
}
330
3143
100
AcDbVisualStyle
  2
ColorChange
 70
    16
177
     3
291
     1
 70
    58
 90
        2
176
     1
 90
        2
176
     1
 90
        3
176
     1
 90
        0
176
     1
 40
0.6
176
     1
 40
30.0
176
     1
 62
     8
176
     1
 90
        1
176
     1
 90
        4
176
     1
 62
     7
176
     1
 62
   257
176
     1
 90
        1
176
     1
 90
        1
176
     1
 40
1.0
176
     1
 90
        8
176
     1
 62
     8
176
     1
 40
1.0
176
     1
 90
        1
176
     1
 90
        6
176
     1
 90
        2
176
     1
 62
     7
176
     1
 90
        5
176
     1
 90
        0
176
     1
 90
        0
176
     1
290
     0
176
     1
 90
        1
176
     1
 40
0.0
176
     1
 90
        0
176
     1
290
     0
176
     1
290
     1
176
     1
290
     1
176
     1
290
     0
176
     1
290
     0
176
     1
290
     0
176
     1
290
     0
176
     1
290
     0
176
     1
290
     0
176
     1
 90
       50
176
     1
 40
0.0
176
     1
 40
1.0
176
     1
 90
        0
176
     1
 62
    18
176
     1
 90
       50
176
     1
 90
        3
176
     1
 62
     5
420
      255
176
     1
290
     0
176
     1
 90
       50
176
     1
 90
       50
176
     1
 90
       50
176
     1
290
     0
176
     1
 90
       50
176
     1
 62
   256
176
     0
 40
1.0
176
     0
 90
        2
176
     1
  1
strokes_ogs.tif
176
     1
290
     0
176
     1
 40
1.0
176
     1
 40
1.0
176
     1
  0
VISUALSTYLE
  5
314C
102
{ACAD_REACTORS
330
3143
102
}
330
3143
100
AcDbVisualStyle
  2
Conceptual
 70
     9
177
     3
291
     0
 70
    58
 90
        3
176
     1
 90
        2
176
     1
 90
        0
176
     1
 90
        0
176
     1
 40
0.6
176
     1
 40
30.0
176
     1
 62
     7
176
     1
 90
        2
176
     1
 90
        2
176
     1
 62
     7
176
     1
 62
   257
176
     1
 90
        1
176
     1
 90
        1
176
     1
 40
179.0
176
     1
 90
        8
176
     1
 62
     7
176
     1
 40
1.0
176
     1
 90
        1
176
     1
 90
        6
176
     1
 90
        2
176
     1
 62
     7
176
     1
 90
        3
176
     1
 90
        0
176
     1
 90
        0
176
     1
290
     0
176
     1
 90
        1
176
     1
 40
0.0
176
     1
 90
        0
176
     1
290
     0
176
     1
290
     1
176
     1
290
     1
176
     1
290
     0
176
     1
290
     0
176
     1
290
     0
176
     1
290
     0
176
     1
290
     0
176
     1
290
     0
176
     1
 90
       50
176
     1
 40
0.0
176
     1
 40
1.0
176
     1
 90
        0
176
     1
 62
    18
176
     1
 90
       50
176
     1
 90
        3
176
     1
 62
     5
420
      255
176
     1
290
     0
176
     1
 90
       50
176
     1
 90
       50
176
     1
 90
       50
176
     1
290
     0
176
     1
 90
       50
176
     1
 62
   256
176
     0
 40
1.0
176
     0
 90
        2
176
     1
  1
strokes_ogs.tif
176
     1
290
     0
176
     1
 40
1.0
176
     1
 40
1.0
176
     1
  0
VISUALSTYLE
  5
314E
102
{ACAD_REACTORS
330
3143
102
}
330
3143
100
AcDbVisualStyle
  2
Dim
 70
    11
177
     3
291
     1
 70
    58
 90
        2
176
     1
 90
        2
176
     1
 90
        0
176
     1
 90
        0
176
     1
 40
0.6
176
     1
 40
30.0
176
     1
 62
     7
176
     1
 90
        1
176
     1
 90
        4
176
     1
 62
     7
176
     1
 62
   257
176
     1
 90
        1
176
     1
 90
        1
176
     1
 40
1.0
176
     1
 90
        8
176
     1
 62
     7
176
     1
 40
1.0
176
     1
 90
        1
176
     1
 90
        6
176
     1
 90
        2
176
     1
 62
     7
176
     1
 90
        5
176
     1
 90
        0
176
     1
 90
        0
176
     1
290
     0
176
     1
 90
        1
176
     1
 40
-50.0
176
     1
 90
        0
176
     1
290
     0
176
     1
290
     1
176
     1
290
     1
176
     1
290
     0
176
     1
290
     0
176
     1
290
     0
176
     1
290
     0
176
     1
290
     0
176
     1
290
     0
176
     1
 90
       50
176
     1
 40
0.0
176
     1
 40
1.0
176
     1
 90
        0
176
     1
 62
    18
176
     1
 90
       50
176
     1
 90
        3
176
     1
 62
     5
420
      255
176
     1
290
     0
176
     1
 90
       50
176
     1
 90
       50
176
     1
 90
       50
176
     1
290
     0
176
     1
 90
       50
176
     1
 62
   256
176
     0
 40
1.0
176
     0
 90
        2
176
     1
  1
strokes_ogs.tif
176
     1
290
     0
176
     1
 40
1.0
176
     1
 40
1.0
176
     1
  0
VISUALSTYLE
  5
315B
102
{ACAD_REACTORS
330
3143
102
}
330
3143
100
AcDbVisualStyle
  2
EdgeColorOff
 70
    22
177
     3
291
     1
 70
    58
 90
        2
176
     0
 90
        2
176
     0
 90
        0
176
     0
 90
        0
176
     0
 40
0.6
176
     0
 40
30.0
176
     0
 62
     7
176
     0
 90
        1
176
     0
 90
        4
176
     0
 62
     7
176
     0
 62
   257
176
     0
 90
        1
176
     0
 90
        1
176
     0
 40
1.0
176
     0
 90
        8
176
     2
 62
     7
176
     0
 40
1.0
176
     0
 90
        1
176
     0
 90
        6
176
     0
 90
        2
176
     0
 62
     7
176
     0
 90
        5
176
     0
 90
        0
176
     0
 90
        0
176
     0
290
     0
176
     0
 90
        1
176
     0
 40
0.0
176
     0
 90
        0
176
     0
290
     0
176
     0
290
     1
176
     0
290
     1
176
     0
290
     0
176
     0
290
     0
176
     0
290
     0
176
     0
290
     0
176
     0
290
     0
176
     0
290
     0
176
     0
 90
       50
176
     0
 40
0.0
176
     0
 40
1.0
176
     0
 90
        0
176
     0
 62
    18
176
     0
 90
       50
176
     0
 90
        3
176
     0
 62
     5
420
      255
176
     0
290
     0
176
     0
 90
       50
176
     0
 90
       50
176
     0
 90
       50
176
     0
290
     0
176
     0
 90
       50
176
     0
 62
   256
176
     0
 40
1.0
176
     0
 90
        2
176
     0
  1
strokes_ogs.tif
176
     0
290
     0
176
     0
 40
1.0
176
     0
 40
1.0
176
     0
  0
VISUALSTYLE
  5
3152
102
{ACAD_REACTORS
330
3143
102
}
330
3143
100
AcDbVisualStyle
  2
Facepattern
 70
    15
177
     3
291
     1
 70
    58
 90
        2
176
     1
 90
        2
176
     1
 90
        0
176
     1
 90
        0
176
     1
 40
0.6
176
     1
 40
30.0
176
     1
 62
     7
176
     1
 90
        1
176
     1
 90
        4
176
     1
 62
     7
176
     1
 62
   257
176
     1
 90
        1
176
     1
 90
        1
176
     1
 40
1.0
176
     1
 90
        8
176
     1
 62
     7
176
     1
 40
1.0
176
     1
 90
        1
176
     1
 90
        6
176
     1
 90
        2
176
     1
 62
     7
176
     1
 90
        5
176
     1
 90
        0
176
     1
 90
        0
176
     1
290
     0
176
     1
 90
        1
176
     1
 40
0.0
176
     1
 90
        0
176
     1
290
     0
176
     1
290
     1
176
     1
290
     1
176
     1
290
     0
176
     1
290
     0
176
     1
290
     0
176
     1
290
     0
176
     1
290
     0
176
     1
290
     0
176
     1
 90
       50
176
     1
 40
0.0
176
     1
 40
1.0
176
     1
 90
        0
176
     1
 62
    18
176
     1
 90
       50
176
     1
 90
        3
176
     1
 62
     5
420
      255
176
     1
290
     0
176
     1
 90
       50
176
     1
 90
       50
176
     1
 90
       50
176
     1
290
     0
176
     1
 90
       50
176
     1
 62
   256
176
     0
 40
1.0
176
     0
 90
        2
176
     1
  1
strokes_ogs.tif
176
     1
290
     0
176
     1
 40
1.0
176
     1
 40
1.0
176
     1
  0
VISUALSTYLE
  5
3144
102
{ACAD_REACTORS
330
3143
102
}
330
3143
100
AcDbVisualStyle
  2
Flat
 70
     0
177
     3
291
     1
 70
    58
 90
        2
176
     1
 90
        1
176
     1
 90
        1
176
     1
 90
        2
176
     1
 40
0.6
176
     1
 40
30.0
176
     1
 62
     7
176
     1
 90
        0
176
     1
 90
        0
176
     1
 62
     7
176
     1
 62
   257
176
     1
 90
        1
176
     1
 90
        1
176
     1
 40
1.0
176
     1
 90
        8
176
     1
 62
     7
176
     1
 40
1.0
176
     1
 90
        1
176
     1
 90
        6
176
     1
 90
        2
176
     1
 62
     7
176
     1
 90
        5
176
     1
 90
        0
176
     1
 90
        0
176
     1
290
     0
176
     1
 90
       13
176
     1
 40
0.0
176
     1
 90
        0
176
     1
290
     0
176
     1
290
     1
176
     1
290
     1
176
     1
290
     0
176
     1
290
     0
176
     1
290
     0
176
     1
290
     0
176
     1
290
     0
176
     1
290
     0
176
     1
 90
       50
176
     1
 40
0.0
176
     1
 40
1.0
176
     1
 90
        0
176
     1
 62
    18
176
     1
 90
       50
176
     1
 90
        3
176
     1
 62
     5
420
      255
176
     1
290
     0
176
     1
 90
       50
176
     1
 90
       50
176
     1
 90
       50
176
     1
290
     0
176
     1
 90
       50
176
     1
 62
   256
176
     0
 40
1.0
176
     0
 90
        2
176
     1
  1
strokes_ogs.tif
176
     1
290
     0
176
     1
 40
1.0
176
     1
 40
1.0
176
     1
  0
VISUALSTYLE
  5
3145
102
{ACAD_REACTORS
330
3143
102
}
330
3143
100
AcDbVisualStyle
  2
FlatWithEdges
 70
     1
177
     3
291
     1
 70
    58
 90
        2
176
     1
 90
        1
176
     1
 90
        1
176
     1
 90
        2
176
     1
 40
0.6
176
     1
 40
30.0
176
     1
 62
     7
176
     1
 90
        1
176
     1
 90
        0
176
     1
 62
     7
176
     1
 62
   257
176
     1
 90
        1
176
     1
 90
        1
176
     1
 40
1.0
176
     1
 90
        0
176
     1
 62
   257
176
     1
 40
1.0
176
     1
 90
        1
176
     1
 90
        6
176
     1
 90
        2
176
     1
 62
     7
176
     1
 90
        5
176
     1
 90
        0
176
     1
 90
        0
176
     1
290
     0
176
     1
 90
       13
176
     1
 40
0.0
176
     1
 90
        0
176
     1
290
     0
176
     1
290
     1
176
     1
290
     1
176
     1
290
     0
176
     1
290
     0
176
     1
290
     0
176
     1
290
     0
176
     1
290
     0
176
     1
290
     0
176
     1
 90
       50
176
     1
 40
0.0
176
     1
 40
1.0
176
     1
 90
        0
176
     1
 62
    18
176
     1
 90
       50
176
     1
 90
        3
176
     1
 62
     5
420
      255
176
     1
290
     0
176
     1
 90
       50
176
     1
 90
       50
176
     1
 90
       50
176
     1
290
     0
176
     1
 90
       50
176
     1
 62
   256
176
     0
 40
1.0
176
     0
 90
        2
176
     1
  1
strokes_ogs.tif
176
     1
290
     0
176
     1
 40
1.0
176
     1
 40
1.0
176
     1
  0
VISUALSTYLE
  5
3146
102
{ACAD_REACTORS
330
3143
102
}
330
3143
100
AcDbVisualStyle
  2
Gouraud
 70
     2
177
     3
291
     1
 70
    58
 90
        2
176
     1
 90
        2
176
     1
 90
        1
176
     1
 90
        2
176
     1
 40
0.6
176
     1
 40
30.0
176
     1
 62
     7
176
     1
 90
        0
176
     1
 90
        0
176
     1
 62
     7
176
     1
 62
   257
176
     1
 90
        1
176
     1
 90
        1
176
     1
 40
1.0
176
     1
 90
        0
176
     1
 62
     7
176
     1
 40
1.0
176
     1
 90
        1
176
     1
 90
        6
176
     1
 90
        2
176
     1
 62
     7
176
     1
 90
        5
176
     1
 90
        0
176
     1
 90
        0
176
     1
290
     0
176
     1
 90
       13
176
     1
 40
0.0
176
     1
 90
        0
176
     1
290
     0
176
     1
290
     1
176
     1
290
     1
176
     1
290
     0
176
     1
290
     0
176
     1
290
     0
176
     1
290
     0
176
     1
290
     0
176
     1
290
     0
176
     1
 90
       50
176
     1
 40
0.0
176
     1
 40
1.0
176
     1
 90
        0
176
     1
 62
    18
176
     1
 90
       50
176
     1
 90
        3
176
     1
 62
     5
420
      255
176
     1
290
     0
176
     1
 90
       50
176
     1
 90
       50
176
     1
 90
       50
176
     1
290
     0
176
     1
 90
       50
176
     1
 62
   256
176
     0
 40
1.0
176
     0
 90
        2
176
     1
  1
strokes_ogs.tif
176
     1
290
     0
176
     1
 40
1.0
176
     1
 40
1.0
176
     1
  0
VISUALSTYLE
  5
3147
102
{ACAD_REACTORS
330
3143
102
}
330
3143
100
AcDbVisualStyle
  2
GouraudWithEdges
 70
     3
177
     3
291
     1
 70
    58
 90
        2
176
     1
 90
        2
176
     1
 90
        1
176
     1
 90
        2
176
     1
 40
0.6
176
     1
 40
30.0
176
     1
 62
     7
176
     1
 90
        1
176
     1
 90
        0
176
     1
 62
     7
176
     1
 62
   257
176
     1
 90
        1
176
     1
 90
        1
176
     1
 40
1.0
176
     1
 90
        0
176
     1
 62
   257
176
     1
 40
1.0
176
     1
 90
        1
176
     1
 90
        6
176
     1
 90
        2
176
     1
 62
     7
176
     1
 90
        5
176
     1
 90
        0
176
     1
 90
        0
176
     1
290
     0
176
     1
 90
       13
176
     1
 40
0.0
176
     1
 90
        0
176
     1
290
     0
176
     1
290
     1
176
     1
290
     1
176
     1
290
     0
176
     1
290
     0
176
     1
290
     0
176
     1
290
     0
176
     1
290
     0
176
     1
290
     0
176
     1
 90
       50
176
     1
 40
0.0
176
     1
 40
1.0
176
     1
 90
        0
176
     1
 62
    18
176
     1
 90
       50
176
     1
 90
        3
176
     1
 62
     5
420
      255
176
     1
290
     0
176
     1
 90
       50
176
     1
 90
       50
176
     1
 90
       50
176
     1
290
     0
176
     1
 90
       50
176
     1
 62
   256
176
     0
 40
1.0
176
     0
 90
        2
176
     1
  1
strokes_ogs.tif
176
     1
290
     0
176
     1
 40
1.0
176
     1
 40
1.0
176
     1
  0
VISUALSTYLE
  5
314B
102
{ACAD_REACTORS
330
3143
102
}
330
3143
100
AcDbVisualStyle
  2
Hidden
 70
     6
177
     3
291
     0
 70
    58
 90
        1
176
     1
 90
        2
176
     1
 90
        2
176
     1
 90
        0
176
     1
 40
0.6
176
     1
 40
30.0
176
     1
 62
     7
176
     1
 90
        2
176
     1
 90
        2
176
     1
 62
     7
176
     1
 62
   257
176
     1
 90
        2
176
     1
 90
        1
176
     1
 40
40.0
176
     1
 90
        0
176
     1
 62
   257
176
     1
 40
1.0
176
     1
 90
        1
176
     1
 90
        6
176
     1
 90
        2
176
     1
 62
     7
176
     1
 90
        3
176
     1
 90
        0
176
     1
 90
        0
176
     1
290
     0
176
     1
 90
        1
176
     1
 40
0.0
176
     1
 90
        0
176
     1
290
     0
176
     1
290
     1
176
     1
290
     1
176
     1
290
     0
176
     1
290
     0
176
     1
290
     0
176
     1
290
     0
176
     1
290
     0
176
     1
290
     0
176
     1
 90
       50
176
     1
 40
0.0
176
     1
 40
1.0
176
     1
 90
        0
176
     1
 62
    18
176
     1
 90
       50
176
     1
 90
        3
176
     1
 62
     5
420
      255
176
     1
290
     0
176
     1
 90
       50
176
     1
 90
       50
176
     1
 90
       50
176
     1
290
     0
176
     1
 90
       50
176
     1
 62
   256
176
     0
 40
1.0
176
     0
 90
        2
176
     1
  1
strokes_ogs.tif
176
     1
290
     0
176
     1
 40
1.0
176
     1
 40
1.0
176
     1
  0
VISUALSTYLE
  5
3159
102
{ACAD_REACTORS
330
3143
102
}
330
3143
100
AcDbVisualStyle
  2
JitterOff
 70
    20
177
     3
291
     1
 70
    58
 90
        2
176
     0
 90
        2
176
     0
 90
        0
176
     0
 90
        0
176
     0
 40
0.6
176
     0
 40
30.0
176
     0
 62
     7
176
     0
 90
        1
176
     0
 90
        4
176
     0
 62
     7
176
     0
 62
   257
176
     0
 90
        1
176
     0
 90
        1
176
     0
 40
1.0
176
     0
 90
       10
176
     2
 62
     7
176
     0
 40
1.0
176
     0
 90
        1
176
     0
 90
        6
176
     0
 90
        2
176
     0
 62
     7
176
     0
 90
        5
176
     0
 90
        0
176
     0
 90
        0
176
     0
290
     0
176
     0
 90
        1
176
     0
 40
0.0
176
     0
 90
        0
176
     0
290
     0
176
     0
290
     1
176
     0
290
     1
176
     0
290
     0
176
     0
290
     0
176
     0
290
     0
176
     0
290
     0
176
     0
290
     0
176
     0
290
     0
176
     0
 90
       50
176
     0
 40
0.0
176
     0
 40
1.0
176
     0
 90
        0
176
     0
 62
    18
176
     0
 90
       50
176
     0
 90
        3
176
     0
 62
     5
420
      255
176
     0
290
     0
176
     0
 90
       50
176
     0
 90
       50
176
     0
 90
       50
176
     0
290
     0
176
     0
 90
       50
176
     0
 62
   256
176
     0
 40
1.0
176
     0
 90
        2
176
     0
  1
strokes_ogs.tif
176
     0
290
     0
176
     0
 40
1.0
176
     0
 40
1.0
176
     0
  0
VISUALSTYLE
  5
3151
102
{ACAD_REACTORS
330
3143
102
}
330
3143
100
AcDbVisualStyle
  2
Linepattern
 70
    14
177
     3
291
     1
 70
    58
 90
        2
176
     1
 90
        2
176
     1
 90
        0
176
     1
 90
        0
176
     1
 40
0.6
176
     1
 40
30.0
176
     1
 62
     7
176
     1
 90
        1
176
     1
 90
        4
176
     1
 62
     7
176
     1
 62
   257
176
     1
 90
        7
176
     1
 90
        7
176
     1
 40
1.0
176
     1
 90
        8
176
     1
 62
     7
176
     1
 40
1.0
176
     1
 90
        1
176
     1
 90
        6
176
     1
 90
        2
176
     1
 62
     7
176
     1
 90
        5
176
     1
 90
        0
176
     1
 90
        0
176
     1
290
     0
176
     1
 90
        1
176
     1
 40
0.0
176
     1
 90
        0
176
     1
290
     0
176
     1
290
     1
176
     1
290
     1
176
     1
290
     0
176
     1
290
     0
176
     1
290
     0
176
     1
290
     0
176
     1
290
     0
176
     1
290
     0
176
     1
 90
       50
176
     1
 40
0.0
176
     1
 40
1.0
176
     1
 90
        0
176
     1
 62
    18
176
     1
 90
       50
176
     1
 90
        3
176
     1
 62
     5
420
      255
176
     1
290
     0
176
     1
 90
       50
176
     1
 90
       50
176
     1
 90
       50
176
     1
290
     0
176
     1
 90
       50
176
     1
 62
   256
176
     0
 40
1.0
176
     0
 90
        2
176
     1
  1
strokes_ogs.tif
176
     1
290
     0
176
     1
 40
1.0
176
     1
 40
1.0
176
     1
  0
VISUALSTYLE
  5
315A
102
{ACAD_REACTORS
330
3143
102
}
330
3143
100
AcDbVisualStyle
  2
OverhangOff
 70
    21
177
     3
291
     1
 70
    58
 90
        2
176
     0
 90
        2
176
     0
 90
        0
176
     0
 90
        0
176
     0
 40
0.6
176
     0
 40
30.0
176
     0
 62
     7
176
     0
 90
        1
176
     0
 90
        4
176
     0
 62
     7
176
     0
 62
   257
176
     0
 90
        1
176
     0
 90
        1
176
     0
 40
1.0
176
     0
 90
        9
176
     2
 62
     7
176
     0
 40
1.0
176
     0
 90
        1
176
     0
 90
        6
176
     0
 90
        2
176
     0
 62
     7
176
     0
 90
        5
176
     0
 90
        0
176
     0
 90
        0
176
     0
290
     0
176
     0
 90
        1
176
     0
 40
0.0
176
     0
 90
        0
176
     0
290
     0
176
     0
290
     1
176
     0
290
     1
176
     0
290
     0
176
     0
290
     0
176
     0
290
     0
176
     0
290
     0
176
     0
290
     0
176
     0
290
     0
176
     0
 90
       50
176
     0
 40
0.0
176
     0
 40
1.0
176
     0
 90
        0
176
     0
 62
    18
176
     0
 90
       50
176
     0
 90
        3
176
     0
 62
     5
420
      255
176
     0
290
     0
176
     0
 90
       50
176
     0
 90
       50
176
     0
 90
       50
176
     0
290
     0
176
     0
 90
       50
176
     0
 62
   256
176
     0
 40
1.0
176
     0
 90
        2
176
     0
  1
strokes_ogs.tif
176
     0
290
     0
176
     0
 40
1.0
176
     0
 40
1.0
176
     0
  0
VISUALSTYLE
  5
314D
102
{ACAD_REACTORS
330
3143
102
}
330
3143
100
AcDbVisualStyle
  2
Realistic
 70
     8
177
     3
291
     0
 70
    58
 90
        2
176
     1
 90
        2
176
     1
 90
        0
176
     1
 90
        2
176
     1
 40
0.6
176
     1
 40
30.0
176
     1
 62
     7
176
     1
 90
        0
176
     1
 90
        0
176
     1
 62
     7
176
     1
 62
   257
176
     1
 90
        1
176
     1
 90
        1
176
     1
 40
1.0
176
     1
 90
        8
176
     1
 62
   257
176
     1
 40
1.0
176
     1
 90
        1
176
     1
 90
        6
176
     1
 90
        2
176
     1
 62
     7
176
     1
 90
        3
176
     1
 90
        0
176
     1
 90
        0
176
     1
290
     0
176
     1
 90
       13
176
     1
 40
0.0
176
     1
 90
        0
176
     1
290
     0
176
     1
290
     1
176
     1
290
     1
176
     1
290
     0
176
     1
290
     0
176
     1
290
     0
176
     1
290
     0
176
     1
290
     0
176
     1
290
     0
176
     1
 90
       50
176
     1
 40
0.0
176
     1
 40
1.0
176
     1
 90
        0
176
     1
 62
    18
176
     1
 90
       50
176
     1
 90
        3
176
     1
 62
     5
420
      255
176
     1
290
     0
176
     1
 90
       50
176
     1
 90
       50
176
     1
 90
       50
176
     1
290
     0
176
     1
 90
       50
176
     1
 62
   256
176
     0
 40
1.0
176
     0
 90
        2
176
     1
  1
strokes_ogs.tif
176
     1
290
     0
176
     1
 40
1.0
176
     1
 40
1.0
176
     1
  0
VISUALSTYLE
  5
3158
102
{ACAD_REACTORS
330
3143
102
}
330
3143
100
AcDbVisualStyle
  2
Shaded
 70
    27
177
     3
291
     0
 70
    58
 90
        2
176
     1
 90
        2
176
     1
 90
        1
176
     1
 90
        2
176
     1
 40
0.6
176
     1
 40
30.0
176
     1
 62
     7
176
     1
 90
        0
176
     1
 90
        4
176
     1
 62
     7
176
     1
 62
   257
176
     1
 90
        1
176
     1
 90
        1
176
     1
 40
1.0
176
     1
 90
        8
176
     1
 62
   257
176
     1
 40
1.0
176
     1
 90
        1
176
     1
 90
        6
176
     1
 90
        2
176
     1
 62
     8
176
     1
 90
        3
176
     1
 90
        0
176
     1
 90
        0
176
     1
290
     0
176
     1
 90
        5
176
     1
 40
0.0
176
     1
 90
        0
176
     1
290
     0
176
     1
290
     1
176
     1
290
     1
176
     1
290
     0
176
     1
290
     0
176
     1
290
     0
176
     1
290
     0
176
     1
290
     0
176
     1
290
     0
176
     1
 90
       50
176
     1
 40
0.0
176
     1
 40
1.0
176
     1
 90
        0
176
     1
 62
    18
176
     1
 90
       50
176
     1
 90
        3
176
     1
 62
     5
420
      255
176
     1
290
     0
176
     1
 90
       50
176
     1
 90
       50
176
     1
 90
       50
176
     1
290
     0
176
     1
 90
       50
176
     1
 62
   256
176
     0
 40
1.0
176
     0
 90
        2
176
     1
  1
strokes_ogs.tif
176
     1
290
     0
176
     1
 40
1.0
176
     1
 40
1.0
176
     1
  0
VISUALSTYLE
  5
3157
102
{ACAD_REACTORS
330
3143
102
}
330
3143
100
AcDbVisualStyle
  2
Shaded with edges
 70
    26
177
     3
291
     0
 70
    58
 90
        2
176
     1
 90
        2
176
     1
 90
        1
176
     1
 90
        2
176
     1
 40
0.6
176
     1
 40
30.0
176
     1
 62
     7
176
     1
 90
        1
176
     1
 90
       10
176
     1
 62
     7
176
     1
 62
   257
176
     1
 90
        2
176
     1
 90
        1
176
     1
 40
1.0
176
     1
 90
        8
176
     1
 62
   257
176
     1
 40
1.0
176
     1
 90
        1
176
     1
 90
        6
176
     1
 90
        2
176
     1
 62
     7
176
     1
 90
        3
176
     1
 90
        0
176
     1
 90
        0
176
     1
290
     0
176
     1
 90
        5
176
     1
 40
0.0
176
     1
 90
        0
176
     1
290
     0
176
     1
290
     1
176
     1
290
     1
176
     1
290
     0
176
     1
290
     0
176
     1
290
     0
176
     1
290
     0
176
     1
290
     0
176
     1
290
     0
176
     1
 90
       50
176
     1
 40
0.0
176
     1
 40
1.0
176
     1
 90
        0
176
     1
 62
    18
176
     1
 90
       50
176
     1
 90
        3
176
     1
 62
     5
420
      255
176
     1
290
     0
176
     1
 90
       50
176
     1
 90
       50
176
     1
 90
       50
176
     1
290
     0
176
     1
 90
       50
176
     1
 62
   256
176
     0
 40
1.0
176
     0
 90
        2
176
     1
  1
strokes_ogs.tif
176
     1
290
     0
176
     1
 40
1.0
176
     1
 40
1.0
176
     1
  0
VISUALSTYLE
  5
3154
102
{ACAD_REACTORS
330
3143
102
}
330
3143
100
AcDbVisualStyle
  2
Shades of Gray
 70
    23
177
     3
291
     0
 70
    58
 90
        2
176
     1
 90
        2
176
     1
 90
        3
176
     1
 90
        0
176
     1
 40
0.6
176
     1
 40
30.0
176
     1
 62
     7
176
     1
 90
        2
176
     1
 90
        2
176
     1
 62
     7
176
     1
 62
     7
176
     1
 90
        1
176
     1
 90
        1
176
     1
 40
40.0
176
     1
 90
        8
176
     1
 62
     7
176
     1
 40
1.0
176
     1
 90
        1
176
     1
 90
        6
176
     1
 90
        2
176
     1
 62
     7
176
     1
 90
        3
176
     1
 90
        0
176
     1
 90
        0
176
     1
290
     0
176
     1
 90
        1
176
     1
 40
0.0
176
     1
 90
        0
176
     1
290
     0
176
     1
290
     1
176
     1
290
     1
176
     1
290
     0
176
     1
290
     0
176
     1
290
     0
176
     1
290
     0
176
     1
290
     0
176
     1
290
     0
176
     1
 90
       50
176
     1
 40
0.0
176
     1
 40
1.0
176
     1
 90
        0
176
     1
 62
    18
176
     1
 90
       50
176
     1
 90
        3
176
     1
 62
     5
420
      255
176
     1
290
     0
176
     1
 90
       50
176
     1
 90
       50
176
     1
 90
       50
176
     1
290
     0
176
     1
 90
       50
176
     1
 62
   256
176
     0
 40
1.0
176
     0
 90
        2
176
     1
  1
strokes_ogs.tif
176
     1
290
     0
176
     1
 40
1.0
176
     1
 40
1.0
176
     1
  0
VISUALSTYLE
  5
3155
102
{ACAD_REACTORS
330
3143
102
}
330
3143
100
AcDbVisualStyle
  2
Sketchy
 70
    24
177
     3
291
     0
 70
    58
 90
        1
176
     1
 90
        2
176
     1
 90
        2
176
     1
 90
        0
176
     1
 40
0.6
176
     1
 40
30.0
176
     1
 62
     7
176
     1
 90
        2
176
     1
 90
        2
176
     1
 62
     7
176
     1
 62
     7
176
     1
 90
        1
176
     1
 90
        1
176
     1
 40
40.0
176
     1
 90
       11
176
     1
 62
     7
176
     1
 40
1.0
176
     1
 90
        1
176
     1
 90
        6
176
     1
 90
        2
176
     1
 62
     7
176
     1
 90
        6
176
     1
 90
        0
176
     1
 90
        0
176
     1
290
     0
176
     1
 90
        1
176
     1
 40
0.0
176
     1
 90
        0
176
     1
290
     0
176
     1
290
     1
176
     1
290
     1
176
     1
290
     0
176
     1
290
     0
176
     1
290
     0
176
     1
290
     0
176
     1
290
     0
176
     1
290
     0
176
     1
 90
       50
176
     1
 40
0.0
176
     1
 40
1.0
176
     1
 90
        0
176
     1
 62
    18
176
     1
 90
       50
176
     1
 90
        3
176
     1
 62
     5
420
      255
176
     1
290
     0
176
     1
 90
       50
176
     1
 90
       50
176
     1
 90
       50
176
     1
290
     0
176
     1
 90
       50
176
     1
 62
   256
176
     0
 40
1.0
176
     0
 90
        2
176
     1
  1
strokes_ogs.tif
176
     1
290
     0
176
     1
 40
1.0
176
     1
 40
1.0
176
     1
  0
VISUALSTYLE
  5
3150
102
{ACAD_REACTORS
330
3143
102
}
330
3143
100
AcDbVisualStyle
  2
Thicken
 70
    13
177
     3
291
     1
 70
    58
 90
        2
176
     1
 90
        2
176
     1
 90
        0
176
     1
 90
        0
176
     1
 40
0.6
176
     1
 40
30.0
176
     1
 62
     7
176
     1
 90
        1
176
     1
 90
        4
176
     1
 62
     7
176
     1
 62
   257
176
     1
 90
        1
176
     1
 90
        1
176
     1
 40
1.0
176
     1
 90
       12
176
     1
 62
     7
176
     1
 40
1.0
176
     1
 90
        1
176
     1
 90
        6
176
     1
 90
        2
176
     1
 62
     7
176
     1
 90
        5
176
     1
 90
        0
176
     1
 90
        0
176
     1
290
     0
176
     1
 90
        1
176
     1
 40
0.0
176
     1
 90
        0
176
     1
290
     0
176
     1
290
     1
176
     1
290
     1
176
     1
290
     0
176
     1
290
     0
176
     1
290
     0
176
     1
290
     0
176
     1
290
     0
176
     1
290
     0
176
     1
 90
       50
176
     1
 40
0.0
176
     1
 40
1.0
176
     1
 90
        0
176
     1
 62
    18
176
     1
 90
       50
176
     1
 90
        3
176
     1
 62
     5
420
      255
176
     1
290
     0
176
     1
 90
       50
176
     1
 90
       50
176
     1
 90
       50
176
     1
290
     0
176
     1
 90
       50
176
     1
 62
   256
176
     0
 40
1.0
176
     0
 90
        2
176
     1
  1
strokes_ogs.tif
176
     1
290
     0
176
     1
 40
1.0
176
     1
 40
1.0
176
     1
  0
VISUALSTYLE
  5
314A
102
{ACAD_REACTORS
330
3143
102
}
330
3143
100
AcDbVisualStyle
  2
Wireframe
 70
     5
177
     3
291
     0
 70
    58
 90
        0
176
     1
 90
        2
176
     1
 90
        0
176
     1
 90
        0
176
     1
 40
0.6
176
     1
 40
30.0
176
     1
 62
     7
176
     1
 90
        1
176
     1
 90
        4
176
     1
 62
     7
176
     1
 62
   257
176
     1
 90
        1
176
     1
 90
        1
176
     1
 40
1.0
176
     1
 90
        0
176
     1
 62
   257
176
     1
 40
1.0
176
     1
 90
        1
176
     1
 90
        6
176
     1
 90
        2
176
     1
 62
     7
176
     1
 90
        3
176
     1
 90
        0
176
     1
 90
        0
176
     1
290
     0
176
     1
 90
        1
176
     1
 40
0.0
176
     1
 90
        0
176
     1
290
     0
176
     1
290
     1
176
     1
290
     1
176
     1
290
     0
176
     1
290
     0
176
     1
290
     0
176
     1
290
     0
176
     1
290
     0
176
     1
290
     0
176
     1
 90
       50
176
     1
 40
0.0
176
     1
 40
1.0
176
     1
 90
        0
176
     1
 62
    18
176
     1
 90
       50
176
     1
 90
        3
176
     1
 62
     5
420
      255
176
     1
290
     0
176
     1
 90
       50
176
     1
 90
       50
176
     1
 90
       50
176
     1
290
     0
176
     1
 90
       50
176
     1
 62
   256
176
     0
 40
1.0
176
     0
 90
        2
176
     1
  1
strokes_ogs.tif
176
     1
290
     0
176
     1
 40
1.0
176
     1
 40
1.0
176
     1
  0
VISUALSTYLE
  5
3156
102
{ACAD_REACTORS
330
3143
102
}
330
3143
100
AcDbVisualStyle
  2
X-Ray
 70
    25
177
     3
291
     0
 70
    58
 90
        2
176
     1
 90
        2
176
     1
 90
        1
176
     1
 90
        1
176
     1
 40
0.5
176
     1
 40
30.0
176
     1
 62
     7
176
     1
 90
        1
176
     1
 90
        0
176
     1
 62
     7
176
     1
 62
   257
176
     1
 90
        1
176
     1
 90
        1
176
     1
 40
1.0
176
     1
 90
        8
176
     1
 62
     7
176
     1
 40
1.0
176
     1
 90
        1
176
     1
 90
        6
176
     1
 90
        2
176
     1
 62
     7
176
     1
 90
        3
176
     1
 90
        0
176
     1
 90
        0
176
     1
290
     0
176
     1
 90
       13
176
     1
 40
0.0
176
     1
 90
        0
176
     1
290
     0
176
     1
290
     1
176
     1
290
     1
176
     1
290
     0
176
     1
290
     0
176
     1
290
     0
176
     1
290
     0
176
     1
290
     0
176
     1
290
     0
176
     1
 90
       50
176
     1
 40
0.0
176
     1
 40
1.0
176
     1
 90
        0
176
     1
 62
    18
176
     1
 90
       50
176
     1
 90
        3
176
     1
 62
     5
420
      255
176
     1
290
     0
176
     1
 90
       50
176
     1
 90
       50
176
     1
 90
       50
176
     1
290
     0
176
     1
 90
       50
176
     1
 62
   256
176
     0
 40
1.0
176
     0
 90
        2
176
     1
  1
strokes_ogs.tif
176
     1
290
     0
176
     1
 40
1.0
176
     1
 40
1.0
176
     1
  0
DICTIONARYVAR
  5
3A56
102
{ACAD_REACTORS
330
33
102
}
330
33
100
DictionaryVariables
280
     0
  1
1:1
  0
DICTIONARYVAR
  5
3A53
102
{ACAD_REACTORS
330
33
102
}
330
33
100
DictionaryVariables
280
     0
  1
STANDARD
  0
DICTIONARYVAR
  5
3A52
102
{ACAD_REACTORS
330
33
102
}
330
33
100
DictionaryVariables
280
     0
  1
STANDARD
  0
DICTIONARYVAR
  5
3A54
102
{ACAD_REACTORS
330
33
102
}
330
33
100
DictionaryVariables
280
     0
  1
Metric50
  0
DICTIONARYVAR
  5
3A55
102
{ACAD_REACTORS
330
33
102
}
330
33
100
DictionaryVariables
280
     0
  1
Metric50
  0
DICTIONARYVAR
  5
34
102
{ACAD_REACTORS
330
33
102
}
330
33
100
DictionaryVariables
280
     0
  1
0
  0
DICTIONARYVAR
  5
23F7
102
{ACAD_REACTORS
330
33
102
}
330
33
100
DictionaryVariables
280
     0
  1
1
  0
DICTIONARYVAR
  5
3A57
102
{ACAD_REACTORS
330
33
102
}
330
33
100
DictionaryVariables
280
     0
  1
0
  0
DICTIONARYVAR
  5
BD96
102
{ACAD_REACTORS
330
33
102
}
330
33
100
DictionaryVariables
280
     0
  1
1
  0
DICTIONARYVAR
  5
BD97
102
{ACAD_REACTORS
330
33
102
}
330
33
100
DictionaryVariables
280
     0
  1
15
  0
DICTIONARYVAR
  5
BD95
102
{ACAD_REACTORS
330
33
102
}
330
33
100
DictionaryVariables
280
     0
  1
0
  0
DICTIONARYVAR
  5
BD94
102
{ACAD_REACTORS
330
33
102
}
330
33
100
DictionaryVariables
280
     0
  1
0
  0
DICTIONARYVAR
  5
1383
102
{ACAD_REACTORS
330
33
102
}
330
33
100
DictionaryVariables
280
     0
  1
127
  0
DICTIONARY
  5
BD9F
330
46AA
100
AcDbDictionary
280
     1
281
     1
  3
ACAD_XREC_ROUNDTRIP
360
BDD6
  0
DICTIONARY
  5
BD9B
330
3176
100
AcDbDictionary
280
     1
281
     1
  3
ACAD_XREC_ROUNDTRIP
360
BDD4
  0
DICTIONARY
  5
3134
330
3133
100
AcDbDictionary
280
     1
281
     1
  3
BUMPTILE
360
3136
  3
DIFFUSETILE
360
3135
  3
OPACITYTILE
360
3139
  3
REFLECTIONTILE
360
3138
  3
REFRACTIONTILE
360
313A
  3
SPECULARTILE
360
3137
  0
DICTIONARY
  5
312C
330
312B
100
AcDbDictionary
280
     1
281
     1
  3
BUMPTILE
360
312E
  3
DIFFUSETILE
360
312D
  3
OPACITYTILE
360
3131
  3
REFLECTIONTILE
360
3130
  3
REFRACTIONTILE
360
3132
  3
SPECULARTILE
360
312F
  0
DICTIONARY
  5
313C
330
313B
100
AcDbDictionary
280
     1
281
     1
  3
BUMPTILE
360
313E
  3
DIFFUSETILE
360
313D
  3
OPACITYTILE
360
3141
  3
REFLECTIONTILE
360
3140
  3
REFRACTIONTILE
360
3142
  3
SPECULARTILE
360
313F
  0
DICTIONARY
  5
BD9D
330
46A9
100
AcDbDictionary
280
     1
281
     1
  3
ACAD_XREC_ROUNDTRIP
360
BDD5
  0
DICTIONARY
  5
BD99
330
3174
100
AcDbDictionary
280
     1
281
     1
  3
ACAD_XREC_ROUNDTRIP
360
BDD3
  0
DICTIONARY
  5
39FF
330
315E
100
AcDbDictionary
280
     1
281
     1
  3
ACAD_ROUNDTRIP_2008_TABLESTYLE_CELLSTYLEMAP
360
BDD2
  0
XRECORD
  5
BDD6
102
{ACAD_REACTORS
330
BD9F
102
}
330
BD9F
100
AcDbXrecord
280
     1
102
DISPLAYNAME
  1
Imperial24
102
FLAGS
 90
        0
  0
XRECORD
  5
BDD4
102
{ACAD_REACTORS
330
BD9B
102
}
330
BD9B
100
AcDbXrecord
280
     1
102
DISPLAYNAME
  1
Metric50
102
FLAGS
 90
        0
  0
XRECORD
  5
3136
102
{ACAD_REACTORS
330
3134
102
}
330
3134
100
AcDbXrecord
280
     1
270
     1
271
     1
  0
XRECORD
  5
3135
102
{ACAD_REACTORS
330
3134
102
}
330
3134
100
AcDbXrecord
280
     1
270
     1
271
     1
  0
XRECORD
  5
3139
102
{ACAD_REACTORS
330
3134
102
}
330
3134
100
AcDbXrecord
280
     1
270
     1
271
     1
  0
XRECORD
  5
3138
102
{ACAD_REACTORS
330
3134
102
}
330
3134
100
AcDbXrecord
280
     1
270
     1
271
     1
  0
XRECORD
  5
313A
102
{ACAD_REACTORS
330
3134
102
}
330
3134
100
AcDbXrecord
280
     1
270
     1
271
     1
  0
XRECORD
  5
3137
102
{ACAD_REACTORS
330
3134
102
}
330
3134
100
AcDbXrecord
280
     1
270
     1
271
     1
  0
XRECORD
  5
312E
102
{ACAD_REACTORS
330
312C
102
}
330
312C
100
AcDbXrecord
280
     1
270
     1
271
     1
  0
XRECORD
  5
312D
102
{ACAD_REACTORS
330
312C
102
}
330
312C
100
AcDbXrecord
280
     1
270
     1
271
     1
  0
XRECORD
  5
3131
102
{ACAD_REACTORS
330
312C
102
}
330
312C
100
AcDbXrecord
280
     1
270
     1
271
     1
  0
XRECORD
  5
3130
102
{ACAD_REACTORS
330
312C
102
}
330
312C
100
AcDbXrecord
280
     1
270
     1
271
     1
  0
XRECORD
  5
3132
102
{ACAD_REACTORS
330
312C
102
}
330
312C
100
AcDbXrecord
280
     1
270
     1
271
     1
  0
XRECORD
  5
312F
102
{ACAD_REACTORS
330
312C
102
}
330
312C
100
AcDbXrecord
280
     1
270
     1
271
     1
  0
XRECORD
  5
313E
102
{ACAD_REACTORS
330
313C
102
}
330
313C
100
AcDbXrecord
280
     1
270
     1
271
     1
  0
XRECORD
  5
313D
102
{ACAD_REACTORS
330
313C
102
}
330
313C
100
AcDbXrecord
280
     1
270
     1
271
     1
  0
XRECORD
  5
3141
102
{ACAD_REACTORS
330
313C
102
}
330
313C
100
AcDbXrecord
280
     1
270
     1
271
     1
  0
XRECORD
  5
3140
102
{ACAD_REACTORS
330
313C
102
}
330
313C
100
AcDbXrecord
280
     1
270
     1
271
     1
  0
XRECORD
  5
3142
102
{ACAD_REACTORS
330
313C
102
}
330
313C
100
AcDbXrecord
280
     1
270
     1
271
     1
  0
XRECORD
  5
313F
102
{ACAD_REACTORS
330
313C
102
}
330
313C
100
AcDbXrecord
280
     1
270
     1
271
     1
  0
XRECORD
  5
BDD5
102
{ACAD_REACTORS
330
BD9D
102
}
330
BD9D
100
AcDbXrecord
280
     1
102
DISPLAYNAME
  1
Imperial24
102
FLAGS
 90
        0
  0
XRECORD
  5
BDD3
102
{ACAD_REACTORS
330
BD99
102
}
330
BD99
100
AcDbXrecord
280
     1
102
DISPLAYNAME
  1
Metric50
102
FLAGS
 90
        0
  0
CELLSTYLEMAP
  5
BDD2
102
{ACAD_REACTORS
330
39FF
102
}
330
39FF
100
AcDbCellStyleMap
 90
        3
300
CELLSTYLE
  1
TABLEFORMAT_BEGIN
 90
        5
170
     1
 91
        0
 92
    32768
 62
   257
 93
        1
300
CONTENTFORMAT
  1
CONTENTFORMAT_BEGIN
 90
        0
 91
        0
 92
      512
 93
        0
300

 40
0.0
140
1.0
 94
        5
 62
     0
340
F
144
6.0
309
CONTENTFORMAT_END
171
     1
301
MARGIN
  1
CELLMARGIN_BEGIN
 40
1.5
 40
1.5
 40
1.5
 40
1.5
 40
0.18
 40
0.18
309
CELLMARGIN_END
 94
        6
 95
        1
302
GRIDFORMAT
  1
GRIDFORMAT_BEGIN
 90
        0
 91
        1
 62
     0
 92
       -2
340
0
 93
        0
 40
1.125
309
GRIDFORMAT_END
 95
        2
302
GRIDFORMAT
  1
GRIDFORMAT_BEGIN
 90
        0
 91
        1
 62
     0
 92
       -2
340
0
 93
        0
 40
1.125
309
GRIDFORMAT_END
 95
        4
302
GRIDFORMAT
  1
GRIDFORMAT_BEGIN
 90
        0
 91
        1
 62
     0
 92
       -2
340
0
 93
        0
 40
1.125
309
GRIDFORMAT_END
 95
        8
302
GRIDFORMAT
  1
GRIDFORMAT_BEGIN
 90
        0
 91
        1
 62
     0
 92
       -2
340
0
 93
        0
 40
1.125
309
GRIDFORMAT_END
 95
       16
302
GRIDFORMAT
  1
GRIDFORMAT_BEGIN
 90
        0
 91
        1
 62
     0
 92
       -2
340
0
 93
        0
 40
1.125
309
GRIDFORMAT_END
 95
       32
302
GRIDFORMAT
  1
GRIDFORMAT_BEGIN
 90
        0
 91
        1
 62
     0
 92
       -2
340
0
 93
        0
 40
1.125
309
GRIDFORMAT_END
309
TABLEFORMAT_END
  1
CELLSTYLE_BEGIN
 90
        1
 91
        1
300
_TITLE
309
CELLSTYLE_END
300
CELLSTYLE
  1
TABLEFORMAT_BEGIN
 90
        5
170
     1
 91
        0
 92
        0
 62
   257
 93
        1
300
CONTENTFORMAT
  1
CONTENTFORMAT_BEGIN
 90
        0
 91
        0
 92
      512
 93
        0
300

 40
0.0
140
1.0
 94
        5
 62
     0
340
F
144
4.5
309
CONTENTFORMAT_END
171
     1
301
MARGIN
  1
CELLMARGIN_BEGIN
 40
1.5
 40
1.5
 40
1.5
 40
1.5
 40
0.18
 40
0.18
309
CELLMARGIN_END
 94
        6
 95
        1
302
GRIDFORMAT
  1
GRIDFORMAT_BEGIN
 90
        0
 91
        1
 62
     0
 92
       -2
340
0
 93
        0
 40
1.125
309
GRIDFORMAT_END
 95
        2
302
GRIDFORMAT
  1
GRIDFORMAT_BEGIN
 90
        0
 91
        1
 62
     0
 92
       -2
340
0
 93
        0
 40
1.125
309
GRIDFORMAT_END
 95
        4
302
GRIDFORMAT
  1
GRIDFORMAT_BEGIN
 90
        0
 91
        1
 62
     0
 92
       -2
340
0
 93
        0
 40
1.125
309
GRIDFORMAT_END
 95
        8
302
GRIDFORMAT
  1
GRIDFORMAT_BEGIN
 90
        0
 91
        1
 62
     0
 92
       -2
340
0
 93
        0
 40
1.125
309
GRIDFORMAT_END
 95
       16
302
GRIDFORMAT
  1
GRIDFORMAT_BEGIN
 90
        0
 91
        1
 62
     0
 92
       -2
340
0
 93
        0
 40
1.125
309
GRIDFORMAT_END
 95
       32
302
GRIDFORMAT
  1
GRIDFORMAT_BEGIN
 90
        0
 91
        1
 62
     0
 92
       -2
340
0
 93
        0
 40
1.125
309
GRIDFORMAT_END
309
TABLEFORMAT_END
  1
CELLSTYLE_BEGIN
 90
        2
 91
        1
300
_HEADER
309
CELLSTYLE_END
300
CELLSTYLE
  1
TABLEFORMAT_BEGIN
 90
        5
170
     1
 91
        0
 92
        0
 62
   257
 93
        1
300
CONTENTFORMAT
  1
CONTENTFORMAT_BEGIN
 90
        0
 91
        0
 92
      512
 93
        0
300

 40
0.0
140
1.0
 94
        2
 62
     0
340
F
144
4.5
309
CONTENTFORMAT_END
171
     1
301
MARGIN
  1
CELLMARGIN_BEGIN
 40
1.5
 40
1.5
 40
1.5
 40
1.5
 40
0.18
 40
0.18
309
CELLMARGIN_END
 94
        6
 95
        1
302
GRIDFORMAT
  1
GRIDFORMAT_BEGIN
 90
        0
 91
        1
 62
     0
 92
       -2
340
0
 93
        0
 40
1.125
309
GRIDFORMAT_END
 95
        2
302
GRIDFORMAT
  1
GRIDFORMAT_BEGIN
 90
        0
 91
        1
 62
     0
 92
       -2
340
0
 93
        0
 40
1.125
309
GRIDFORMAT_END
 95
        4
302
GRIDFORMAT
  1
GRIDFORMAT_BEGIN
 90
        0
 91
        1
 62
     0
 92
       -2
340
0
 93
        0
 40
1.125
309
GRIDFORMAT_END
 95
        8
302
GRIDFORMAT
  1
GRIDFORMAT_BEGIN
 90
        0
 91
        1
 62
     0
 92
       -2
340
0
 93
        0
 40
1.125
309
GRIDFORMAT_END
 95
       16
302
GRIDFORMAT
  1
GRIDFORMAT_BEGIN
 90
        0
 91
        1
 62
     0
 92
       -2
340
0
 93
        0
 40
1.125
309
GRIDFORMAT_END
 95
       32
302
GRIDFORMAT
  1
GRIDFORMAT_BEGIN
 90
        0
 91
        1
 62
     0
 92
       -2
340
0
 93
        0
 40
1.125
309
GRIDFORMAT_END
309
TABLEFORMAT_END
  1
CELLSTYLE_BEGIN
 90
        3
 91
        2
300
_DATA
309
CELLSTYLE_END
  0
ENDSEC
  0
EOF
