  0
SECTION
  2
HEADER
  9
$ACADVER
  1
AC1027
  9
$ACADMAINTVER
 70
    55
  9
$DWGCODEPAGE
  3
ANSI_932
  9
$LASTSAVEDBY
  1
User
  9
$REQUIREDVERSIONS
160
                 0
  9
$INSBASE
 10
0.0000094929055194
 20
-0.0000021391570044
 30
0.0
  9
$EXTMIN
 10
2122.238923965679
 20
482.0903550687858
 30
-0.0000000000000282
  9
$EXTMAX
 10
2811.858096982187
 20
964.7268931355911
 30
0.0000000000227701
  9
$LIMMIN
 10
0.0000094929055194
 20
0.0
  9
$LIMMAX
 10
408.1800094929055
 20
285.2399978608428
  9
$ORTHOMODE
 70
     0
  9
$REGENMODE
 70
     1
  9
$FILLMODE
 70
     1
  9
$QTEXTMODE
 70
     0
  9
$MIRRTEXT
 70
     0
  9
$LTSCALE
 40
10.0
  9
$ATTMODE
 70
     1
  9
$TEXTSIZE
 40
3.0
  9
$TRACEWID
 40
1.0
  9
$TEXTSTYLE
  7
STANDARD
  9
$CLAYER
  8
OBJECT1
  9
$CELTYPE
  6
BYLAYER
  9
$CECOLOR
 62
   256
  9
$CELTSCALE
 40
1.0
  9
$DISPSILH
 70
     0
  9
$DIMSCALE
 40
4.0
  9
$DIMASZ
 40
2.5
  9
$DIMEXO
 40
1.25
  9
$DIMDLI
 40
7.0
  9
$DIMRND
 40
0.0
  9
$DIMDLE
 40
0.0
  9
$DIMEXE
 40
1.25
  9
$DIMTP
 40
0.0
  9
$DIMTM
 40
0.0
  9
$DIMTXT
 40
3.0
  9
$DIMCEN
 40
3.0
  9
$DIMTSZ
 40
0.0
  9
$DIMTOL
 70
     0
  9
$DIMLIM
 70
     0
  9
$DIMTIH
 70
     0
  9
$DIMTOH
 70
     0
  9
$DIMSE1
 70
     0
  9
$DIMSE2
 70
     0
  9
$DIMTAD
 70
     3
  9
$DIMZIN
 70
     8
  9
$DIMBLK
  1

  9
$DIMASO
 70
     1
  9
$DIMSHO
 70
     1
  9
$DIMPOST
  1

  9
$DIMAPOST
  1

  9
$DIMALT
 70
     0
  9
$DIMALTD
 70
     2
  9
$DIMALTF
 40
25.4
  9
$DIMLFAC
 40
1.0
  9
$DIMTOFL
 70
     1
  9
$DIMTVP
 40
0.0
  9
$DIMTIX
 70
     0
  9
$DIMSOXD
 70
     0
  9
$DIMSAH
 70
     1
  9
$DIMBLK1
  1
OPEN
  9
$DIMBLK2
  1
OPEN
  9
$DIMSTYLE
  2
STANDARD
  9
$DIMCLRD
 70
     1
  9
$DIMCLRE
 70
     1
  9
$DIMCLRT
 70
     2
  9
$DIMTFAC
 40
1.0
  9
$DIMGAP
 40
1.0
  9
$DIMJUST
 70
     0
  9
$DIMSD1
 70
     0
  9
$DIMSD2
 70
     0
  9
$DIMTOLJ
 70
     1
  9
$DIMTZIN
 70
     0
  9
$DIMALTZ
 70
     0
  9
$DIMALTTZ
 70
     0
  9
$DIMUPT
 70
     0
  9
$DIMDEC
 70
     1
  9
$DIMTDEC
 70
     1
  9
$DIMALTU
 70
     2
  9
$DIMALTTD
 70
     2
  9
$DIMTXSTY
  7
STANDARD
  9
$DIMAUNIT
 70
     0
  9
$DIMADEC
 70
     2
  9
$DIMALTRND
 40
0.0
  9
$DIMAZIN
 70
     2
  9
$DIMDSEP
 70
    46
  9
$DIMATFIT
 70
     3
  9
$DIMFRAC
 70
     0
  9
$DIMLDRBLK
  1
OPEN
  9
$DIMLUNIT
 70
     2
  9
$DIMLWD
 70
    -2
  9
$DIMLWE
 70
    -2
  9
$DIMTMOVE
 70
     0
  9
$DIMFXL
 40
1.0
  9
$DIMFXLON
 70
     0
  9
$DIMJOGANG
 40
0.7853981633974483
  9
$DIMTFILL
 70
     0
  9
$DIMTFILLCLR
 70
     0
  9
$DIMARCSYM
 70
     0
  9
$DIMLTYPE
  6

  9
$DIMLTEX1
  6

  9
$DIMLTEX2
  6

  9
$DIMTXTDIRECTION
 70
     0
  9
$LUNITS
 70
     2
  9
$LUPREC
 70
     4
  9
$SKETCHINC
 40
1.0
  9
$FILLETRAD
 40
10.0
  9
$AUNITS
 70
     0
  9
$AUPREC
 70
     0
  9
$MENU
  1
acad
  9
$ELEVATION
 40
0.0
  9
$PELEVATION
 40
0.0
  9
$THICKNESS
 40
0.0
  9
$LIMCHECK
 70
     0
  9
$CHAMFERA
 40
10.0
  9
$CHAMFERB
 40
10.0
  9
$CHAMFERC
 40
20.0
  9
$CHAMFERD
 40
0.0
  9
$SKPOLY
 70
     0
  9
$TDCREATE
 40
2455971.778741852
  9
$TDUCREATE
 40
2455971.403741852
  9
$TDUPDATE
 40
2459248.778417709
  9
$TDUUPDATE
 40
2459248.403417709
  9
$TDINDWG
 40
0.4367891319
  9
$TDUSRTIMER
 40
0.4367890162
  9
$USRTIMER
 70
     1
  9
$ANGBASE
 50
0.0
  9
$ANGDIR
 70
     0
  9
$PDMODE
 70
     0
  9
$PDSIZE
 40
0.0
  9
$PLINEWID
 40
0.0
  9
$SPLFRAME
 70
     0
  9
$SPLINETYPE
 70
     6
  9
$SPLINESEGS
 70
     8
  9
$HANDSEED
  5
D14F
  9
$SURFTAB1
 70
     6
  9
$SURFTAB2
 70
     6
  9
$SURFTYPE
 70
     6
  9
$SURFU
 70
     6
  9
$SURFV
 70
     6
  9
$UCSBASE
  2

  9
$UCSNAME
  2

  9
$UCSORG
 10
0.0
 20
0.0
 30
0.0
  9
$UCSXDIR
 10
1.0
 20
0.0
 30
0.0
  9
$UCSYDIR
 10
0.0
 20
1.0
 30
0.0
  9
$UCSORTHOREF
  2

  9
$UCSORTHOVIEW
 70
     0
  9
$UCSORGTOP
 10
0.0
 20
0.0
 30
0.0
  9
$UCSORGBOTTOM
 10
0.0
 20
0.0
 30
0.0
  9
$UCSORGLEFT
 10
0.0
 20
0.0
 30
0.0
  9
$UCSORGRIGHT
 10
0.0
 20
0.0
 30
0.0
  9
$UCSORGFRONT
 10
0.0
 20
0.0
 30
0.0
  9
$UCSORGBACK
 10
0.0
 20
0.0
 30
0.0
  9
$PUCSBASE
  2

  9
$PUCSNAME
  2

  9
$PUCSORG
 10
0.0
 20
0.0
 30
0.0
  9
$PUCSXDIR
 10
1.0
 20
0.0
 30
0.0
  9
$PUCSYDIR
 10
0.0
 20
1.0
 30
0.0
  9
$PUCSORTHOREF
  2

  9
$PUCSORTHOVIEW
 70
     0
  9
$PUCSORGTOP
 10
0.0
 20
0.0
 30
0.0
  9
$PUCSORGBOTTOM
 10
0.0
 20
0.0
 30
0.0
  9
$PUCSORGLEFT
 10
0.0
 20
0.0
 30
0.0
  9
$PUCSORGRIGHT
 10
0.0
 20
0.0
 30
0.0
  9
$PUCSORGFRONT
 10
0.0
 20
0.0
 30
0.0
  9
$PUCSORGBACK
 10
0.0
 20
0.0
 30
0.0
  9
$USERI1
 70
     0
  9
$USERI2
 70
     0
  9
$USERI3
 70
     0
  9
$USERI4
 70
     0
  9
$USERI5
 70
     0
  9
$USERR1
 40
0.0
  9
$USERR2
 40
0.0
  9
$USERR3
 40
0.0
  9
$USERR4
 40
0.0
  9
$USERR5
 40
0.0
  9
$WORLDVIEW
 70
     1
  9
$SHADEDGE
 70
     3
  9
$SHADEDIF
 70
    70
  9
$TILEMODE
 70
     1
  9
$MAXACTVP
 70
    48
  9
$PINSBASE
 10
0.0
 20
0.0
 30
0.0
  9
$PLIMCHECK
 70
     0
  9
$PEXTMIN
 10
1.000000000000000E+20
 20
1.000000000000000E+20
 30
1.000000000000000E+20
  9
$PEXTMAX
 10
-1.000000000000000E+20
 20
-1.000000000000000E+20
 30
-1.000000000000000E+20
  9
$PLIMMIN
 10
0.0
 20
0.0
  9
$PLIMMAX
 10
420.0
 20
297.0
  9
$UNITMODE
 70
     0
  9
$VISRETAIN
 70
     1
  9
$PLINEGEN
 70
     0
  9
$PSLTSCALE
 70
     1
  9
$TREEDEPTH
 70
  3020
  9
$CMLSTYLE
  2
STANDARD
  9
$CMLJUST
 70
     0
  9
$CMLSCALE
 40
20.0
  9
$PROXYGRAPHICS
 70
     1
  9
$MEASUREMENT
 70
     1
  9
$CELWEIGHT
370
    -1
  9
$ENDCAPS
280
     0
  9
$JOINSTYLE
280
     0
  9
$LWDISPLAY
290
     0
  9
$INSUNITS
 70
     0
  9
$HYPERLINKBASE
  1

  9
$STYLESHEET
  1
TAGAI1.CTB
  9
$XEDIT
290
     1
  9
$CEPSNTYPE
380
     0
  9
$PSTYLEMODE
290
     1
  9
$FINGERPRINTGUID
  2
{8B4E85C4-259A-11D8-AF91-00C04F101805}
  9
$VERSIONGUID
  2
{FE5EDB85-F9D6-4578-B2D9-453FDBB66827}
  9
$EXTNAMES
290
     1
  9
$PSVPSCALE
 40
0.0
  9
$OLESTARTUP
290
     0
  9
$SORTENTS
280
    96
  9
$INDEXCTL
280
     0
  9
$HIDETEXT
280
     0
  9
$XCLIPFRAME
280
     2
  9
$HALOGAP
280
     0
  9
$OBSCOLOR
 70
   257
  9
$OBSLTYPE
280
     0
  9
$INTERSECTIONDISPLAY
280
     0
  9
$INTERSECTIONCOLOR
 70
   257
  9
$DIMASSOC
280
     1
  9
$PROJECTNAME
  1

  9
$CAMERADISPLAY
290
     0
  9
$LENSLENGTH
 40
50.0
  9
$CAMERAHEIGHT
 40
0.0
  9
$STEPSPERSEC
 40
2.0
  9
$STEPSIZE
 40
6.0
  9
$3DDWFPREC
 40
2.0
  9
$PSOLWIDTH
 40
0.25
  9
$PSOLHEIGHT
 40
4.0
  9
$LOFTANG1
 40
1.570796326794896
  9
$LOFTANG2
 40
1.570796326794896
  9
$LOFTMAG1
 40
0.0
  9
$LOFTMAG2
 40
0.0
  9
$LOFTPARAM
 70
     7
  9
$LOFTNORMALS
280
     1
  9
$LATITUDE
 40
37.795
  9
$LONGITUDE
 40
-122.394
  9
$NORTHDIRECTION
 40
0.0
  9
$TIMEZONE
 70
 -8000
  9
$LIGHTGLYPHDISPLAY
280
     1
  9
$TILEMODELIGHTSYNCH
280
     1
  9
$CMATERIAL
347
57AE
  9
$SOLIDHIST
280
     0
  9
$SHOWHIST
280
     1
  9
$DWFFRAME
280
     2
  9
$DGNFRAME
280
     0
  9
$REALWORLDSCALE
290
     1
  9
$INTERFERECOLOR
 62
     1
  9
$INTERFEREOBJVS
345
57D0
  9
$INTERFEREVPVS
346
57CD
  9
$CSHADOW
280
     0
  9
$SHADOWPLANELOCATION
 40
0.0
  0
ENDSEC
  0
SECTION
  2
CLASSES
  0
CLASS
  1
DICTIONARYVAR
  2
AcDbDictionaryVar
  3
ObjectDBX Classes
 90
        0
 91
       13
280
     0
281
     0
  0
CLASS
  1
ACDBDICTIONARYWDFLT
  2
AcDbDictionaryWithDefault
  3
ObjectDBX Classes
 90
        0
 91
        1
280
     0
281
     0
  0
CLASS
  1
PLOTSETTINGS
  2
AcDbPlotSettings
  3
ObjectDBX Classes
 90
        0
 91
        6
280
     0
281
     0
  0
CLASS
  1
MATERIAL
  2
AcDbMaterial
  3
ObjectDBX Classes
 90
     1153
 91
        3
280
     0
281
     0
  0
CLASS
  1
VISUALSTYLE
  2
AcDbVisualStyle
  3
ObjectDBX Classes
 90
     4095
 91
       24
280
     0
281
     0
  0
CLASS
  1
TABLESTYLE
  2
AcDbTableStyle
  3
ObjectDBX Classes
 90
     4095
 91
        1
280
     0
281
     0
  0
CLASS
  1
SCALE
  2
AcDbScale
  3
ObjectDBX Classes
 90
     1153
 91
       17
280
     0
281
     0
  0
CLASS
  1
MLEADERSTYLE
  2
AcDbMLeaderStyle
  3
ACDB_MLEADERSTYLE_CLASS
 90
     4095
 91
        1
280
     0
281
     0
  0
CLASS
  1
ACDBSECTIONVIEWSTYLE
  2
AcDbSectionViewStyle
  3
ObjectDBX Classes
 90
     1025
 91
        2
280
     0
281
     0
  0
CLASS
  1
ACDBDETAILVIEWSTYLE
  2
AcDbDetailViewStyle
  3
ObjectDBX Classes
 90
     1025
 91
        2
280
     0
281
     0
  0
CLASS
  1
CELLSTYLEMAP
  2
AcDbCellStyleMap
  3
ObjectDBX Classes
 90
     1152
 91
        6
280
     0
281
     0
  0
CLASS
  1
SORTENTSTABLE
  2
AcDbSortentsTable
  3
ObjectDBX Classes
 90
        0
 91
        5
280
     0
281
     0
  0
CLASS
  1
LARGE_RADIAL_DIMENSION
  2
AcDbRadialDimensionLarge
  3
ObjectDBX Classes
 90
     1025
 91
        0
280
     0
281
     1
  0
ENDSEC
  0
SECTION
  2
TABLES
  0
TABLE
  2
VPORT
  5
8
102
{ACAD_XDICTIONARY
360
5826
102
}
330
0
100
AcDbSymbolTable
 70
     1
  0
VPORT
  5
57AB
330
8
100
AcDbSymbolTableRecord
100
AcDbViewportTableRecord
  2
*Active
 70
     0
 10
0.0
 20
0.0
 11
1.0
 21
1.0
 12
2467.048510473933
 22
723.4086241021884
 13
0.0
 23
0.0
 14
10.0
 24
10.0
 15
10.0
 25
10.0
 16
0.0
 26
0.0
 36
1.0
 17
0.0
 27
0.0
 37
0.0
 40
486.2699373496169
 41
1.865577889447236
 42
50.0
 43
0.0
 44
0.0
 50
0.0
 51
0.0
 71
     0
 72
   100
 73
     1
 74
     1
 75
     0
 76
     0
 77
     0
 78
     0
281
     0
 65
     1
110
0.0
120
0.0
130
0.0
111
1.0
121
0.0
131
0.0
112
0.0
122
1.0
132
0.0
 79
     0
146
0.0
348
57CC
 60
     3
 61
     5
292
     1
282
     1
141
0.0
142
0.0
 63
   250
421
  3355443
1001
ACAD_NAV_VCDISPLAY
1070
     3
  0
ENDTAB
  0
TABLE
  2
LTYPE
  5
5
330
0
100
AcDbSymbolTable
 70
     5
  0
LTYPE
  5
12
330
5
100
AcDbSymbolTableRecord
100
AcDbLinetypeTableRecord
  2
BYBLOCK
 70
     0
  3

 72
    65
 73
     0
 40
0.0
  0
LTYPE
  5
13
330
5
100
AcDbSymbolTableRecord
100
AcDbLinetypeTableRecord
  2
BYLAYER
 70
     0
  3

 72
    65
 73
     0
 40
0.0
  0
LTYPE
  5
14
330
5
100
AcDbSymbolTableRecord
100
AcDbLinetypeTableRecord
  2
CONTINUOUS
 70
     0
  3
Solid line
 72
    65
 73
     0
 40
0.0
  0
LTYPE
  5
326
330
5
100
AcDbSymbolTableRecord
100
AcDbLinetypeTableRecord
  2
HIDDEN
 70
     0
  3
Hidden __ __ __ __ __ __ __ __ __ __ __ __ __ _
 72
    65
 73
     2
 40
9.524999999999996
 49
6.349999999999998
 74
     0
 49
-3.174999999999998
 74
     0
  0
LTYPE
  5
327
330
5
100
AcDbSymbolTableRecord
100
AcDbLinetypeTableRecord
  2
CENTER
 70
     0
  3
Center ____ _ ____ _ ____ _ ____ _ ____ _ ____
 72
    65
 73
     4
 40
2.0
 49
1.25
 74
     0
 49
-0.25
 74
     0
 49
0.25
 74
     0
 49
-0.25
 74
     0
  0
LTYPE
  5
328
330
5
100
AcDbSymbolTableRecord
100
AcDbLinetypeTableRecord
  2
PHANTOM
 70
     0
  3
Phantom ______  __  __  ______  __  __  ______
 72
    65
 73
     6
 40
2.5
 49
1.25
 74
     0
 49
-0.25
 74
     0
 49
0.25
 74
     0
 49
-0.25
 74
     0
 49
0.25
 74
     0
 49
-0.25
 74
     0
  0
ENDTAB
  0
TABLE
  2
LAYER
  5
2
102
{ACAD_XDICTIONARY
360
2886
102
}
330
0
100
AcDbSymbolTable
 70
    16
  0
LAYER
  5
E
102
{ACAD_XDICTIONARY
360
5800
102
}
330
2
100
AcDbSymbolTableRecord
100
AcDbLayerTableRecord
  2
0
 70
     0
 62
     7
  6
CONTINUOUS
370
    -3
390
75D
347
57BE
348
0
  0
LAYER
  5
32A
102
{ACAD_XDICTIONARY
360
5802
102
}
330
2
100
AcDbSymbolTableRecord
100
AcDbLayerTableRecord
  2
IMAGINE
 70
     0
 62
     6
  6
PHANTOM
370
    -3
390
75D
347
57BE
348
0
  0
LAYER
  5
32B
330
2
100
AcDbSymbolTableRecord
100
AcDbLayerTableRecord
  2
DEFPOINTS
 70
     0
 62
     7
  6
CONTINUOUS
290
     0
370
    -3
390
75D
347
57BE
348
0
  0
LAYER
  5
32C
102
{ACAD_XDICTIONARY
360
5804
102
}
330
2
100
AcDbSymbolTableRecord
100
AcDbLayerTableRecord
  2
OBJECT1
 70
     0
 62
     7
  6
CONTINUOUS
370
    -3
390
75D
347
57BE
348
0
  0
LAYER
  5
32D
102
{ACAD_XDICTIONARY
360
5806
102
}
330
2
100
AcDbSymbolTableRecord
100
AcDbLayerTableRecord
  2
-TEXT
 70
     0
 62
     2
  6
CONTINUOUS
370
    -3
390
75D
347
57BE
348
0
  0
LAYER
  5
32E
102
{ACAD_XDICTIONARY
360
5808
102
}
330
2
100
AcDbSymbolTableRecord
100
AcDbLayerTableRecord
  2
CENTER
 70
     0
 62
     4
  6
CENTER
370
    -3
390
75D
347
57BE
348
0
  0
LAYER
  5
32F
102
{ACAD_XDICTIONARY
360
580A
102
}
330
2
100
AcDbSymbolTableRecord
100
AcDbLayerTableRecord
  2
PARTS
 70
     0
 62
     3
  6
CONTINUOUS
370
    -3
390
75D
347
57BE
348
0
  0
LAYER
  5
330
102
{ACAD_XDICTIONARY
360
580C
102
}
330
2
100
AcDbSymbolTableRecord
100
AcDbLayerTableRecord
  2
DIM
 70
     0
 62
     1
  6
CONTINUOUS
370
    -3
390
75D
347
57BE
348
0
  0
LAYER
  5
331
102
{ACAD_XDICTIONARY
360
580E
102
}
330
2
100
AcDbSymbolTableRecord
100
AcDbLayerTableRecord
  2
HIDE
 70
     0
 62
     2
  6
HIDDEN
370
    -3
390
75D
347
57BE
348
0
  0
LAYER
  5
11B8
102
{ACAD_XDICTIONARY
360
5810
102
}
330
2
100
AcDbSymbolTableRecord
100
AcDbLayerTableRecord
  2
図面枠
 70
     0
 62
     7
  6
CONTINUOUS
370
    -3
390
75D
347
57BE
348
0
  0
LAYER
  5
138B
102
{ACAD_XDICTIONARY
360
5812
102
}
330
2
100
AcDbSymbolTableRecord
100
AcDbLayerTableRecord
  2
履歴
 70
     0
 62
    -7
  6
CONTINUOUS
370
    -3
390
75D
347
57BE
348
0
  0
LAYER
  5
4696
102
{ACAD_XDICTIONARY
360
4697
102
}
330
2
100
AcDbSymbolTableRecord
100
AcDbLayerTableRecord
  2
OBJECT
 70
     0
 62
     7
  6
CONTINUOUS
370
    -3
390
75D
347
57BE
348
0
  0
LAYER
  5
796B
102
{ACAD_XDICTIONARY
360
796C
102
}
330
2
100
AcDbSymbolTableRecord
100
AcDbLayerTableRecord
  2
OBJECT2
 70
     0
 62
     5
  6
CONTINUOUS
370
    -3
390
75D
347
57BE
348
0
  0
LAYER
  5
D0AE
102
{ACAD_XDICTIONARY
360
D0AF
102
}
330
2
100
AcDbSymbolTableRecord
100
AcDbLayerTableRecord
  2
1：主線
 70
     0
 62
     7
  6
CONTINUOUS
370
    -3
390
75D
347
57BE
348
0
  0
LAYER
  5
D0DD
102
{ACAD_XDICTIONARY
360
D0DE
102
}
330
2
100
AcDbSymbolTableRecord
100
AcDbLayerTableRecord
  2
7：文字
 70
     0
 62
     2
  6
CONTINUOUS
370
    -3
390
75D
347
57BE
348
0
  0
LAYER
  5
D108
102
{ACAD_XDICTIONARY
360
D109
102
}
330
2
100
AcDbSymbolTableRecord
100
AcDbLayerTableRecord
  2
2：副線
 70
     0
 62
     5
  6
CONTINUOUS
370
    -3
390
75D
347
57BE
348
0
  0
ENDTAB
  0
TABLE
  2
STYLE
  5
3
330
0
100
AcDbSymbolTable
 70
     4
  0
STYLE
  5
F
330
3
100
AcDbSymbolTableRecord
100
AcDbTextStyleTableRecord
  2
STANDARD
 70
     0
 40
0.0
 41
1.0
 50
0.0
 71
     0
 42
3.0
  3
isocp.shx
  4
bigfont.shx
  0
STYLE
  5
333
330
3
100
AcDbSymbolTableRecord
100
AcDbTextStyleTableRecord
  2
JX_FONT
 70
     0
 40
1.0
 41
1.0
 50
0.0
 71
     0
 42
1.0
  3
monotxt
  4
bigfont
  0
STYLE
  5
469B
330
3
100
AcDbSymbolTableRecord
100
AcDbTextStyleTableRecord
  2
BIGFONT
 70
     0
 40
4.0
 41
1.0
 50
0.0
 71
     0
 42
4.0
  3
txt
  4
bigfont
  0
STYLE
  5
BF26
330
3
100
AcDbSymbolTableRecord
100
AcDbTextStyleTableRecord
  2
スタイル1
 70
     0
 40
10.0
 41
1.0
 50
0.0
 71
     0
 42
10.0
  3
isocp.shx
  4
bigfont.shx
  0
ENDTAB
  0
TABLE
  2
VIEW
  5
6
330
0
100
AcDbSymbolTable
 70
     2
  0
ENDTAB
  0
TABLE
  2
UCS
  5
7
330
0
100
AcDbSymbolTable
 70
     0
  0
ENDTAB
  0
TABLE
  2
APPID
  5
9
330
0
100
AcDbSymbolTable
 70
    20
  0
APPID
  5
10
330
9
100
AcDbSymbolTableRecord
100
AcDbRegAppTableRecord
  2
ACAD
 70
     0
  0
APPID
  5
24
330
9
100
AcDbSymbolTableRecord
100
AcDbRegAppTableRecord
  2
CONTENTTABDATA
 70
     0
  0
APPID
  5
25
330
9
100
AcDbSymbolTableRecord
100
AcDbRegAppTableRecord
  2
CONTENTCURRENTTAB
 70
     0
  0
APPID
  5
469D
330
9
100
AcDbSymbolTableRecord
100
AcDbRegAppTableRecord
  2
GENIUS_GENODEF_13
 70
     0
  0
APPID
  5
469E
330
9
100
AcDbSymbolTableRecord
100
AcDbRegAppTableRecord
  2
GENIUS_GENOBJ-N-REC_13
 70
     0
  0
APPID
  5
469F
330
9
100
AcDbSymbolTableRecord
100
AcDbRegAppTableRecord
  2
GENIUS_GENREC_14
 70
     0
  0
APPID
  5
5820
330
9
100
AcDbSymbolTableRecord
100
AcDbRegAppTableRecord
  2
ACAD_PSEXT
 70
     0
  0
APPID
  5
5821
330
9
100
AcDbSymbolTableRecord
100
AcDbRegAppTableRecord
  2
ACAD_NAV_VCDISPLAY
 70
     0
  0
APPID
  5
5870
330
9
100
AcDbSymbolTableRecord
100
AcDbRegAppTableRecord
  2
ACAD_MLEADERVER
 70
     0
  0
APPID
  5
58E3
330
9
100
AcDbSymbolTableRecord
100
AcDbRegAppTableRecord
  2
ACAD_EXEMPT_FROM_CAD_STANDARDS
 70
     0
  0
APPID
  5
60EC
330
9
100
AcDbSymbolTableRecord
100
AcDbRegAppTableRecord
  2
ACAD_DSTYLE_DIMBREAK
 70
     0
  0
APPID
  5
60ED
330
9
100
AcDbSymbolTableRecord
100
AcDbRegAppTableRecord
  2
ACAD_DSTYLE_DIMJAG
 70
     0
  0
APPID
  5
60EE
330
9
100
AcDbSymbolTableRecord
100
AcDbRegAppTableRecord
  2
ACAD_DSTYLE_DIMTALN
 70
     0
  0
APPID
  5
6C6A
330
9
100
AcDbSymbolTableRecord
100
AcDbRegAppTableRecord
  2
AcadAnnoMonitorAlertIconDisabled
 70
     0
  0
APPID
  5
6E52
330
9
100
AcDbSymbolTableRecord
100
AcDbRegAppTableRecord
  2
ACAD_DSTYLE_DIMRADIAL_EXTENSION
 70
     0
  0
APPID
  5
7970
330
9
100
AcDbSymbolTableRecord
100
AcDbRegAppTableRecord
  2
AcAecLayerStandard
 70
     0
  0
APPID
  5
7971
330
9
100
AcDbSymbolTableRecord
100
AcDbRegAppTableRecord
  2
AcCmTransparency
 70
     0
  0
APPID
  5
7972
330
9
100
AcDbSymbolTableRecord
100
AcDbRegAppTableRecord
  2
GradientColor1ACI
 70
     0
  0
APPID
  5
7973
330
9
100
AcDbSymbolTableRecord
100
AcDbRegAppTableRecord
  2
GradientColor2ACI
 70
     0
  0
APPID
  5
9B48
330
9
100
AcDbSymbolTableRecord
100
AcDbRegAppTableRecord
  2
AcDbDynamicBlockGUID
 70
     0
  0
ENDTAB
  0
TABLE
  2
DIMSTYLE
  5
A
330
0
100
AcDbSymbolTable
 70
     6
100
AcDbDimStyleTable
 71
     2
340
1D
340
60EB
  0
DIMSTYLE
105
1D
330
A
100
AcDbSymbolTableRecord
100
AcDbDimStyleTableRecord
  2
STANDARD
 70
     0
 41
2.5
 42
1.25
 43
7.0
 44
1.25
 73
     0
 74
     0
 77
     3
 78
     8
 79
     2
140
3.0
141
3.0
147
1.0
172
     1
173
     1
176
     1
177
     1
178
     2
179
     2
271
     2
272
     2
289
     0
340
F
341
36
343
36
344
36
  0
DIMSTYLE
105
469C
330
A
100
AcDbSymbolTableRecord
100
AcDbDimStyleTableRecord
  2
STANDARD$0
 70
     0
 40
2.0
 41
2.5
 42
1.0
 43
7.0
 44
1.0
 73
     0
 74
     0
 77
     1
 78
     8
140
3.0
141
0.0
147
1.25
172
     1
176
     1
177
     1
178
     2
340
F
341
36
342
36
  0
DIMSTYLE
105
60EB
330
A
100
AcDbSymbolTableRecord
100
AcDbDimStyleTableRecord
  2
STANDARD++$0
 70
     0
 40
2.0
 41
2.5
 42
1.0
 43
7.0
 44
1.0
 73
     0
 74
     0
 77
     1
 78
     8
140
3.0
141
0.0
147
1.25
172
     1
176
     1
177
     1
178
     2
340
F
341
36
342
36
1001
ACAD_DSTYLE_DIMBREAK
1070
   391
1040
3.75
1001
ACAD_DSTYLE_DIMJAG
1070
   388
1040
1.5
1001
ACAD_DSTYLE_DIMTALN
1070
   392
1070
     0
  0
DIMSTYLE
105
C9F0
330
A
100
AcDbSymbolTableRecord
100
AcDbDimStyleTableRecord
  2
STANDARD$7
 70
     0
 40
2.0
 41
2.5
 42
1.25
 43
7.0
 44
1.25
 73
     0
 74
     0
 77
     3
 78
     8
 79
     2
140
3.0
141
3.0
147
1.0
172
     1
173
     1
176
     1
177
     1
178
     2
179
     2
271
     2
272
     2
340
F
341
36
343
36
344
36
1001
ACAD_DSTYLE_DIMBREAK
1070
   391
1040
3.75
1001
ACAD_DSTYLE_DIMJAG
1070
   388
1040
1.5
1001
ACAD_DSTYLE_DIMTALN
1070
   392
1070
     0
  0
DIMSTYLE
105
C9F1
330
A
100
AcDbSymbolTableRecord
100
AcDbDimStyleTableRecord
  2
STANDARDX1
 70
     0
 40
4.0
 41
2.5
 42
1.25
 43
7.0
 44
1.25
 73
     0
 74
     0
 77
     3
 78
     8
 79
     2
140
3.0
141
3.0
147
1.0
172
     1
173
     1
176
     1
177
     1
178
     2
179
     2
271
     2
272
     2
289
     0
340
F
341
36
343
36
344
36
  0
DIMSTYLE
105
D0B0
330
A
100
AcDbSymbolTableRecord
100
AcDbDimStyleTableRecord
  2
×1
 70
     0
 41
2.0
 42
1.6
 43
6.0
 44
0.8
 73
     0
 74
     0
 77
     3
 78
     8
 79
     2
 90
     1
140
7.0
141
3.0
147
1.0
172
     1
173
     1
176
     1
177
     1
178
     2
179
     2
271
     2
272
     2
340
F
341
36
343
36
344
36
1001
ACAD_DSTYLE_DIMJAG
1070
   388
1040
1.5
1001
ACAD_DSTYLE_DIMTALN
1070
   392
1070
     0
  0
ENDTAB
  0
TABLE
  2
BLOCK_RECORD
  5
1
330
0
100
AcDbSymbolTable
 70
    25
  0
BLOCK_RECORD
  5
18
102
{ACAD_XDICTIONARY
360
5B07
102
}
330
1
100
AcDbSymbolTableRecord
100
AcDbBlockTableRecord
  2
*MODEL_SPACE
340
760
 70
     0
280
     1
281
     0
  0
BLOCK_RECORD
  5
15
330
1
100
AcDbSymbolTableRecord
100
AcDbBlockTableRecord
  2
*PAPER_SPACE
340
761
 70
     0
280
     1
281
     0
  0
BLOCK_RECORD
  5
36
330
1
100
AcDbSymbolTableRecord
100
AcDbBlockTableRecord
  2
_OPEN
340
0
102
{BLKREFS
331
A5F2
331
A5F3
331
AEAE
331
AEAF
331
AF12
331
AF13
331
AF31
331
AF32
331
AF3A
331
AF3B
331
AF50
331
AF51
331
AF62
331
AF63
331
BDDA
331
BDDB
331
BDE3
331
BDE4
331
C53F
331
C540
331
CE25
331
CE2B
331
CE2C
331
CE34
331
CE35
331
CE3D
331
CE3E
331
CE46
331
CE47
331
CE4F
331
CE57
331
CE58
331
CE62
331
CE63
331
CFD7
331
CFD8
102
}
 70
     0
280
     1
281
     0
  0
BLOCK_RECORD
  5
2203
330
1
100
AcDbSymbolTableRecord
100
AcDbBlockTableRecord
  2
INABA_A3
340
0
310
2800000020000000200000000100080000000000000400000000000000000000000000000000000000000000000080000080000000808000800000008000800080800000C0C0C000C0DCC000F0CAA6000020400000206000002080000020A0000020C0000020E00000400000004020000040400000406000004080000040A0
310
000040C0000040E00000600000006020000060400000606000006080000060A0000060C0000060E00000800000008020000080400000806000008080000080A0000080C0000080E00000A0000000A0200000A0400000A0600000A0800000A0A00000A0C00000A0E00000C0000000C0200000C0400000C0600000C0800000C0
310
A00000C0C00000C0E00000E0000000E0200000E0400000E0600000E0800000E0A00000E0C00000E0E00040000000400020004000400040006000400080004000A0004000C0004000E00040200000402020004020400040206000402080004020A0004020C0004020E000404000004040200040404000404060004040800040
310
40A0004040C0004040E00040600000406020004060400040606000406080004060A0004060C0004060E00040800000408020004080400040806000408080004080A0004080C0004080E00040A0000040A0200040A0400040A0600040A0800040A0A00040A0C00040A0E00040C0000040C0200040C0400040C0600040C08000
310
40C0A00040C0C00040C0E00040E0000040E0200040E0400040E0600040E0800040E0A00040E0C00040E0E00080000000800020008000400080006000800080008000A0008000C0008000E00080200000802020008020400080206000802080008020A0008020C0008020E00080400000804020008040400080406000804080
310
008040A0008040C0008040E00080600000806020008060400080606000806080008060A0008060C0008060E00080800000808020008080400080806000808080008080A0008080C0008080E00080A0000080A0200080A0400080A0600080A0800080A0A00080A0C00080A0E00080C0000080C0200080C0400080C0600080C0
310
800080C0A00080C0C00080C0E00080E0000080E0200080E0400080E0600080E0800080E0A00080E0C00080E0E000C0000000C0002000C0004000C0006000C0008000C000A000C000C000C000E000C0200000C0202000C0204000C0206000C0208000C020A000C020C000C020E000C0400000C0402000C0404000C0406000C0
310
408000C040A000C040C000C040E000C0600000C0602000C0604000C0606000C0608000C060A000C060C000C060E000C0800000C0802000C0804000C0806000C0808000C080A000C080C000C080E000C0A00000C0A02000C0A04000C0A06000C0A08000C0A0A000C0A0C000C0A0E000C0C00000C0C02000C0C04000C0C06000
310
C0C08000C0C0A000F0FBFF00A4A0A000808080000000FF0000FF000000FFFF00FF000000FF00FF00FFFF0000FFFFFF0000000000000000000000000000000000000000000000000000000000000000000000000000000000000000000000000000000000000000000000000000000000000000000000000000000000000000
310
000000000000000000000000000000000000000000000000000000000000000000000000000000000000000000000000000000000000000000000000000000000000000000000000000000000000000000000000000000000000000000000000000000000000000000000000000000000000A2FFFFFFFFFFFFFFFFFFFFFFFF
310
FFFFFFFFFFFFFFFFFFFFFFFFFFFFFFFFA20000A2FFFFFF000000000000000000000000FFFFFFFFFFFFFFFFFFFFFFFFFFA20000A2FFFFFF000000000000000000000000FFFFFFFFFFFFFFFFFFFFFFFFFFA20000A2FFFFFF000000000000000000000000000000000000000000000000FFA20000A2FFFFFF0000000000000000
310
00000000000000000000000000000000FFA20000A2FF0000000000000000000000000000000000000000000000000000FFA20000A2FF0000000000000000000000000000000000000000000000000000FFA20000A2FF0000000000000000000000000000000000000000000000000000FFA20000A2FF000000000000000000
310
0000000000000000000000000000000000FFA20000A2FF0000000000000000000000000000000000000000000000000000FFA20000A2FF0000000000000000000000000000000000000000000000000000FFA20000A2FF0000000000000000000000000000000000000000000000000000FFA20000A2FF0000000000000000
310
000000000000000000000000000000000000FFA20000A2FF0000000000000000000000000000000000000000000000000000FFA20000A2FF0000000000000000000000000000000000000000000000000000FFA20000A2FF0000000000000000000000000000000000000000000000000000FFA20000A2FF00000000000000
310
00000000000000000000000000000000000000FFA20000A2FF0000000000000000000000000000000000000000000000000000FFA20000A2FF0000000000000000000000000000000000000000000000000000FFA20000A2FFFFFFFFFFFFFFFFFFFFFFFFFFFFFFFFFFFFFFFFFFFFFFFFFFFFFFFFA200000000000000000000
310
00000000000000000000000000000000000000000000000000000000000000000000000000000000000000000000000000000000000000000000000000000000000000000000000000000000000000000000000000000000000000000000000000000000000000000000000000000000000000000000000000000000000000
310
0000000000000000000000000000000000000000000000000000000000000000000000000000000000000000000000000000000000000000
 70
     4
280
     1
281
     0
  0
BLOCK_RECORD
  5
A461
330
1
100
AcDbSymbolTableRecord
100
AcDbBlockTableRecord
  2
*D2
340
0
 70
     0
280
     1
281
     0
  0
BLOCK_RECORD
  5
A46E
330
1
100
AcDbSymbolTableRecord
100
AcDbBlockTableRecord
  2
*D3
340
0
 70
     0
280
     1
281
     0
  0
BLOCK_RECORD
  5
A47A
330
1
100
AcDbSymbolTableRecord
100
AcDbBlockTableRecord
  2
*D4
340
0
 70
     0
280
     1
281
     0
  0
BLOCK_RECORD
  5
A486
330
1
100
AcDbSymbolTableRecord
100
AcDbBlockTableRecord
  2
*D5
340
0
 70
     0
280
     1
281
     0
  0
BLOCK_RECORD
  5
A49E
330
1
100
AcDbSymbolTableRecord
100
AcDbBlockTableRecord
  2
*D6
340
0
 70
     0
280
     1
281
     0
  0
BLOCK_RECORD
  5
A4AC
330
1
100
AcDbSymbolTableRecord
100
AcDbBlockTableRecord
  2
*D7
340
0
 70
     0
280
     1
281
     0
  0
BLOCK_RECORD
  5
A4B8
330
1
100
AcDbSymbolTableRecord
100
AcDbBlockTableRecord
  2
*D8
340
0
 70
     0
280
     1
281
     0
  0
BLOCK_RECORD
  5
BDBF
330
1
100
AcDbSymbolTableRecord
100
AcDbBlockTableRecord
  2
*D9
340
0
 70
     0
280
     1
281
     0
  0
BLOCK_RECORD
  5
BDCB
330
1
100
AcDbSymbolTableRecord
100
AcDbBlockTableRecord
  2
*D10
340
0
 70
     0
280
     1
281
     0
  0
BLOCK_RECORD
  5
C4C6
330
1
100
AcDbSymbolTableRecord
100
AcDbBlockTableRecord
  2
*D11
340
0
 70
     0
280
     1
281
     0
  0
BLOCK_RECORD
  5
CD54
330
1
100
AcDbSymbolTableRecord
100
AcDbBlockTableRecord
  2
*D12
340
0
 70
     0
280
     1
281
     0
  0
BLOCK_RECORD
  5
CD5D
330
1
100
AcDbSymbolTableRecord
100
AcDbBlockTableRecord
  2
*D13
340
0
 70
     0
280
     1
281
     0
  0
BLOCK_RECORD
  5
CD69
330
1
100
AcDbSymbolTableRecord
100
AcDbBlockTableRecord
  2
*D14
340
0
 70
     0
280
     1
281
     0
  0
BLOCK_RECORD
  5
CD75
330
1
100
AcDbSymbolTableRecord
100
AcDbBlockTableRecord
  2
*D15
340
0
 70
     0
280
     1
281
     0
  0
BLOCK_RECORD
  5
CD81
330
1
100
AcDbSymbolTableRecord
100
AcDbBlockTableRecord
  2
*D16
340
0
 70
     0
280
     1
281
     0
  0
BLOCK_RECORD
  5
CD8D
330
1
100
AcDbSymbolTableRecord
100
AcDbBlockTableRecord
  2
*D17
340
0
 70
     0
280
     1
281
     0
  0
BLOCK_RECORD
  5
CD96
330
1
100
AcDbSymbolTableRecord
100
AcDbBlockTableRecord
  2
*D18
340
0
 70
     0
280
     1
281
     0
  0
BLOCK_RECORD
  5
CDA4
330
1
100
AcDbSymbolTableRecord
100
AcDbBlockTableRecord
  2
*D19
340
0
 70
     0
280
     1
281
     0
  0
BLOCK_RECORD
  5
CDB2
330
1
100
AcDbSymbolTableRecord
100
AcDbBlockTableRecord
  2
*D20
340
0
 70
     0
280
     1
281
     0
  0
BLOCK_RECORD
  5
CF59
102
{ACAD_XDICTIONARY
360
CF61
102
}
330
1
100
AcDbSymbolTableRecord
100
AcDbBlockTableRecord
  2
A$C7FF14051
340
0
 70
     0
280
     1
281
     0
  0
ENDTAB
  0
ENDSEC
  0
SECTION
  2
BLOCKS
  0
BLOCK
  5
19
330
18
100
AcDbEntity
  8
0
100
AcDbBlockBegin
  2
*MODEL_SPACE
 70
     0
 10
0.0
 20
0.0
 30
0.0
  3
*MODEL_SPACE
  1

  0
ENDBLK
  5
1A
330
18
100
AcDbEntity
  8
0
100
AcDbBlockEnd
  0
BLOCK
  5
16
330
15
100
AcDbEntity
 67
     1
  8
0
100
AcDbBlockBegin
  2
*PAPER_SPACE
 70
     0
 10
0.0
 20
0.0
 30
0.0
  3
*PAPER_SPACE
  1

  0
ENDBLK
  5
17
330
15
100
AcDbEntity
 67
     1
  8
0
100
AcDbBlockEnd
  0
BLOCK
  5
3A
330
36
100
AcDbEntity
  8
0
 48
0.3
100
AcDbBlockBegin
  2
_OPEN
 70
     0
 10
0.0
 20
0.0
 30
0.0
  3
_OPEN
  1

  0
LINE
  5
37
330
36
100
AcDbEntity
  8
0
  6
ByBlock
 62
     0
 48
0.3
100
AcDbLine
 10
-1.0
 20
0.1666666666666666
 30
0.0
 11
0.0
 21
0.0
 31
0.0
  0
LINE
  5
38
330
36
100
AcDbEntity
  8
0
  6
ByBlock
 62
     0
 48
0.3
100
AcDbLine
 10
0.0
 20
0.0
 30
0.0
 11
-1.0
 21
-0.1666666666666666
 31
0.0
  0
LINE
  5
39
330
36
100
AcDbEntity
  8
0
  6
ByBlock
 62
     0
 48
0.3
100
AcDbLine
 10
0.0
 20
0.0
 30
0.0
 11
-1.0
 21
0.0
 31
0.0
  0
ENDBLK
  5
3B
330
36
100
AcDbEntity
  8
0
 48
0.3
100
AcDbBlockEnd
  0
BLOCK
  5
2204
330
2203
100
AcDbEntity
  8
0
100
AcDbBlockBegin
  2
INABA_A3
 70
     2
 10
0.0
 20
0.0
 30
0.0
  3
INABA_A3
  1

  0
ATTDEF
  5
273C
330
2203
100
AcDbEntity
  8
履歴
100
AcDbText
 10
4.804027329292117
 20
1.792711298597622
 30
0.0
 40
3.0
  1
2003/3/20
100
AcDbAttributeDefinition
280
     0
  3
日付
  2
DAY
 70
     0
280
     0
  0
ATTDEF
  5
273D
330
2203
100
AcDbEntity
  8
図面枠
100
AcDbText
 10
341.7583216175437
 20
26.92201685075395
 30
0.0
 40
3.0
  1
PD-45-530SW-11
 72
     4
 11
357.0583216175437
 21
28.42201685075395
 31
0.0
100
AcDbAttributeDefinition
280
     0
  3
名称1
  2
TITLE_1
 70
     0
280
     0
  0
ATTDEF
  5
273E
330
2203
100
AcDbEntity
  8
図面枠
100
AcDbText
 10
335.7394098249709
 20
33.26221300103873
 30
0.0
 40
2.0
  1
田上
100
AcDbAttributeDefinition
280
     0
  3
名称2
  2
TITLE2
 70
     0
280
     0
  0
ATTDEF
  5
273F
330
2203
100
AcDbEntity
  8
図面枠
100
AcDbText
 10
333.983449069733
 20
12.53587344739387
 30
0.0
 40
2.799999999999998
  1
田上
 72
     4
 11
337.063449069733
 21
13.93587344739387
 31
0.0
100
AcDbAttributeDefinition
280
     0
  3
図面番号
  2
DRAWNING_NO
 70
     0
280
     0
  0
ATTDEF
  5
2740
330
2203
100
AcDbEntity
  8
図面枠
100
AcDbText
 10
371.3357572928162
 20
12.53587344739387
 30
0.0
 40
2.799999999999998
  1
田上
 72
     4
 11
374.4157572928162
 21
13.93587344739387
 31
0.0
100
AcDbAttributeDefinition
280
     0
  3
型式
  2
MODEL
 70
     0
280
     0
  0
ATTDEF
  5
2741
330
2203
100
AcDbEntity
  8
図面枠
100
AcDbText
 10
306.6727276417195
 20
19.66393622387111
 30
0.0
 40
2.799999999999998
  1
田上
 72
     4
 11
309.7527276417195
 21
21.06393622387111
 31
0.0
100
AcDbAttributeDefinition
280
     0
  3
尺度
  2
SCALE
 70
     0
280
     0
  0
ATTDEF
  5
2742
330
2203
100
AcDbEntity
  8
図面枠
100
AcDbText
 10
289.3779221794205
 20
26.56593308748109
 30
0.0
 40
3.0
  1
田上
 72
     1
 11
292.6779221794205
 21
26.56593308748109
 31
0.0
100
AcDbAttributeDefinition
280
     0
  3
製図
  2
DRAWN
 70
     0
280
     0
  0
ATTDEF
  5
2743
330
2203
100
AcDbEntity
  8
図面枠
100
AcDbText
 10
269.6279221794205
 20
26.56593308748109
 30
0.0
 40
3.0
  1
田上
 72
     1
 11
272.9279221794205
 21
26.56593308748109
 31
0.0
100
AcDbAttributeDefinition
280
     0
  3
設計
  2
DESIGN
 70
     0
280
     0
  0
ATTDEF
  5
2744
330
2203
100
AcDbEntity
  8
図面枠
100
AcDbText
 10
249.8779221794205
 20
26.56593308748109
 30
0.0
 40
3.0
  1
田上
 72
     1
 11
253.1779221794205
 21
26.56593308748109
 31
0.0
100
AcDbAttributeDefinition
280
     0
  3
検図
  2
CHECK
 70
     0
280
     0
  0
ATTDEF
  5
2745
330
2203
100
AcDbEntity
  8
図面枠
100
AcDbText
 10
230.1279221794205
 20
26.56593308748109
 30
0.0
 40
3.0
  1
田上
 72
     1
 11
233.4279221794205
 21
26.56593308748109
 31
0.0
100
AcDbAttributeDefinition
280
     0
  3
承認
  2
APPROVE
 70
     0
280
     0
  0
ATTDEF
  5
2746
330
2203
100
AcDbEntity
  8
履歴
100
AcDbText
 10
21.26962706202095
 20
12.05614926659427
 30
0.0
 40
3.0
  1
田上
100
AcDbAttributeDefinition
280
     0
  3
履歴A
  2
HISTORY_A
 70
     0
280
     0
  0
ATTDEF
  5
2747
330
2203
100
AcDbEntity
  8
履歴
100
AcDbText
 10
21.26962706202095
 20
17.05614926659427
 30
0.0
 40
3.0
  1
田上
100
AcDbAttributeDefinition
280
     0
  3
履歴B
  2
HISTORY_B
 70
     0
280
     0
  0
ATTDEF
  5
2748
330
2203
100
AcDbEntity
  8
履歴
100
AcDbText
 10
21.26962706202095
 20
22.05614926659428
 30
0.0
 40
3.0
  1
田上
100
AcDbAttributeDefinition
280
     0
  3
履歴C
  2
HISTORY_C
 70
     0
280
     0
  0
ATTDEF
  5
2749
330
2203
100
AcDbEntity
  8
履歴
100
AcDbText
 10
21.26962706202095
 20
27.05614926659428
 30
0.0
 40
3.0
  1
田上
100
AcDbAttributeDefinition
280
     0
  3
履歴D
  2
HISTORY_D
 70
     0
280
     0
  0
ATTDEF
  5
274A
330
2203
100
AcDbEntity
  8
履歴
100
AcDbText
 10
21.26962706202095
 20
32.05614926659428
 30
0.0
 40
3.0
  1
田上
100
AcDbAttributeDefinition
280
     0
  3
履歴E
  2
HISTORY_E
 70
     0
280
     0
  0
ATTDEF
  5
274B
330
2203
100
AcDbEntity
  8
履歴
100
AcDbText
 10
21.26962706202095
 20
37.05614926659428
 30
0.0
 40
3.0
  1
田上
100
AcDbAttributeDefinition
280
     0
  3
履歴F
  2
HISTORY_F
 70
     0
280
     0
  0
ATTDEF
  5
274C
330
2203
100
AcDbEntity
  8
履歴
100
AcDbText
 10
21.26962706202095
 20
42.05614926659428
 30
0.0
 40
3.0
  1
田上
100
AcDbAttributeDefinition
280
     0
  3
履歴G
  2
HISTORY_G
 70
     0
280
     0
  0
ATTDEF
  5
274D
330
2203
100
AcDbEntity
  8
履歴
100
AcDbText
 10
21.26962706202095
 20
47.05614926659428
 30
0.0
 40
3.0
  1
田上
100
AcDbAttributeDefinition
280
     0
  3
履歴H
  2
HISTORY_H
 70
     0
280
     0
  0
ATTDEF
  5
274E
330
2203
100
AcDbEntity
  8
履歴
100
AcDbText
 10
21.26962706202095
 20
52.05614926659428
 30
0.0
 40
3.0
  1
田上
100
AcDbAttributeDefinition
280
     0
  3
履歴H
  2
HISTORY_I
 70
     0
280
     0
  0
ATTDEF
  5
274F
330
2203
100
AcDbEntity
  8
履歴
100
AcDbText
 10
21.26962706202095
 20
57.05614926659428
 30
0.0
 40
3.0
  1
田上
100
AcDbAttributeDefinition
280
     0
  3
履歴I
  2
HISTORY_J
 70
     0
280
     0
  0
LWPOLYLINE
  5
2750
330
2203
100
AcDbEntity
  8
DEFPOINTS
 62
   137
100
AcDbPolyline
 90
        4
 70
     1
 43
0.0
 10
0.0
 20
0.0
 10
408.18
 20
0.0
 10
408.18
 20
285.2399999999999
 10
0.0
 20
285.2399999999999
  0
SOLID
  5
2751
330
2203
100
AcDbEntity
  8
図面枠
100
AcDbTrace
 10
394.0521657161253
 20
7.075379784683192
 30
0.0
 11
393.5529221794207
 21
7.574623321387846
 31
0.0
 12
13.62859074716996
 22
7.075379784683192
 32
0.0
 13
14.12783428387465
 23
7.574623321387846
 33
0.0
  0
SOLID
  5
2752
330
2203
100
AcDbEntity
  8
図面枠
100
AcDbTrace
 10
13.62859074716996
 20
278.6638637520214
 30
0.0
 11
14.12783428387465
 21
278.1646202153167
 31
0.0
 12
394.0521657161253
 22
278.6638637520214
 32
0.0
 13
393.5529221794207
 23
278.1646202153167
 33
0.0
  0
SOLID
  5
2753
330
2203
100
AcDbEntity
  8
図面枠
100
AcDbTrace
 10
13.62859074716996
 20
7.075379784683192
 30
0.0
 11
14.12783428387465
 21
7.574623321387846
 31
0.0
 12
13.62859074716996
 22
278.6638637520214
 32
0.0
 13
14.12783428387465
 23
278.1646202153167
 33
0.0
  0
SOLID
  5
2754
330
2203
100
AcDbEntity
  8
図面枠
100
AcDbTrace
 10
394.0521657161253
 20
278.6638637520214
 30
0.0
 11
393.5529221794207
 21
278.1646202153167
 31
0.0
 12
394.0521657161253
 22
7.075379784683192
 32
0.0
 13
393.5529221794207
 23
7.574623321387846
 33
0.0
  0
LINE
  5
2755
330
2203
100
AcDbEntity
  8
図面枠
100
AcDbLine
 10
317.5529221794207
 20
22.57462332138786
 30
0.0
 11
393.5529221794206
 21
22.57462332138786
 31
0.0
  0
LINE
  5
2756
330
2203
100
AcDbEntity
  8
図面枠
100
AcDbLine
 10
223.5529221794205
 20
37.57462332138786
 30
0.0
 11
393.5529221794206
 21
37.57462332138786
 31
0.0
  0
LINE
  5
2757
330
2203
100
AcDbEntity
  8
図面枠
100
AcDbLine
 10
317.5529221794207
 20
7.574623321387846
 30
0.0
 11
317.5529221794207
 21
37.57462332138786
 31
0.0
  0
LINE
  5
2758
330
2203
100
AcDbEntity
  8
図面枠
100
AcDbLine
 10
302.5529221794205
 20
37.57462332138786
 30
0.0
 11
302.5529221794205
 21
7.574623321387846
 31
0.0
  0
LINE
  5
2759
330
2203
100
AcDbEntity
  8
図面枠
100
AcDbLine
 10
223.5529221794205
 20
7.574623321387846
 30
0.0
 11
223.5529221794205
 21
37.57462332138786
 31
0.0
  0
LINE
  5
275A
330
2203
100
AcDbEntity
  8
図面枠
100
AcDbLine
 10
244.1390776861418
 20
16.22257502528505
 30
0.0
 11
246.1042036861414
 21
13.41608402528523
 31
0.0
  0
LINE
  5
275B
330
2203
100
AcDbEntity
  8
図面枠
100
AcDbLine
 10
243.4792036861414
 20
15.25412852528525
 30
0.0
 11
245.3528701861416
 21
16.56608402528509
 31
0.0
  0
ARC
  5
275C
330
2203
100
AcDbEntity
  8
図面枠
100
AcDbCircle
 10
226.6792036861417
 20
16.30358402528516
 30
0.0
 40
0.2625
100
AcDbArc
 50
44.99999999999971
 51
180.0
  0
LINE
  5
275D
330
2203
100
AcDbEntity
  8
図面枠
100
AcDbLine
 10
226.4167036861414
 20
13.41608402528523
 30
0.0
 11
226.4167036861414
 21
16.30358402528516
 31
0.0
  0
LINE
  5
275E
330
2203
100
AcDbEntity
  8
図面枠
100
AcDbLine
 10
224.9003416861425
 20
16.56608402528509
 30
0.0
 11
224.9003416861425
 21
13.41608402528523
 31
0.0
  0
LINE
  5
275F
330
2203
100
AcDbEntity
  8
図面枠
100
AcDbLine
 10
234.6252691861415
 20
16.22257502528505
 30
0.0
 11
236.5903966861416
 21
13.41608402528523
 31
0.0
  0
LINE
  5
2760
330
2203
100
AcDbEntity
  8
図面枠
100
AcDbLine
 10
233.3055226861412
 20
16.22257502528505
 30
0.0
 11
231.3403966861416
 21
13.41608402528523
 31
0.0
  0
LINE
  5
2761
330
2203
100
AcDbEntity
  8
図面枠
100
AcDbLine
 10
230.6167036861417
 20
13.67858402528516
 30
0.0
 11
230.6167036861417
 21
16.56608402528509
 31
0.0
  0
LINE
  5
2762
330
2203
100
AcDbEntity
  8
図面枠
100
AcDbLine
 10
226.8555766861415
 20
16.49800502528542
 30
0.0
 11
230.1778321861422
 21
13.48416302528524
 31
0.0
  0
ARC
  5
2763
330
2203
100
AcDbEntity
  8
図面枠
100
AcDbCircle
 10
230.3542036861415
 20
13.67858402528516
 30
0.0
 40
0.2625
100
AcDbArc
 50
227.7867300000003
 51
0.0
  0
LINE
  5
2764
330
2203
100
AcDbEntity
  8
図面枠
100
AcDbLine
 10
233.9653966861416
 20
15.25412852528525
 30
0.0
 11
235.8390631861417
 21
16.56608402528509
 31
0.0
  0
ARC
  5
2765
330
2203
100
AcDbEntity
  8
図面枠
100
AcDbCircle
 10
233.9653966861416
 20
15.76052702528518
 30
0.0
 40
0.8055569999999999
100
AcDbArc
 50
34.99999999999984
 51
145.0000000000001
  0
ARC
  5
2766
330
2203
100
AcDbEntity
  8
図面枠
100
AcDbCircle
 10
239.557611186142
 20
14.20358402528536
 30
0.0
 40
0.7875000000000001
100
AcDbArc
 50
270.0
 51
51.39531799999993
  0
LINE
  5
2767
330
2203
100
AcDbEntity
  8
図面枠
100
AcDbLine
 10
240.8542036861414
 20
13.41608402528523
 30
0.0
 11
242.8193311861416
 21
16.22257502528505
 31
0.0
  0
LINE
  5
2768
330
2203
100
AcDbEntity
  8
図面枠
100
AcDbLine
 10
237.1792036861417
 20
16.56608402528509
 30
0.0
 11
237.1792036861417
 21
13.41608402528523
 31
0.0
  0
LINE
  5
2769
330
2203
100
AcDbEntity
  8
図面枠
100
AcDbLine
 10
237.1792036861417
 20
13.41608402528523
 30
0.0
 11
239.557611186142
 21
13.41608402528523
 31
0.0
  0
LINE
  5
276A
330
2203
100
AcDbEntity
  8
図面枠
100
AcDbLine
 10
239.557611186142
 20
16.56608402528509
 30
0.0
 11
237.1792036861417
 21
16.56608402528509
 31
0.0
  0
LINE
  5
276B
330
2203
100
AcDbEntity
  8
図面枠
100
AcDbLine
 10
238.754203686142
 20
14.99108402528516
 30
0.0
 11
239.557611186142
 21
14.99108402528516
 31
0.0
  0
ARC
  5
276C
330
2203
100
AcDbEntity
  8
図面枠
100
AcDbCircle
 10
239.557611186142
 20
15.7785840252853
 30
0.0
 40
0.7875000000000001
100
AcDbArc
 50
270.0
 51
90.0
  0
ARC
  5
276D
330
2203
100
AcDbEntity
  8
図面枠
100
AcDbCircle
 10
243.4792036861414
 20
15.76052702528518
 30
0.0
 40
0.8055569999999999
100
AcDbArc
 50
34.99999999999984
 51
145.0000000000001
  0
TEXT
  5
276E
330
2203
100
AcDbEntity
  8
図面枠
100
AcDbText
 10
247.5647041418997
 20
15.21551532138774
 30
0.0
 40
4.0
  1
株式会社 因幡電機製作所
 41
0.9789911996157989
  7
JX_FONT
 72
     5
 11
300.5607610811016
 21
15.21551532138774
 31
0.0
100
AcDbText
  0
TEXT
  5
276F
330
2203
100
AcDbEntity
  8
図面枠
100
AcDbText
 10
249.1644646134095
 20
10.32355232138771
 30
0.0
 40
2.0
  1
INABA ELECTRIC WORK CO., LTD.
 41
1.252231573578152
 72
     5
 11
298.2644646134089
 21
10.32355232138771
 31
0.0
100
AcDbText
  0
TEXT
  5
2770
330
2203
100
AcDbEntity
  8
図面枠
100
AcDbText
 10
307.0448633044352
 20
8.843123321387976
 30
0.0
 40
3.5
  1
mm
 41
1.073907801268937
 72
     5
 11
313.3829091794206
 21
8.843123321387976
 31
0.0
100
AcDbText
  0
LINE
  5
2771
330
2203
100
AcDbEntity
  8
図面枠
100
AcDbLine
 10
302.5529221794205
 20
17.57462332138785
 30
0.0
 11
317.5529221794207
 21
17.57462332138785
 31
0.0
  0
TEXT
  5
2772
330
2203
100
AcDbEntity
  8
図面枠
100
AcDbText
 10
308.6292161794209
 20
14.19967632138783
 30
0.0
 40
2.0
  1
UNITS
 41
1.194829028061643
 72
     5
 11
316.7292161794205
 21
14.19967632138783
 31
0.0
100
AcDbText
  0
TEXT
  5
2773
330
2203
100
AcDbEntity
  8
図面枠
100
AcDbText
 10
303.8064931794207
 20
14.19967632138783
 30
0.0
 40
2.5
  1
単位
 41
0.75
  7
JX_FONT
 72
     5
 11
307.8064931794207
 21
14.19967632138783
 31
0.0
100
AcDbText
  0
TEXT
  5
2774
330
2203
100
AcDbEntity
  8
図面枠
100
AcDbText
 10
244.5564931794207
 20
34.19967632138783
 30
0.0
 40
2.5
  1
検図
 41
0.7741935483870968
  7
JX_FONT
 72
     5
 11
248.5564931794207
 21
34.19967632138783
 31
0.0
100
AcDbText
  0
LINE
  5
2775
330
2203
100
AcDbEntity
  8
図面枠
100
AcDbLine
 10
302.5529221794205
 20
33.57462332138786
 30
0.0
 11
223.5529221794205
 21
33.57462332138786
 31
0.0
  0
LINE
  5
2776
330
2203
100
AcDbEntity
  8
図面枠
100
AcDbLine
 10
223.5529221794205
 20
22.57462332138786
 30
0.0
 11
302.5529221794205
 21
22.57462332138786
 31
0.0
  0
TEXT
  5
2777
330
2203
100
AcDbEntity
  8
図面枠
100
AcDbText
 10
224.8064931794207
 20
34.19967632138783
 30
0.0
 40
2.5
  1
承認
 41
0.75
  7
JX_FONT
 72
     5
 11
228.8064931794207
 21
34.19967632138783
 31
0.0
100
AcDbText
  0
LINE
  5
2778
330
2203
100
AcDbEntity
  8
図面枠
100
AcDbLine
 10
243.3029221794205
 20
22.57462332138786
 30
0.0
 11
243.3029221794205
 21
37.57462332138786
 31
0.0
  0
TEXT
  5
2779
330
2203
100
AcDbEntity
  8
図面枠
100
AcDbText
 10
229.4729194180687
 20
34.19967632138783
 30
0.0
 40
2.0
  1
APPROVED BY
 41
0.760648612716757
 72
     5
 11
242.6321404180686
 21
34.19967632138783
 31
0.0
100
AcDbText
  0
TEXT
  5
277A
330
2203
100
AcDbEntity
  8
図面枠
100
AcDbText
 10
269.1406179317272
 20
34.19967632138783
 30
0.0
 40
2.0
  1
DESIGNED BY
 41
0.8381669426751557
 72
     5
 11
282.2998389317271
 21
34.19967632138783
 31
0.0
100
AcDbText
  0
LINE
  5
277B
330
2203
100
AcDbEntity
  8
図面枠
100
AcDbLine
 10
263.0529221794205
 20
37.57462332138786
 30
0.0
 11
263.0529221794205
 21
22.57462332138786
 31
0.0
  0
TEXT
  5
277C
330
2203
100
AcDbEntity
  8
図面枠
100
AcDbText
 10
249.8937121794207
 20
34.19967632138783
 30
0.0
 40
2.0
  1
CHECKED BY
 41
0.8132514615907121
 72
     5
 11
261.8566411794201
 21
34.19967632138783
 31
0.0
100
AcDbText
  0
TEXT
  5
277D
330
2203
100
AcDbEntity
  8
図面枠
100
AcDbText
 10
264.3064931794207
 20
34.19967632138783
 30
0.0
 40
2.5
  1
設計
 41
0.75
  7
JX_FONT
 72
     5
 11
268.3064931794207
 21
34.19967632138783
 31
0.0
100
AcDbText
  0
TEXT
  5
277E
330
2203
100
AcDbEntity
  8
図面枠
100
AcDbText
 10
290.0040941794206
 20
34.19967632138783
 30
0.0
 40
2.0
  1
DRAWN BY
 41
0.9007633587786395
 72
     5
 11
301.8040941794208
 21
34.19967632138783
 31
0.0
100
AcDbText
  0
LINE
  5
277F
330
2203
100
AcDbEntity
  8
図面枠
100
AcDbLine
 10
282.8029221794206
 20
22.57462332138786
 30
0.0
 11
282.8029221794206
 21
37.57462332138786
 31
0.0
  0
TEXT
  5
2780
330
2203
100
AcDbEntity
  8
図面枠
100
AcDbText
 10
284.0564931794207
 20
34.19967632138783
 30
0.0
 40
2.5
  1
製図
 41
0.7741935483870968
  7
JX_FONT
 72
     5
 11
288.0564931794207
 21
34.19967632138783
 31
0.0
100
AcDbText
  0
LINE
  5
2781
330
2203
100
AcDbEntity
  8
図面枠
100
AcDbLine
 10
316.5529221794205
 20
34.94873132138784
 30
0.0
 11
316.5529221794205
 21
29.94873132138783
 31
0.0
  0
LINE
  5
2782
330
2203
100
AcDbEntity
  8
図面枠
100
AcDbLine
 10
310.5529221794205
 20
30.94873132138783
 30
0.0
 11
310.5529221794205
 21
33.94873132138783
 31
0.0
  0
CIRCLE
  5
2783
330
2203
100
AcDbEntity
  8
図面枠
100
AcDbCircle
 10
306.0529221794205
 20
32.44873132138784
 30
0.0
 40
2.5
  0
CIRCLE
  5
2784
330
2203
100
AcDbEntity
  8
図面枠
100
AcDbCircle
 10
306.0529221794205
 20
32.44873132138784
 30
0.0
 40
1.5
  0
LINE
  5
2785
330
2203
100
AcDbEntity
  8
図面枠
100
AcDbLine
 10
317.5529221794207
 20
27.57462332138786
 30
0.0
 11
302.5529221794205
 21
27.57462332138786
 31
0.0
  0
LINE
  5
2786
330
2203
100
AcDbEntity
  8
図面枠
100
AcDbLine
 10
316.9624321794211
 20
32.44873132138784
 30
0.0
 11
303.2491101794204
 21
32.44873132138784
 31
0.0
  0
TEXT
  5
2787
330
2203
100
AcDbEntity
  8
0
100
AcDbText
 10
308.6292161794209
 20
24.19967632138783
 30
0.0
 40
2.0
  1
SCALE
 41
1.109589041095839
 72
     5
 11
316.7292161794205
 21
24.19967632138783
 31
0.0
100
AcDbText
  0
TEXT
  5
2788
330
2203
100
AcDbEntity
  8
図面枠
100
AcDbText
 10
303.8064931794207
 20
24.19967632138783
 30
0.0
 40
2.5
  1
尺度
 41
0.75
  7
JX_FONT
 72
     5
 11
307.8064931794207
 21
24.19967632138783
 31
0.0
100
AcDbText
  0
LINE
  5
2789
330
2203
100
AcDbEntity
  8
図面枠
100
AcDbLine
 10
316.5529221794205
 20
29.94873132138783
 30
0.0
 11
310.5529221794205
 21
30.94873132138783
 31
0.0
  0
LINE
  5
278A
330
2203
100
AcDbEntity
  8
図面枠
100
AcDbLine
 10
310.5529221794205
 20
33.94873132138783
 30
0.0
 11
316.5529221794205
 21
34.94873132138784
 31
0.0
  0
TEXT
  5
278B
330
2203
100
AcDbEntity
  8
0
100
AcDbText
 10
368.1893971794208
 20
19.19967632138783
 30
0.0
 40
2.0
  1
MODEL
 41
1.213333333333275
 72
     5
 11
377.2893971794204
 21
19.19967632138783
 31
0.0
100
AcDbText
  0
TEXT
  5
278C
330
2203
100
AcDbEntity
  8
0
100
AcDbText
 10
358.5354661794212
 20
19.19967632138783
 30
0.0
 40
2.5
  1
型 式
 41
0.8780487804878049
  7
JX_FONT
 72
     5
 11
364.5354661794212
 21
19.19967632138783
 31
0.0
100
AcDbText
  0
TEXT
  5
278D
330
2203
100
AcDbEntity
  8
図面枠
100
AcDbText
 10
319.5354661794211
 20
19.19967632138783
 30
0.0
 40
2.5
  1
図面番号
 41
0.7058823529411763
  7
JX_FONT
 72
     5
 11
327.5354661794211
 21
19.19967632138783
 31
0.0
100
AcDbText
  0
TEXT
  5
278E
330
2203
100
AcDbEntity
  8
図面枠
100
AcDbText
 10
329.1893971794209
 20
19.19967632138783
 30
0.0
 40
2.0
  1
DRAWNING NO.
 41
1.156069306358364
 72
     5
 11
349.1893961794206
 21
19.19967632138783
 31
0.0
100
AcDbText
  0
LINE
  5
278F
330
2203
100
AcDbEntity
  8
図面枠
100
AcDbLine
 10
356.5529221794207
 20
22.57462332138786
 30
0.0
 11
356.5529221794207
 21
7.574623321387846
 31
0.0
  0
TEXT
  5
2790
330
2203
100
AcDbEntity
  8
図面枠
100
AcDbText
 10
324.8868451794208
 20
33.25460432138785
 30
0.0
 40
2.0
  1
TITLE
 41
0.8678571428570782
  7
JX_FONT
 72
     5
 11
332.9868451794202
 21
33.25460432138785
 31
0.0
100
AcDbText
  0
TEXT
  5
2791
330
2203
100
AcDbEntity
  8
図面枠
100
AcDbText
 10
319.5354661794211
 20
33.25460432138785
 30
0.0
 40
2.5
  1
名称
 41
0.75
  7
JX_FONT
 72
     5
 11
323.5354661794211
 21
33.25460432138785
 31
0.0
100
AcDbText
  0
ENDBLK
  5
2205
330
2203
100
AcDbEntity
  8
0
100
AcDbBlockEnd
  0
BLOCK
  5
A462
330
A461
100
AcDbEntity
  8
0
100
AcDbBlockBegin
  2
*D2
 70
     1
 10
0.0
 20
0.0
 30
0.0
  3
*D2
  1

  0
LINE
  5
AF0E
330
A461
100
AcDbEntity
  8
OBJECT1
 62
     1
440
 16777216
370
    -2
100
AcDbLine
 10
457.1166051544902
 20
340.4836223448762
 30
0.0
 11
457.1166051544902
 21
300.4981498252637
 31
0.0
  0
LINE
  5
AF0F
330
A461
100
AcDbEntity
  8
OBJECT1
 62
     1
440
 16777216
370
    -2
100
AcDbLine
 10
533.4166051544902
 20
340.5154961234508
 30
0.0
 11
533.4166051544902
 21
300.4981498252637
 31
0.0
  0
LINE
  5
AF10
330
A461
100
AcDbEntity
  8
OBJECT1
 62
     1
440
 16777216
370
    -2
100
AcDbLine
 10
467.1166051544902
 20
304.4981498252637
 30
0.0
 11
523.41660515449
 21
304.4981498252637
 31
0.0
  0
LINE
  5
AF11
330
A461
100
AcDbEntity
  8
OBJECT1
 62
     1
440
 16777216
370
    -2
100
AcDbLine
 10
533.4166051544902
 20
304.4981498252637
 30
0.0
 11
710.5136614293379
 21
304.4981498252637
 31
0.0
  0
INSERT
  5
AF12
330
A461
100
AcDbEntity
  8
OBJECT1
 62
     1
440
 16777216
370
    -2
100
AcDbBlockReference
  2
_OPEN
 10
457.1166051544902
 20
304.4981498252637
 30
0.0
 41
10.0
 42
10.0
 43
10.0
 50
180.0
  0
INSERT
  5
AF13
330
A461
100
AcDbEntity
  8
OBJECT1
 62
     1
440
 16777216
370
    -2
100
AcDbBlockReference
  2
_OPEN
 10
533.4166051544902
 20
304.4981498252637
 30
0.0
 41
10.0
 42
10.0
 43
10.0
  0
MTEXT
  5
AF14
330
A461
100
AcDbEntity
  8
OBJECT1
 62
     2
440
 16777216
100
AcDbMText
 10
626.9651332919139
 20
315.4981498252637
 30
0.0
 40
12.0
 41
0.0
 46
0.0
 71
     5
 72
     1
  1
\A1;適合アダプター：φ76.3
 73
     1
 44
1.0
  0
POINT
  5
AF15
330
A461
100
AcDbEntity
  8
DEFPOINTS
 62
     0
440
 16777216
100
AcDbPoint
 10
457.1166051544902
 20
344.4836223448762
 30
0.0
  0
POINT
  5
AF16
330
A461
100
AcDbEntity
  8
DEFPOINTS
 62
     0
440
 16777216
100
AcDbPoint
 10
533.4166051544902
 20
344.5154961234508
 30
0.0
  0
POINT
  5
AF17
330
A461
100
AcDbEntity
  8
DEFPOINTS
 62
     0
440
 16777216
100
AcDbPoint
 10
533.4166051544902
 20
304.4981498252637
 30
0.0
  0
ENDBLK
  5
A463
330
A461
100
AcDbEntity
  8
0
100
AcDbBlockEnd
  0
BLOCK
  5
A46F
330
A46E
100
AcDbEntity
  8
0
100
AcDbBlockBegin
  2
*D3
 70
     1
 10
0.0
 20
0.0
 30
0.0
  3
*D3
  1

  0
LINE
  5
AF5F
330
A46E
100
AcDbEntity
  8
OBJECT1
 62
     1
440
 16777216
370
    -2
100
AcDbLine
 10
449.2666051544899
 20
340.4836223448766
 30
0.0
 11
449.2666051544899
 21
272.4981498252637
 31
0.0
  0
LINE
  5
AF60
330
A46E
100
AcDbEntity
  8
OBJECT1
 62
     1
440
 16777216
370
    -2
100
AcDbLine
 10
541.2666051544903
 20
340.4836223448766
 30
0.0
 11
541.2666051544903
 21
272.4981498252637
 31
0.0
  0
LINE
  5
AF61
330
A46E
100
AcDbEntity
  8
OBJECT1
 62
     1
440
 16777216
370
    -2
100
AcDbLine
 10
459.26660515449
 20
276.4981498252637
 30
0.0
 11
531.2666051544903
 21
276.4981498252637
 31
0.0
  0
INSERT
  5
AF62
330
A46E
100
AcDbEntity
  8
OBJECT1
 62
     1
440
 16777216
370
    -2
100
AcDbBlockReference
  2
_OPEN
 10
449.2666051544899
 20
276.4981498252637
 30
0.0
 41
10.0
 42
10.0
 43
10.0
 50
180.0
  0
INSERT
  5
AF63
330
A46E
100
AcDbEntity
  8
OBJECT1
 62
     1
440
 16777216
370
    -2
100
AcDbBlockReference
  2
_OPEN
 10
541.2666051544903
 20
276.4981498252637
 30
0.0
 41
10.0
 42
10.0
 43
10.0
  0
MTEXT
  5
AF64
330
A46E
100
AcDbEntity
  8
OBJECT1
 62
     2
440
 16777216
100
AcDbMText
 10
495.2666051544902
 20
287.502231081744
 30
0.0
 40
12.0
 41
0.0
 46
0.0
 71
     5
 72
     1
  1
\A1;%%c92
 73
     1
 44
1.0
  0
POINT
  5
AF65
330
A46E
100
AcDbEntity
  8
DEFPOINTS
 62
     0
440
 16777216
100
AcDbPoint
 10
449.2666051544899
 20
344.4836223448766
 30
0.0
  0
POINT
  5
AF66
330
A46E
100
AcDbEntity
  8
DEFPOINTS
 62
     0
440
 16777216
100
AcDbPoint
 10
541.2666051544903
 20
344.4836223448766
 30
0.0
  0
POINT
  5
AF67
330
A46E
100
AcDbEntity
  8
DEFPOINTS
 62
     0
440
 16777216
100
AcDbPoint
 10
541.2666051544903
 20
276.4981498252637
 30
0.0
  0
ENDBLK
  5
A470
330
A46E
100
AcDbEntity
  8
0
100
AcDbBlockEnd
  0
BLOCK
  5
A47B
330
A47A
100
AcDbEntity
  8
0
100
AcDbBlockBegin
  2
*D4
 70
     1
 10
0.0
 20
0.0
 30
0.0
  3
*D4
  1

  0
LINE
  5
AF4D
330
A47A
100
AcDbEntity
  8
OBJECT1
 62
     1
440
 16777216
370
    -2
100
AcDbLine
 10
445.2666051544899
 20
344.4836223448766
 30
0.0
 11
378.9536491504059
 21
344.4836223448767
 31
0.0
  0
LINE
  5
AF4E
330
A47A
100
AcDbEntity
  8
OBJECT1
 62
     1
440
 16777216
370
    -2
100
AcDbLine
 10
453.1166051544902
 20
494.4836223448761
 30
0.0
 11
378.9536491504059
 21
494.4836223448761
 31
0.0
  0
LINE
  5
AF4F
330
A47A
100
AcDbEntity
  8
OBJECT1
 62
     1
440
 16777216
370
    -2
100
AcDbLine
 10
382.9536491504058
 20
354.4836223448767
 30
0.0
 11
382.9536491504059
 21
484.4836223448761
 31
0.0
  0
INSERT
  5
AF50
330
A47A
100
AcDbEntity
  8
OBJECT1
 62
     1
440
 16777216
370
    -2
100
AcDbBlockReference
  2
_OPEN
 10
382.9536491504058
 20
344.4836223448767
 30
0.0
 41
10.0
 42
10.0
 43
10.0
 50
270.0
  0
INSERT
  5
AF51
330
A47A
100
AcDbEntity
  8
OBJECT1
 62
     1
440
 16777216
370
    -2
100
AcDbBlockReference
  2
_OPEN
 10
382.9536491504059
 20
494.4836223448761
 30
0.0
 41
10.0
 42
10.0
 43
10.0
 50
90.0
  0
MTEXT
  5
AF52
330
A47A
100
AcDbEntity
  8
OBJECT1
 62
     2
440
 16777216
100
AcDbMText
 10
371.3536491504058
 20
419.4836223448763
 30
0.0
 40
12.0
 41
0.0
 46
0.0
 71
     5
 72
     1
  1
\A1;150(挿入長)
 11
0.0000000000000001
 21
1.0
 31
0.0
 73
     1
 44
1.0
  0
POINT
  5
AF53
330
A47A
100
AcDbEntity
  8
DEFPOINTS
 62
     0
440
 16777216
100
AcDbPoint
 10
449.2666051544899
 20
344.4836223448766
 30
0.0
  0
POINT
  5
AF54
330
A47A
100
AcDbEntity
  8
DEFPOINTS
 62
     0
440
 16777216
100
AcDbPoint
 10
457.1166051544902
 20
494.4836223448761
 30
0.0
  0
POINT
  5
AF55
330
A47A
100
AcDbEntity
  8
DEFPOINTS
 62
     0
440
 16777216
100
AcDbPoint
 10
382.9536491504059
 20
494.4836223448761
 30
0.0
  0
ENDBLK
  5
A47C
330
A47A
100
AcDbEntity
  8
0
100
AcDbBlockEnd
  0
BLOCK
  5
A487
330
A486
100
AcDbEntity
  8
0
100
AcDbBlockBegin
  2
*D5
 70
     1
 10
0.0
 20
0.0
 30
0.0
  3
*D5
  1

  0
LINE
  5
A5EF
330
A486
100
AcDbEntity
  8
OBJECT1
 62
     1
440
 16777216
370
    -2
100
AcDbLine
 10
145.2666051544897
 20
769.5570368392625
 30
0.0
 11
145.2666051544897
 21
849.1156657353569
 31
0.0
  0
LINE
  5
A5F0
330
A486
100
AcDbEntity
  8
OBJECT1
 62
     1
440
 16777216
370
    -2
100
AcDbLine
 10
845.2666051548018
 20
769.557036839202
 30
0.0
 11
845.2666051548018
 21
849.1156657353569
 31
0.0
  0
LINE
  5
A5F1
330
A486
100
AcDbEntity
  8
OBJECT1
 62
     1
440
 16777216
370
    -2
100
AcDbLine
 10
155.2666051544897
 20
845.1156657353568
 30
0.0
 11
835.2666051548016
 21
845.1156657353568
 31
0.0
  0
INSERT
  5
A5F2
330
A486
100
AcDbEntity
  8
OBJECT1
 62
     1
440
 16777216
370
    -2
100
AcDbBlockReference
  2
_OPEN
 10
145.2666051544897
 20
845.1156657353568
 30
0.0
 41
10.0
 42
10.0
 43
10.0
 50
180.0
  0
INSERT
  5
A5F3
330
A486
100
AcDbEntity
  8
OBJECT1
 62
     1
440
 16777216
370
    -2
100
AcDbBlockReference
  2
_OPEN
 10
845.2666051548018
 20
845.1156657353568
 30
0.0
 41
10.0
 42
10.0
 43
10.0
  0
MTEXT
  5
A5F4
330
A486
100
AcDbEntity
  8
OBJECT1
 62
     2
440
 16777216
100
AcDbMText
 10
495.2666051546456
 20
856.1156657353569
 30
0.0
 40
12.0
 41
0.0
 46
0.0
 71
     5
 72
     1
  1
\A1;%%c700
 73
     1
 44
1.0
  0
POINT
  5
A5F5
330
A486
100
AcDbEntity
  8
DEFPOINTS
 62
     0
440
 16777216
100
AcDbPoint
 10
145.2666051544897
 20
765.5570368392625
 30
0.0
  0
POINT
  5
A5F6
330
A486
100
AcDbEntity
  8
DEFPOINTS
 62
     0
440
 16777216
100
AcDbPoint
 10
845.2666051548018
 20
765.5570368392019
 30
0.0
  0
POINT
  5
A5F7
330
A486
100
AcDbEntity
  8
DEFPOINTS
 62
     0
440
 16777216
100
AcDbPoint
 10
845.2666051548018
 20
845.1156657353568
 30
0.0
  0
ENDBLK
  5
A488
330
A486
100
AcDbEntity
  8
0
100
AcDbBlockEnd
  0
BLOCK
  5
A49F
330
A49E
100
AcDbEntity
  8
0
100
AcDbBlockBegin
  2
*D6
 70
     1
 10
0.0
 20
0.0
 30
0.0
  3
*D6
  1

  0
LINE
  5
AF2C
330
A49E
100
AcDbEntity
  8
OBJECT1
 62
     1
440
 16777216
370
    -2
100
AcDbLine
 10
445.2666051544899
 20
344.4836223448766
 30
0.0
 11
406.9536491504057
 21
344.4836223448766
 31
0.0
  0
LINE
  5
AF2D
330
A49E
100
AcDbEntity
  8
OBJECT1
 62
     1
440
 16777216
370
    -2
100
AcDbLine
 10
462.23458931807
 20
369.4836236248726
 30
0.0
 11
406.9536491504057
 21
369.4836236248726
 31
0.0
  0
LINE
  5
AF2E
330
A49E
100
AcDbEntity
  8
OBJECT1
 62
     1
440
 16777216
370
    -2
100
AcDbLine
 10
410.9536491504057
 20
334.4836223448766
 30
0.0
 11
410.9536491504057
 21
324.4836223448766
 31
0.0
  0
LINE
  5
AF2F
330
A49E
100
AcDbEntity
  8
OBJECT1
 62
     1
440
 16777216
370
    -2
100
AcDbLine
 10
410.9536491504057
 20
379.4836236248726
 30
0.0
 11
410.9536491504057
 21
389.4836236248726
 31
0.0
  0
LINE
  5
AF30
330
A49E
100
AcDbEntity
  8
OBJECT1
 62
     1
440
 16777216
370
    -2
100
AcDbLine
 10
410.9536491504057
 20
344.4836223448766
 30
0.0
 11
410.9536491504057
 21
369.4836236248726
 31
0.0
  0
INSERT
  5
AF31
330
A49E
100
AcDbEntity
  8
OBJECT1
 62
     1
440
 16777216
370
    -2
100
AcDbBlockReference
  2
_OPEN
 10
410.9536491504057
 20
344.4836223448766
 30
0.0
 41
10.0
 42
10.0
 43
10.0
 50
90.0
  0
INSERT
  5
AF32
330
A49E
100
AcDbEntity
  8
OBJECT1
 62
     1
440
 16777216
370
    -2
100
AcDbBlockReference
  2
_OPEN
 10
410.9536491504057
 20
369.4836236248726
 30
0.0
 41
10.0
 42
10.0
 43
10.0
 50
270.0
  0
MTEXT
  5
AF33
330
A49E
100
AcDbEntity
  8
OBJECT1
 62
     2
440
 16777216
100
AcDbMText
 10
399.9524680480434
 20
356.9836229848747
 30
0.0
 40
12.0
 41
0.0
 46
0.0
 71
     5
 72
     1
  1
\A1;25
 11
0.0000000000000001
 21
1.0
 31
0.0
 73
     1
 44
1.0
  0
POINT
  5
AF34
330
A49E
100
AcDbEntity
  8
DEFPOINTS
 62
     0
440
 16777216
100
AcDbPoint
 10
449.2666051544899
 20
344.4836223448766
 30
0.0
  0
POINT
  5
AF35
330
A49E
100
AcDbEntity
  8
DEFPOINTS
 62
     0
440
 16777216
100
AcDbPoint
 10
466.23458931807
 20
369.4836236248726
 30
0.0
  0
POINT
  5
AF36
330
A49E
100
AcDbEntity
  8
DEFPOINTS
 62
     0
440
 16777216
100
AcDbPoint
 10
410.9536491504057
 20
369.4836236248726
 30
0.0
  0
ENDBLK
  5
A4A0
330
A49E
100
AcDbEntity
  8
0
100
AcDbBlockEnd
  0
BLOCK
  5
A4AD
330
A4AC
100
AcDbEntity
  8
0
100
AcDbBlockBegin
  2
*D7
 70
     1
 10
0.0
 20
0.0
 30
0.0
  3
*D7
  1

  0
LINE
  5
AF37
330
A4AC
100
AcDbEntity
  8
OBJECT1
 62
     1
440
 16777216
370
    -2
100
AcDbLine
 10
462.23458931807
 20
369.4836236248726
 30
0.0
 11
406.9536491504057
 21
369.4836236248726
 31
0.0
  0
LINE
  5
AF38
330
A4AC
100
AcDbEntity
  8
OBJECT1
 62
     1
440
 16777216
370
    -2
100
AcDbLine
 10
462.23458931807
 20
459.4836236248725
 30
0.0
 11
406.9536491504057
 21
459.4836236248725
 31
0.0
  0
LINE
  5
AF39
330
A4AC
100
AcDbEntity
  8
OBJECT1
 62
     1
440
 16777216
370
    -2
100
AcDbLine
 10
410.9536491504057
 20
379.4836236248726
 30
0.0
 11
410.9536491504057
 21
449.4836236248725
 31
0.0
  0
INSERT
  5
AF3A
330
A4AC
100
AcDbEntity
  8
OBJECT1
 62
     1
440
 16777216
370
    -2
100
AcDbBlockReference
  2
_OPEN
 10
410.9536491504057
 20
369.4836236248726
 30
0.0
 41
10.0
 42
10.0
 43
10.0
 50
270.0
  0
INSERT
  5
AF3B
330
A4AC
100
AcDbEntity
  8
OBJECT1
 62
     1
440
 16777216
370
    -2
100
AcDbBlockReference
  2
_OPEN
 10
410.9536491504057
 20
459.4836236248725
 30
0.0
 41
10.0
 42
10.0
 43
10.0
 50
90.0
  0
MTEXT
  5
AF3C
330
A4AC
100
AcDbEntity
  8
OBJECT1
 62
     2
440
 16777216
100
AcDbMText
 10
399.9536491504057
 20
414.4836236248726
 30
0.0
 40
12.0
 41
0.0
 46
0.0
 71
     5
 72
     1
  1
\A1;90
 11
0.0000000000000001
 21
1.0
 31
0.0
 73
     1
 44
1.0
  0
POINT
  5
AF3D
330
A4AC
100
AcDbEntity
  8
DEFPOINTS
 62
     0
440
 16777216
100
AcDbPoint
 10
466.23458931807
 20
369.4836236248726
 30
0.0
  0
POINT
  5
AF3E
330
A4AC
100
AcDbEntity
  8
DEFPOINTS
 62
     0
440
 16777216
100
AcDbPoint
 10
466.23458931807
 20
459.4836236248725
 30
0.0
  0
POINT
  5
AF3F
330
A4AC
100
AcDbEntity
  8
DEFPOINTS
 62
     0
440
 16777216
100
AcDbPoint
 10
410.9536491504057
 20
459.4836236248725
 30
0.0
  0
ENDBLK
  5
A4AE
330
A4AC
100
AcDbEntity
  8
0
100
AcDbBlockEnd
  0
BLOCK
  5
A4B9
330
A4B8
100
AcDbEntity
  8
0
100
AcDbBlockBegin
  2
*D8
 70
     1
 10
0.0
 20
0.0
 30
0.0
  3
*D8
  1

  0
LINE
  5
AEAB
330
A4B8
100
AcDbEntity
  8
OBJECT1
 62
     1
440
 16777216
370
    -2
100
AcDbLine
 10
445.2666051544899
 20
344.4836223448766
 30
0.0
 11
124.3412582389634
 21
344.4836223448767
 31
0.0
  0
LINE
  5
AEAC
330
A4B8
100
AcDbEntity
  8
OBJECT1
 62
     1
440
 16777216
370
    -2
100
AcDbLine
 10
491.2666055733689
 20
784.8392453180699
 30
0.0
 11
124.3412582389635
 21
784.8392453180701
 31
0.0
  0
LINE
  5
AEAD
330
A4B8
100
AcDbEntity
  8
OBJECT1
 62
     1
440
 16777216
370
    -2
100
AcDbLine
 10
128.3412582389634
 20
354.4836223448767
 30
0.0
 11
128.3412582389635
 21
774.83924531807
 31
0.0
  0
INSERT
  5
AEAE
330
A4B8
100
AcDbEntity
  8
OBJECT1
 62
     1
440
 16777216
370
    -2
100
AcDbBlockReference
  2
_OPEN
 10
128.3412582389634
 20
344.4836223448767
 30
0.0
 41
10.0
 42
10.0
 43
10.0
 50
270.0
  0
INSERT
  5
AEAF
330
A4B8
100
AcDbEntity
  8
OBJECT1
 62
     1
440
 16777216
370
    -2
100
AcDbBlockReference
  2
_OPEN
 10
128.3412582389635
 20
784.8392453180701
 30
0.0
 41
10.0
 42
10.0
 43
10.0
 50
90.0
  0
MTEXT
  5
AEB0
330
A4B8
100
AcDbEntity
  8
OBJECT1
 62
     2
440
 16777216
100
AcDbMText
 10
117.3412582389633
 20
564.6614338314733
 30
0.0
 40
12.0
 41
0.0
 46
0.0
 71
     5
 72
     1
  1
\A1;440
 11
0.0000000000000001
 21
1.0
 31
0.0
 73
     1
 44
1.0
  0
POINT
  5
AEB1
330
A4B8
100
AcDbEntity
  8
DEFPOINTS
 62
     0
440
 16777216
100
AcDbPoint
 10
449.2666051544899
 20
344.4836223448766
 30
0.0
  0
POINT
  5
AEB2
330
A4B8
100
AcDbEntity
  8
DEFPOINTS
 62
     0
440
 16777216
100
AcDbPoint
 10
495.2666055733689
 20
784.8392453180699
 30
0.0
  0
POINT
  5
AEB3
330
A4B8
100
AcDbEntity
  8
DEFPOINTS
 62
     0
440
 16777216
100
AcDbPoint
 10
128.3412582389635
 20
784.8392453180701
 30
0.0
  0
ENDBLK
  5
A4BA
330
A4B8
100
AcDbEntity
  8
0
100
AcDbBlockEnd
  0
BLOCK
  5
BDC0
330
BDBF
100
AcDbEntity
  8
0
100
AcDbBlockBegin
  2
*D9
 70
     1
 10
0.0
 20
0.0
 30
0.0
  3
*D9
  1

  0
LINE
  5
BDD7
330
BDBF
100
AcDbEntity
  8
OBJECT1
 62
     1
440
 16777216
370
    -2
100
AcDbLine
 10
1068.814156225314
 20
864.5327119478539
 30
0.0
 11
1100.694617194275
 21
864.5327119478539
 31
0.0
  0
LINE
  5
BDD8
330
BDBF
100
AcDbEntity
  8
OBJECT1
 62
     1
440
 16777216
370
    -2
100
AcDbLine
 10
1065.614156225314
 20
939.5327119478539
 30
0.0
 11
1100.694617194275
 21
939.5327119478539
 31
0.0
  0
LINE
  5
BDD9
330
BDBF
100
AcDbEntity
  8
OBJECT1
 62
     1
440
 16777216
370
    -2
100
AcDbLine
 10
1096.694617194275
 20
874.532711947854
 30
0.0
 11
1096.694617194275
 21
929.5327119478539
 31
0.0
  0
INSERT
  5
BDDA
330
BDBF
100
AcDbEntity
  8
OBJECT1
 62
     1
440
 16777216
370
    -2
100
AcDbBlockReference
  2
_OPEN
 10
1096.694617194275
 20
864.5327119478539
 30
0.0
 41
10.0
 42
10.0
 43
10.0
 50
270.0
  0
INSERT
  5
BDDB
330
BDBF
100
AcDbEntity
  8
OBJECT1
 62
     1
440
 16777216
370
    -2
100
AcDbBlockReference
  2
_OPEN
 10
1096.694617194275
 20
939.5327119478539
 30
0.0
 41
10.0
 42
10.0
 43
10.0
 50
90.0
  0
MTEXT
  5
BDDC
330
BDBF
100
AcDbEntity
  8
OBJECT1
 62
     2
440
 16777216
100
AcDbMText
 10
1085.694617194275
 20
902.0327119478542
 30
0.0
 40
12.0
 41
0.0
 46
0.0
 71
     5
 72
     1
  1
\A1;150
 11
0.0000000000000001
 21
1.0
 31
0.0
 73
     1
 44
1.0
  0
POINT
  5
BDDD
330
BDBF
100
AcDbEntity
  8
DEFPOINTS
 62
     0
440
 16777216
100
AcDbPoint
 10
1064.814156225314
 20
864.5327119478539
 30
0.0
  0
POINT
  5
BDDE
330
BDBF
100
AcDbEntity
  8
DEFPOINTS
 62
     0
440
 16777216
100
AcDbPoint
 10
1061.614156225314
 20
939.5327119478539
 30
0.0
  0
POINT
  5
BDDF
330
BDBF
100
AcDbEntity
  8
DEFPOINTS
 62
     0
440
 16777216
100
AcDbPoint
 10
1096.694617194275
 20
939.5327119478539
 30
0.0
  0
ENDBLK
  5
BDC1
330
BDBF
100
AcDbEntity
  8
0
100
AcDbBlockEnd
  0
BLOCK
  5
BDCC
330
BDCB
100
AcDbEntity
  8
0
100
AcDbBlockBegin
  2
*D10
 70
     1
 10
0.0
 20
0.0
 30
0.0
  3
*D10
  1

  0
LINE
  5
BDE0
330
BDCB
100
AcDbEntity
  8
OBJECT1
 62
     1
440
 16777216
370
    -2
100
AcDbLine
 10
1061.614156225314
 20
943.5327119478539
 30
0.0
 11
1061.614156225314
 21
960.5548377929082
 31
0.0
  0
LINE
  5
BDE1
330
BDCB
100
AcDbEntity
  8
OBJECT1
 62
     1
440
 16777216
370
    -2
100
AcDbLine
 10
1023.464156225314
 20
943.5327119478539
 30
0.0
 11
1023.464156225314
 21
960.5548377929082
 31
0.0
  0
LINE
  5
BDE2
330
BDCB
100
AcDbEntity
  8
OBJECT1
 62
     1
440
 16777216
370
    -2
100
AcDbLine
 10
1051.614156225314
 20
956.5548377929083
 30
0.0
 11
1033.464156225314
 21
956.5548377929083
 31
0.0
  0
INSERT
  5
BDE3
330
BDCB
100
AcDbEntity
  8
OBJECT1
 62
     1
440
 16777216
370
    -2
100
AcDbBlockReference
  2
_OPEN
 10
1061.614156225314
 20
956.5548377929083
 30
0.0
 41
10.0
 42
10.0
 43
10.0
  0
INSERT
  5
BDE4
330
BDCB
100
AcDbEntity
  8
OBJECT1
 62
     1
440
 16777216
370
    -2
100
AcDbBlockReference
  2
_OPEN
 10
1023.464156225314
 20
956.5548377929083
 30
0.0
 41
10.0
 42
10.0
 43
10.0
 50
180.0
  0
MTEXT
  5
BDE5
330
BDCB
100
AcDbEntity
  8
OBJECT1
 62
     2
440
 16777216
100
AcDbMText
 10
1042.539156225314
 20
967.5548377929082
 30
0.0
 40
12.0
 41
0.0
 46
0.0
 71
     5
 72
     1
  1
\A1;φ76.3
 73
     1
 44
1.0
  0
POINT
  5
BDE6
330
BDCB
100
AcDbEntity
  8
DEFPOINTS
 62
     0
440
 16777216
100
AcDbPoint
 10
1061.614156225314
 20
939.5327119478539
 30
0.0
  0
POINT
  5
BDE7
330
BDCB
100
AcDbEntity
  8
DEFPOINTS
 62
     0
440
 16777216
100
AcDbPoint
 10
1023.464156225314
 20
939.5327119478539
 30
0.0
  0
POINT
  5
BDE8
330
BDCB
100
AcDbEntity
  8
DEFPOINTS
 62
     0
440
 16777216
100
AcDbPoint
 10
1023.464156225314
 20
956.5548377929083
 30
0.0
  0
ENDBLK
  5
BDCD
330
BDCB
100
AcDbEntity
  8
0
100
AcDbBlockEnd
  0
BLOCK
  5
C4C7
330
C4C6
100
AcDbEntity
  8
0
100
AcDbBlockBegin
  2
*D11
 70
     1
 10
0.0
 20
0.0
 30
0.0
  3
*D11
  1

  0
LINE
  5
C53C
330
C4C6
100
AcDbEntity
  8
OBJECT1
 62
     1
440
 16777216
370
    -2
100
AcDbLine
 10
975.792450737895
 20
666.1350657157285
 30
0.0
 11
975.792450737895
 21
759.6727174805831
 31
0.0
  0
LINE
  5
C53D
330
C4C6
100
AcDbEntity
  8
OBJECT1
 62
     1
440
 16777216
370
    -2
100
AcDbLine
 10
1064.892450737895
 20
666.1350657157285
 30
0.0
 11
1064.892450737895
 21
759.6727174805831
 31
0.0
  0
LINE
  5
C53E
330
C4C6
100
AcDbEntity
  8
OBJECT1
 62
     1
440
 16777216
370
    -2
100
AcDbLine
 10
985.792450737895
 20
755.6727174805831
 30
0.0
 11
1054.892450737895
 21
755.6727174805831
 31
0.0
  0
INSERT
  5
C53F
330
C4C6
100
AcDbEntity
  8
OBJECT1
 62
     1
440
 16777216
370
    -2
100
AcDbBlockReference
  2
_OPEN
 10
975.792450737895
 20
755.6727174805831
 30
0.0
 41
10.0
 42
10.0
 43
10.0
 50
180.0
  0
INSERT
  5
C540
330
C4C6
100
AcDbEntity
  8
OBJECT1
 62
     1
440
 16777216
370
    -2
100
AcDbBlockReference
  2
_OPEN
 10
1064.892450737895
 20
755.6727174805831
 30
0.0
 41
10.0
 42
10.0
 43
10.0
  0
MTEXT
  5
C541
330
C4C6
100
AcDbEntity
  8
OBJECT1
 62
     2
440
 16777216
100
AcDbMText
 10
1020.342450737895
 20
766.6727174805831
 30
0.0
 40
12.0
 41
0.0
 46
0.0
 71
     5
 72
     1
  1
\A1;φ89.1
 73
     1
 44
1.0
  0
POINT
  5
C542
330
C4C6
100
AcDbEntity
  8
DEFPOINTS
 62
     0
440
 16777216
100
AcDbPoint
 10
975.792450737895
 20
662.1350657157285
 30
0.0
  0
POINT
  5
C543
330
C4C6
100
AcDbEntity
  8
DEFPOINTS
 62
     0
440
 16777216
100
AcDbPoint
 10
1064.892450737895
 20
662.1350657157285
 30
0.0
  0
POINT
  5
C544
330
C4C6
100
AcDbEntity
  8
DEFPOINTS
 62
     0
440
 16777216
100
AcDbPoint
 10
1064.892450737895
 20
755.6727174805831
 30
0.0
  0
ENDBLK
  5
C4C8
330
C4C6
100
AcDbEntity
  8
0
100
AcDbBlockEnd
  0
BLOCK
  5
CD55
330
CD54
100
AcDbEntity
  8
0
100
AcDbBlockBegin
  2
*D12
 70
     1
 10
0.0
 20
0.0
 30
0.0
  3
*D12
  1

  0
LINE
  5
CE22
330
CD54
100
AcDbEntity
  8
OBJECT1
 62
     1
440
 16777216
370
    -2
100
AcDbLine
 10
1076.365611934033
 20
328.8220934545055
 30
0.0
 11
1034.785802599194
 21
317.1674630060348
 31
0.0
  0
MTEXT
  5
CE23
330
CD54
100
AcDbEntity
  8
OBJECT1
 62
     2
440
 16777216
100
AcDbMText
 10
1061.410216438492
 20
336.0541055092658
 30
0.0
 40
12.0
 41
0.0
 46
0.0
 71
     5
 72
     1
  1
\A1;R5
 11
0.9628901240865108
 21
0.2698936993274654
 31
0.0
 73
     1
 44
1.0
  0
LINE
  5
CE24
330
CD54
100
AcDbEntity
  8
OBJECT1
 62
     1
440
 16777216
370
    -2
100
AcDbLine
 10
1020.342450737895
 20
313.1190575161225
 30
0.0
 11
1025.156901358329
 21
314.4685260127602
 31
0.0
  0
INSERT
  5
CE25
330
CD54
100
AcDbEntity
  8
OBJECT1
 62
     1
440
 16777216
370
    -2
100
AcDbBlockReference
  2
_OPEN
 10
1025.156901358329
 20
314.4685260127602
 30
0.0
 41
10.0
 42
10.0
 43
10.0
 50
195.6579414420751
  0
POINT
  5
CE26
330
CD54
100
AcDbEntity
  8
DEFPOINTS
 62
     0
440
 16777216
100
AcDbPoint
 10
1025.156901358329
 20
314.4685260127602
 30
0.0
  0
POINT
  5
CE27
330
CD54
100
AcDbEntity
  8
DEFPOINTS
 62
     0
440
 16777216
100
AcDbPoint
 10
1020.342450737895
 20
313.1190575161225
 30
0.0
  0
ENDBLK
  5
CD56
330
CD54
100
AcDbEntity
  8
0
100
AcDbBlockEnd
  0
BLOCK
  5
CD5E
330
CD5D
100
AcDbEntity
  8
0
100
AcDbBlockBegin
  2
*D13
 70
     1
 10
0.0
 20
0.0
 30
0.0
  3
*D13
  1

  0
LINE
  5
CE28
330
CD5D
100
AcDbEntity
  8
OBJECT1
 62
     1
440
 16777216
370
    -2
100
AcDbLine
 10
1010.483399113041
 20
511.1190575161303
 30
0.0
 11
960.9352618672355
 21
511.1190575161303
 31
0.0
  0
LINE
  5
CE29
330
CD5D
100
AcDbEntity
  8
OBJECT1
 62
     1
440
 16777216
370
    -2
100
AcDbLine
 10
1008.957209252837
 20
311.1190575161296
 30
0.0
 11
960.9352618672355
 21
311.1190575161296
 31
0.0
  0
LINE
  5
CE2A
330
CD5D
100
AcDbEntity
  8
OBJECT1
 62
     1
440
 16777216
370
    -2
100
AcDbLine
 10
964.9352618672356
 20
501.1190575161302
 30
0.0
 11
964.9352618672356
 21
321.1190575161297
 31
0.0
  0
INSERT
  5
CE2B
330
CD5D
100
AcDbEntity
  8
OBJECT1
 62
     1
440
 16777216
370
    -2
100
AcDbBlockReference
  2
_OPEN
 10
964.9352618672356
 20
511.1190575161303
 30
0.0
 41
10.0
 42
10.0
 43
10.0
 50
90.0
  0
INSERT
  5
CE2C
330
CD5D
100
AcDbEntity
  8
OBJECT1
 62
     1
440
 16777216
370
    -2
100
AcDbBlockReference
  2
_OPEN
 10
964.9352618672356
 20
311.1190575161296
 30
0.0
 41
10.0
 42
10.0
 43
10.0
 50
270.0
  0
MTEXT
  5
CE2D
330
CD5D
100
AcDbEntity
  8
OBJECT1
 62
     2
440
 16777216
100
AcDbMText
 10
953.9340807648732
 20
411.1190575161301
 30
0.0
 40
12.0
 41
0.0
 46
0.0
 71
     5
 72
     1
  1
\A1;200
 11
0.0000000000000001
 21
1.0
 31
0.0
 73
     1
 44
1.0
  0
POINT
  5
CE2E
330
CD5D
100
AcDbEntity
  8
DEFPOINTS
 62
     0
440
 16777216
100
AcDbPoint
 10
1014.483399113041
 20
511.1190575161303
 30
0.0
  0
POINT
  5
CE2F
330
CD5D
100
AcDbEntity
  8
DEFPOINTS
 62
     0
440
 16777216
100
AcDbPoint
 10
1012.957209252837
 20
311.1190575161296
 30
0.0
  0
POINT
  5
CE30
330
CD5D
100
AcDbEntity
  8
DEFPOINTS
 62
     0
440
 16777216
100
AcDbPoint
 10
964.9352618672356
 20
311.1190575161296
 30
0.0
  0
ENDBLK
  5
CD5F
330
CD5D
100
AcDbEntity
  8
0
100
AcDbBlockEnd
  0
BLOCK
  5
CD6A
330
CD69
100
AcDbEntity
  8
0
100
AcDbBlockBegin
  2
*D14
 70
     1
 10
0.0
 20
0.0
 30
0.0
  3
*D14
  1

  0
LINE
  5
CE31
330
CD69
100
AcDbEntity
  8
OBJECT1
 62
     1
440
 16777216
370
    -2
100
AcDbLine
 10
1005.342450737894
 20
521.1190575161237
 30
0.0
 11
932.9352618672347
 21
521.1190575161237
 31
0.0
  0
LINE
  5
CE32
330
CD69
100
AcDbEntity
  8
OBJECT1
 62
     1
440
 16777216
370
    -2
100
AcDbLine
 10
1005.342450737893
 20
301.1190575161228
 30
0.0
 11
932.9352618672347
 21
301.1190575161228
 31
0.0
  0
LINE
  5
CE33
330
CD69
100
AcDbEntity
  8
OBJECT1
 62
     1
440
 16777216
370
    -2
100
AcDbLine
 10
936.9352618672346
 20
511.1190575161238
 30
0.0
 11
936.9352618672346
 21
311.1190575161228
 31
0.0
  0
INSERT
  5
CE34
330
CD69
100
AcDbEntity
  8
OBJECT1
 62
     1
440
 16777216
370
    -2
100
AcDbBlockReference
  2
_OPEN
 10
936.9352618672346
 20
521.1190575161237
 30
0.0
 41
10.0
 42
10.0
 43
10.0
 50
90.0
  0
INSERT
  5
CE35
330
CD69
100
AcDbEntity
  8
OBJECT1
 62
     1
440
 16777216
370
    -2
100
AcDbBlockReference
  2
_OPEN
 10
936.9352618672346
 20
301.1190575161228
 30
0.0
 41
10.0
 42
10.0
 43
10.0
 50
270.0
  0
MTEXT
  5
CE36
330
CD69
100
AcDbEntity
  8
OBJECT1
 62
     2
440
 16777216
100
AcDbMText
 10
925.9340807648722
 20
411.1190575161235
 30
0.0
 40
12.0
 41
0.0
 46
0.0
 71
     5
 72
     1
  1
\A1;220
 11
0.0000000000000001
 21
1.0
 31
0.0
 73
     1
 44
1.0
  0
POINT
  5
CE37
330
CD69
100
AcDbEntity
  8
DEFPOINTS
 62
     0
440
 16777216
100
AcDbPoint
 10
1009.342450737894
 20
521.1190575161237
 30
0.0
  0
POINT
  5
CE38
330
CD69
100
AcDbEntity
  8
DEFPOINTS
 62
     0
440
 16777216
100
AcDbPoint
 10
1009.342450737893
 20
301.1190575161228
 30
0.0
  0
POINT
  5
CE39
330
CD69
100
AcDbEntity
  8
DEFPOINTS
 62
     0
440
 16777216
100
AcDbPoint
 10
936.9352618672346
 20
301.1190575161228
 30
0.0
  0
ENDBLK
  5
CD6B
330
CD69
100
AcDbEntity
  8
0
100
AcDbBlockEnd
  0
BLOCK
  5
CD76
330
CD75
100
AcDbEntity
  8
0
100
AcDbBlockBegin
  2
*D15
 70
     1
 10
0.0
 20
0.0
 30
0.0
  3
*D15
  1

  0
LINE
  5
CE3A
330
CD75
100
AcDbEntity
  8
OBJECT1
 62
     1
440
 16777216
370
    -2
100
AcDbLine
 10
1127.642487379965
 20
525.1190575161306
 30
0.0
 11
1127.642487379965
 21
582.0122339002224
 31
0.0
  0
LINE
  5
CE3B
330
CD75
100
AcDbEntity
  8
OBJECT1
 62
     1
440
 16777216
370
    -2
100
AcDbLine
 10
1075.642486903128
 20
478.6188347369722
 30
0.0
 11
1075.642486903128
 21
582.0122339002224
 31
0.0
  0
LINE
  5
CE3C
330
CD75
100
AcDbEntity
  8
OBJECT1
 62
     1
440
 16777216
370
    -2
100
AcDbLine
 10
1117.642487379965
 20
578.0122339002224
 30
0.0
 11
1085.642486903128
 21
578.0122339002224
 31
0.0
  0
INSERT
  5
CE3D
330
CD75
100
AcDbEntity
  8
OBJECT1
 62
     1
440
 16777216
370
    -2
100
AcDbBlockReference
  2
_OPEN
 10
1127.642487379965
 20
578.0122339002224
 30
0.0
 41
10.0
 42
10.0
 43
10.0
  0
INSERT
  5
CE3E
330
CD75
100
AcDbEntity
  8
OBJECT1
 62
     1
440
 16777216
370
    -2
100
AcDbBlockReference
  2
_OPEN
 10
1075.642486903128
 20
578.0122339002224
 30
0.0
 41
10.0
 42
10.0
 43
10.0
 50
180.0
  0
MTEXT
  5
CE3F
330
CD75
100
AcDbEntity
  8
OBJECT1
 62
     2
440
 16777216
100
AcDbMText
 10
1101.642487141546
 20
589.0134150025845
 30
0.0
 40
12.0
 41
0.0
 46
0.0
 71
     5
 72
     1
  1
\A1;52
 73
     1
 44
1.0
  0
POINT
  5
CE40
330
CD75
100
AcDbEntity
  8
DEFPOINTS
 62
     0
440
 16777216
100
AcDbPoint
 10
1127.642487379965
 20
521.1190575161306
 30
0.0
  0
POINT
  5
CE41
330
CD75
100
AcDbEntity
  8
DEFPOINTS
 62
     0
440
 16777216
100
AcDbPoint
 10
1075.642486903128
 20
474.6188347369722
 30
0.0
  0
POINT
  5
CE42
330
CD75
100
AcDbEntity
  8
DEFPOINTS
 62
     0
440
 16777216
100
AcDbPoint
 10
1075.642486903128
 20
578.0122339002224
 30
0.0
  0
ENDBLK
  5
CD77
330
CD75
100
AcDbEntity
  8
0
100
AcDbBlockEnd
  0
BLOCK
  5
CD82
330
CD81
100
AcDbEntity
  8
0
100
AcDbBlockBegin
  2
*D16
 70
     1
 10
0.0
 20
0.0
 30
0.0
  3
*D16
  1

  0
LINE
  5
CE43
330
CD81
100
AcDbEntity
  8
OBJECT1
 62
     1
440
 16777216
370
    -2
100
AcDbLine
 10
1112.642487379965
 20
492.6188327104198
 30
0.0
 11
1112.642487379965
 21
554.0122339002224
 31
0.0
  0
LINE
  5
CE44
330
CD81
100
AcDbEntity
  8
OBJECT1
 62
     1
440
 16777216
370
    -2
100
AcDbLine
 10
1075.642486903128
 20
478.6188347369722
 30
0.0
 11
1075.642486903128
 21
554.0122339002224
 31
0.0
  0
LINE
  5
CE45
330
CD81
100
AcDbEntity
  8
OBJECT1
 62
     1
440
 16777216
370
    -2
100
AcDbLine
 10
1102.642487379965
 20
550.0122339002224
 30
0.0
 11
1085.642486903128
 21
550.0122339002224
 31
0.0
  0
INSERT
  5
CE46
330
CD81
100
AcDbEntity
  8
OBJECT1
 62
     1
440
 16777216
370
    -2
100
AcDbBlockReference
  2
_OPEN
 10
1112.642487379965
 20
550.0122339002224
 30
0.0
 41
10.0
 42
10.0
 43
10.0
  0
INSERT
  5
CE47
330
CD81
100
AcDbEntity
  8
OBJECT1
 62
     1
440
 16777216
370
    -2
100
AcDbBlockReference
  2
_OPEN
 10
1075.642486903128
 20
550.0122339002224
 30
0.0
 41
10.0
 42
10.0
 43
10.0
 50
180.0
  0
MTEXT
  5
CE48
330
CD81
100
AcDbEntity
  8
OBJECT1
 62
     2
440
 16777216
100
AcDbMText
 10
1094.142487141546
 20
561.0122339002224
 30
0.0
 40
12.0
 41
0.0
 46
0.0
 71
     5
 72
     1
  1
\A1;37
 73
     1
 44
1.0
  0
POINT
  5
CE49
330
CD81
100
AcDbEntity
  8
DEFPOINTS
 62
     0
440
 16777216
100
AcDbPoint
 10
1112.642487379965
 20
488.6188327104198
 30
0.0
  0
POINT
  5
CE4A
330
CD81
100
AcDbEntity
  8
DEFPOINTS
 62
     0
440
 16777216
100
AcDbPoint
 10
1075.642486903128
 20
474.6188347369722
 30
0.0
  0
POINT
  5
CE4B
330
CD81
100
AcDbEntity
  8
DEFPOINTS
 62
     0
440
 16777216
100
AcDbPoint
 10
1075.642486903128
 20
550.0122339002224
 30
0.0
  0
ENDBLK
  5
CD83
330
CD81
100
AcDbEntity
  8
0
100
AcDbBlockEnd
  0
BLOCK
  5
CD8E
330
CD8D
100
AcDbEntity
  8
0
100
AcDbBlockBegin
  2
*D17
 70
     1
 10
0.0
 20
0.0
 30
0.0
  3
*D17
  1

  0
LINE
  5
CE4C
330
CD8D
100
AcDbEntity
  8
OBJECT1
 62
     1
440
 16777216
370
    -2
100
AcDbLine
 10
1065.549066913312
 20
532.2396180878388
 30
0.0
 11
1033.932415622716
 21
517.4682979769361
 31
0.0
  0
MTEXT
  5
CE4D
330
CD8D
100
AcDbEntity
  8
OBJECT1
 62
     2
440
 16777216
100
AcDbMText
 10
1049.614619891692
 20
536.9363457681968
 30
0.0
 40
12.0
 41
0.0
 46
0.0
 71
     5
 72
     1
  1
\A1;R5
 11
0.9059976589883207
 21
0.4232826973875525
 31
0.0
 73
     1
 44
1.0
  0
LINE
  5
CE4E
330
CD8D
100
AcDbEntity
  8
OBJECT1
 62
     1
440
 16777216
370
    -2
100
AcDbLine
 10
1020.342450737894
 20
511.1190575161238
 30
0.0
 11
1024.872439032833
 21
513.2354710030605
 31
0.0
  0
INSERT
  5
CE4F
330
CD8D
100
AcDbEntity
  8
OBJECT1
 62
     1
440
 16777216
370
    -2
100
AcDbBlockReference
  2
_OPEN
 10
1024.872439032833
 20
513.2354710030605
 30
0.0
 41
10.0
 42
10.0
 43
10.0
 50
205.0420120755036
  0
POINT
  5
CE50
330
CD8D
100
AcDbEntity
  8
DEFPOINTS
 62
     0
440
 16777216
100
AcDbPoint
 10
1024.872439032833
 20
513.2354710030605
 30
0.0
  0
POINT
  5
CE51
330
CD8D
100
AcDbEntity
  8
DEFPOINTS
 62
     0
440
 16777216
100
AcDbPoint
 10
1020.342450737894
 20
511.1190575161238
 30
0.0
  0
ENDBLK
  5
CD8F
330
CD8D
100
AcDbEntity
  8
0
100
AcDbBlockEnd
  0
BLOCK
  5
CD97
330
CD96
100
AcDbEntity
  8
0
100
AcDbBlockBegin
  2
*D18
 70
     1
 10
0.0
 20
0.0
 30
0.0
  3
*D18
  1

  0
LINE
  5
CE52
330
CD96
100
AcDbEntity
  8
OBJECT1
 62
     1
440
 16777216
370
    -2
100
AcDbLine
 10
1033.342450737893
 20
523.1190575161239
 30
0.0
 11
1033.342450737893
 21
554.0122339002202
 31
0.0
  0
LINE
  5
CE53
330
CD96
100
AcDbEntity
  8
OBJECT1
 62
     1
440
 16777216
370
    -2
100
AcDbLine
 10
1007.342450737893
 20
523.1190575161239
 30
0.0
 11
1007.342450737893
 21
554.0122339002202
 31
0.0
  0
LINE
  5
CE54
330
CD96
100
AcDbEntity
  8
OBJECT1
 62
     1
440
 16777216
370
    -2
100
AcDbLine
 10
1043.342450737893
 20
550.0122339002202
 30
0.0
 11
1053.342450737893
 21
550.0122339002202
 31
0.0
  0
LINE
  5
CE55
330
CD96
100
AcDbEntity
  8
OBJECT1
 62
     1
440
 16777216
370
    -2
100
AcDbLine
 10
997.3424507378933
 20
550.0122339002202
 30
0.0
 11
987.3424507378933
 21
550.0122339002202
 31
0.0
  0
LINE
  5
CE56
330
CD96
100
AcDbEntity
  8
OBJECT1
 62
     1
440
 16777216
370
    -2
100
AcDbLine
 10
1033.342450737893
 20
550.0122339002202
 30
0.0
 11
1007.342450737893
 21
550.0122339002202
 31
0.0
  0
INSERT
  5
CE57
330
CD96
100
AcDbEntity
  8
OBJECT1
 62
     1
440
 16777216
370
    -2
100
AcDbBlockReference
  2
_OPEN
 10
1033.342450737893
 20
550.0122339002202
 30
0.0
 41
10.0
 42
10.0
 43
10.0
 50
180.0
  0
INSERT
  5
CE58
330
CD96
100
AcDbEntity
  8
OBJECT1
 62
     1
440
 16777216
370
    -2
100
AcDbBlockReference
  2
_OPEN
 10
1007.342450737893
 20
550.0122339002202
 30
0.0
 41
10.0
 42
10.0
 43
10.0
  0
MTEXT
  5
CE59
330
CD96
100
AcDbEntity
  8
OBJECT1
 62
     2
440
 16777216
100
AcDbMText
 10
1020.342450737893
 20
561.0134150025826
 30
0.0
 40
12.0
 41
0.0
 46
0.0
 71
     5
 72
     1
  1
\A1;26
 73
     1
 44
1.0
  0
POINT
  5
CE5A
330
CD96
100
AcDbEntity
  8
DEFPOINTS
 62
     0
440
 16777216
100
AcDbPoint
 10
1033.342450737893
 20
519.1190575161239
 30
0.0
  0
POINT
  5
CE5B
330
CD96
100
AcDbEntity
  8
DEFPOINTS
 62
     0
440
 16777216
100
AcDbPoint
 10
1007.342450737893
 20
519.1190575161239
 30
0.0
  0
POINT
  5
CE5C
330
CD96
100
AcDbEntity
  8
DEFPOINTS
 62
     0
440
 16777216
100
AcDbPoint
 10
1007.342450737893
 20
550.0122339002202
 30
0.0
  0
ENDBLK
  5
CD98
330
CD96
100
AcDbEntity
  8
0
100
AcDbBlockEnd
  0
BLOCK
  5
CDA5
330
CDA4
100
AcDbEntity
  8
0
100
AcDbBlockBegin
  2
*D19
 70
     1
 10
0.0
 20
0.0
 30
0.0
  3
*D19
  1

  0
LINE
  5
CE5D
330
CDA4
100
AcDbEntity
  8
OBJECT1
 62
     1
440
 16777216
370
    -2
100
AcDbLine
 10
1112.642487379965
 20
493.5890575161301
 30
0.0
 11
1112.642487379965
 21
554.0122339002224
 31
0.0
  0
LINE
  5
CE5E
330
CDA4
100
AcDbEntity
  8
OBJECT1
 62
     1
440
 16777216
370
    -2
100
AcDbLine
 10
1127.642487379965
 20
525.1190575161306
 30
0.0
 11
1127.642487379965
 21
554.0122339002224
 31
0.0
  0
LINE
  5
CE5F
330
CDA4
100
AcDbEntity
  8
OBJECT1
 62
     1
440
 16777216
370
    -2
100
AcDbLine
 10
1102.642487379965
 20
550.0122339002224
 30
0.0
 11
1092.642487379965
 21
550.0122339002224
 31
0.0
  0
LINE
  5
CE60
330
CDA4
100
AcDbEntity
  8
OBJECT1
 62
     1
440
 16777216
370
    -2
100
AcDbLine
 10
1137.642487379965
 20
550.0122339002224
 30
0.0
 11
1147.642487379965
 21
550.0122339002224
 31
0.0
  0
LINE
  5
CE61
330
CDA4
100
AcDbEntity
  8
OBJECT1
 62
     1
440
 16777216
370
    -2
100
AcDbLine
 10
1112.642487379965
 20
550.0122339002224
 30
0.0
 11
1127.642487379965
 21
550.0122339002224
 31
0.0
  0
INSERT
  5
CE62
330
CDA4
100
AcDbEntity
  8
OBJECT1
 62
     1
440
 16777216
370
    -2
100
AcDbBlockReference
  2
_OPEN
 10
1112.642487379965
 20
550.0122339002224
 30
0.0
 41
10.0
 42
10.0
 43
10.0
  0
INSERT
  5
CE63
330
CDA4
100
AcDbEntity
  8
OBJECT1
 62
     1
440
 16777216
370
    -2
100
AcDbBlockReference
  2
_OPEN
 10
1127.642487379965
 20
550.0122339002224
 30
0.0
 41
10.0
 42
10.0
 43
10.0
 50
180.0
  0
MTEXT
  5
CE64
330
CDA4
100
AcDbEntity
  8
OBJECT1
 62
     2
440
 16777216
100
AcDbMText
 10
1120.142487379965
 20
561.0122339002224
 30
0.0
 40
12.0
 41
0.0
 46
0.0
 71
     5
 72
     1
  1
\A1;15
 73
     1
 44
1.0
  0
POINT
  5
CE65
330
CDA4
100
AcDbEntity
  8
DEFPOINTS
 62
     0
440
 16777216
100
AcDbPoint
 10
1112.642487379965
 20
489.5890575161301
 30
0.0
  0
POINT
  5
CE66
330
CDA4
100
AcDbEntity
  8
DEFPOINTS
 62
     0
440
 16777216
100
AcDbPoint
 10
1127.642487379965
 20
521.1190575161306
 30
0.0
  0
POINT
  5
CE67
330
CDA4
100
AcDbEntity
  8
DEFPOINTS
 62
     0
440
 16777216
100
AcDbPoint
 10
1127.642487379965
 20
550.0122339002224
 30
0.0
  0
ENDBLK
  5
CDA6
330
CDA4
100
AcDbEntity
  8
0
100
AcDbBlockEnd
  0
BLOCK
  5
CDB3
330
CDB2
100
AcDbEntity
  8
0
100
AcDbBlockBegin
  2
*D20
 70
     1
 10
0.0
 20
0.0
 30
0.0
  3
*D20
  1

  0
LINE
  5
CFD4
330
CDB2
100
AcDbEntity
  8
OBJECT1
 62
     1
440
 16777216
370
    -2
100
AcDbLine
 10
996.337654017201
 20
477.6450380211969
 30
0.0
 11
996.337654017201
 21
582.0122339002202
 31
0.0
  0
LINE
  5
CFD5
330
CDB2
100
AcDbEntity
  8
OBJECT1
 62
     1
440
 16777216
370
    -2
100
AcDbLine
 10
1044.350609662465
 20
477.5154022624376
 30
0.0
 11
1044.350609662465
 21
582.0122339002202
 31
0.0
  0
LINE
  5
CFD6
330
CDB2
100
AcDbEntity
  8
OBJECT1
 62
     1
440
 16777216
370
    -2
100
AcDbLine
 10
1006.337654017201
 20
578.0122339002202
 30
0.0
 11
1034.350609662465
 21
578.0122339002202
 31
0.0
  0
INSERT
  5
CFD7
330
CDB2
100
AcDbEntity
  8
OBJECT1
 62
     1
440
 16777216
370
    -2
100
AcDbBlockReference
  2
_OPEN
 10
996.337654017201
 20
578.0122339002202
 30
0.0
 41
10.0
 42
10.0
 43
10.0
 50
180.0
  0
INSERT
  5
CFD8
330
CDB2
100
AcDbEntity
  8
OBJECT1
 62
     1
440
 16777216
370
    -2
100
AcDbBlockReference
  2
_OPEN
 10
1044.350609662465
 20
578.0122339002202
 30
0.0
 41
10.0
 42
10.0
 43
10.0
  0
MTEXT
  5
CFD9
330
CDB2
100
AcDbEntity
  8
OBJECT1
 62
     2
440
 16777216
100
AcDbMText
 10
1020.344131839833
 20
589.0122339002203
 30
0.0
 40
12.0
 41
0.0
 46
0.0
 71
     5
 72
     1
  1
\A1;48
 73
     1
 44
1.0
  0
POINT
  5
CFDA
330
CDB2
100
AcDbEntity
  8
DEFPOINTS
 62
     0
440
 16777216
100
AcDbPoint
 10
996.337654017201
 20
473.6450380211969
 30
0.0
  0
POINT
  5
CFDB
330
CDB2
100
AcDbEntity
  8
DEFPOINTS
 62
     0
440
 16777216
100
AcDbPoint
 10
1044.350609662465
 20
473.5154022624376
 30
0.0
  0
POINT
  5
CFDC
330
CDB2
100
AcDbEntity
  8
DEFPOINTS
 62
     0
440
 16777216
100
AcDbPoint
 10
1044.350609662465
 20
578.0122339002202
 30
0.0
  0
ENDBLK
  5
CDB4
330
CDB2
100
AcDbEntity
  8
0
100
AcDbBlockEnd
  0
BLOCK
  5
CF63
330
CF59
100
AcDbEntity
  8
0
100
AcDbBlockBegin
  2
A$C7FF14051
 70
     0
 10
0.0
 20
0.0
 30
0.0
  3
A$C7FF14051
  1

  0
LINE
  5
CF5A
330
CF59
100
AcDbEntity
  8
0
100
AcDbLine
 10
265.1449967028022
 20
1.999999095205794
 30
0.0
 11
93.38051277457635
 21
1.999999095212159
 31
0.0
  0
LINE
  5
CF5B
330
CF59
100
AcDbEntity
  8
0
100
AcDbLine
 10
264.6144785824169
 20
-0.0000009047939784
 30
0.0
 11
93.85558679723455
 21
-0.0000009047882941
 31
0.0
  0
LINE
  5
CF5C
330
CF59
100
AcDbEntity
  8
0
100
AcDbLine
 10
179.2350326898256
 20
-0.0000009047911362
 30
0.0
 11
264.6144486490578
 21
0.0714930553784825
 31
0.0
  0
LINE
  5
CF5D
330
CF59
100
AcDbEntity
  8
HIDE
 48
0.2
100
AcDbLine
 10
-0.0000022916586886
 20
148.1999961846642
 30
0.0
 11
358.5255117690407
 21
148.199996184832
 31
0.0
  0
LINE
  5
CF5E
330
CF59
100
AcDbEntity
  8
HIDE
 48
0.2
100
AcDbLine
 10
245.4567417430133
 20
10.99202867892029
 30
0.0
 11
113.0687676481981
 21
10.99202878644712
 31
0.0
  0
LINE
  5
CF5F
330
CF59
100
AcDbEntity
  8
HIDE
 48
0.2
100
AcDbLine
 10
113.0687676481981
 20
10.99202878644712
 30
0.0
 11
-0.0000022916586886
 21
148.1999961846642
 31
0.0
  0
LINE
  5
CF60
330
CF59
100
AcDbEntity
  8
HIDE
 48
0.2
100
AcDbLine
 10
358.5255117690407
 20
148.199996184832
 30
0.0
 11
245.4567417430133
 21
10.99202867892029
 31
0.0
  0
ENDBLK
  5
CF64
330
CF59
100
AcDbEntity
  8
0
100
AcDbBlockEnd
  0
ENDSEC
  0
SECTION
  2
ENTITIES
  0
MTEXT
  5
7A27
330
18
100
AcDbEntity
  8
OBJECT1
 62
     2
100
AcDbMText
 10
-161.5789866452596
 20
242.342904486376
 30
0.0
 40
3.0
 41
0.0
 46
0.0
 71
     7
 72
     1
  1
　　　
 73
     1
 44
1.0
  0
MTEXT
  5
D0E7
330
18
100
AcDbEntity
  8
7：文字
 62
     7
 48
2.0
100
AcDbMText
 10
2615.066731185857
 20
586.8856296903182
 30
0.0
 40
20.0
 41
188.2662939976999
 46
0.0
 71
     1
 72
     5
  1
{\fMS PGothic|b0|i0|c128|p50;LP-2050J-25N\PLP-2050J-50N\PLP-2050J-101N}
 73
     1
 44
1.0
1001
ACAD
1000
ACAD_MTEXT_COLUMN_INFO_BEGIN
1070
    75
1070
     2
1070
    79
1070
     0
1070
    76
1070
     1
1070
    78
1070
     0
1070
    48
1040
188.2662939976999
1070
    49
1040
15.0
1070
    50
1070
     1
1040
0.0
1000
ACAD_MTEXT_COLUMN_INFO_END
  0
LINE
  5
D129
330
18
100
AcDbEntity
  8
1：主線
100
AcDbLine
 10
2291.670420837219
 20
508.6371127204211
 30
0.0000000000227374
 11
2291.670420837219
 21
547.9254140547791
 31
0.0
210
0.707106781186547
220
0.4082482904638953
230
0.5773502691896039
  0
LINE
  5
D12A
330
18
100
AcDbEntity
  8
1：主線
100
AcDbLine
 10
2383.720420837259
 20
508.6371127204183
 30
0.0000000000113687
 11
2383.720420837265
 21
547.9254140547791
 31
0.0000000000113687
210
0.707106781186547
220
0.4082482904638953
230
0.5773502691896039
  0
SPLINE
  5
D12B
330
18
100
AcDbEntity
  8
1：主線
100
AcDbSpline
210
-0.0000000000008361
220
-0.0000000000003011
230
1.0
 70
     8
 71
     3
 72
    16
 73
    12
 74
     0
 42
0.000000001
 43
0.0000000001
 40
1.759809529039209
 40
1.759809529039209
 40
1.759809529039209
 40
1.759809529039209
 40
1.870218845498393
 40
1.870218845498393
 40
1.980628161957576
 40
1.980628161957576
 40
2.09103747841676
 40
2.09103747841676
 40
2.201446794875943
 40
2.201446794875943
 40
2.309035199676255
 40
2.309035199676255
 40
2.309035199676255
 40
2.309035199676255
 10
2264.038679994943
 20
610.4082719108364
 30
0.0
 10
2264.915971740388
 20
609.6621424803734
 30
0.0000000000227374
 10
2266.291462023688
 20
608.4096484133342
 30
0.0
 10
2269.830042140311
 20
604.5420138816353
 30
0.0
 10
2271.994479488078
 20
601.9224396188583
 30
0.0
 10
2276.693456225818
 20
595.0416696245029
 30
0.0000000000227374
 10
2279.22595190938
 20
590.7739839557707
 30
0.0
 10
2284.029554419673
 20
580.5609491943587
 30
0.0000000000113687
 10
2286.29269658384
 20
574.6110568298973
 30
0.0000000000113687
 10
2289.809641869775
 20
561.5945445729858
 30
0.0000000000227374
 10
2291.078040668825
 20
554.5649287419073
 30
0.0000000000113687
 10
2291.670420837213
 20
547.3180583065587
 30
0.0
  0
SPLINE
  5
D12C
330
18
100
AcDbEntity
  8
1：主線
100
AcDbSpline
210
-0.0000000000002312
220
0.0000000000000146
230
1.0
 70
     8
 71
     3
 72
    16
 73
    12
 74
     0
 42
0.000000001
 43
0.0000000001
 40
5.544946434298234
 40
5.544946434298234
 40
5.544946434298234
 40
5.544946434298234
 40
5.652534839098544
 40
5.652534839098544
 40
5.762944155557727
 40
5.762944155557727
 40
5.87335347201691
 40
5.87335347201691
 40
5.983762788476093
 40
5.983762788476093
 40
6.094172104935277
 40
6.094172104935277
 40
6.094172104935277
 40
6.094172104935277
 10
2383.720420837253
 20
547.3180583065604
 30
0.0000000000113687
 10
2384.312801005664
 20
554.5649287419073
 30
0.0
 10
2385.581199804702
 20
561.5945445729803
 30
0.0000000000113687
 10
2389.098145090649
 20
574.6110568298936
 30
0.0
 10
2391.361287254805
 20
580.5609491943469
 30
0.0000000000113687
 10
2396.164889765087
 20
590.7739839557616
 30
0.0000000000113687
 10
2398.69738544866
 20
595.041669624492
 30
0.0000000000113687
 10
2403.396362186417
 20
601.9224396188547
 30
0.0000000000113687
 10
2405.560799534161
 20
604.5420138816425
 30
0.0000000000113687
 10
2409.099379650784
 20
608.4096484133342
 30
0.0000000000113687
 10
2410.47486993409
 20
609.6621424803734
 30
0.0000000000113687
 10
2411.352161679535
 20
610.4082719108364
 30
0.0000000000113687
  0
LINE
  5
D12D
330
18
100
AcDbEntity
  8
1：主線
100
AcDbLine
 10
2248.695420837229
 20
640.4945728990778
 30
0.0
 11
2248.695420837224
 21
640.90955883068
 31
0.0000000000113687
210
0.707106781186547
220
0.4082482904638953
230
0.5773502691896039
  0
LINE
  5
D12E
330
18
100
AcDbEntity
  8
1：主線
100
AcDbLine
 10
2426.695420837261
 20
640.4945728990778
 30
0.0000000000113687
 11
2426.695420837255
 21
640.9095588306763
 31
0.0000000000227374
210
0.707106781186547
220
0.4082482904638953
230
0.5773502691896039
  0
SPLINE
  5
D12F
330
18
100
AcDbEntity
  8
1：主線
100
AcDbSpline
210
-0.0000000000000385
220
-0.0000000000000045
230
1.0
 70
     8
 71
     3
 72
    16
 73
    12
 74
     0
 42
0.000000001
 43
0.0000000001
 40
1.61046257745869
 40
1.61046257745869
 40
1.61046257745869
 40
1.61046257745869
 40
1.667911327111278
 40
1.667911327111278
 40
1.780602211770623
 40
1.780602211770623
 40
1.893293096429968
 40
1.893293096429968
 40
2.005983981089312
 40
2.005983981089312
 40
2.118674865748657
 40
2.118674865748657
 40
2.118674865748657
 40
2.118674865748657
 10
2265.009691083695
 20
609.5488971327795
 30
0.0000000000227374
 10
2261.353535902962
 20
611.8342531112284
 30
0.0000000000113687
 10
2257.515805242557
 20
614.3640774676123
 30
0.0000000000113687
 10
2245.626571476382
 20
622.7101410258256
 30
0.0000000000113687
 10
2237.061503145166
 20
629.3450083649104
 30
0.0000000000113687
 10
2218.824663378863
 20
645.5713267991032
 30
0.0000000000227374
 10
2209.147729393793
 20
655.1687986892175
 30
0.0000000000113687
 10
2189.345672726874
 20
678.076964307922
 30
0.0000000000113687
 10
2179.218347150917
 20
691.4000279520187
 30
0.0000000000113687
 10
2159.696452210162
 20
722.2568233536403
 30
0.0000000000113687
 10
2150.310068153054
 20
739.8068545143615
 30
0.0000000000113687
 10
2142.112393236361
 20
759.3571953681385
 30
0.0000000000113687
  0
SPLINE
  5
D130
330
18
100
AcDbEntity
  8
1：主線
100
AcDbSpline
210
0.0000000000003255
220
-0.0000000000002888
230
1.0
 70
     8
 71
     3
 72
    16
 73
    12
 74
     0
 42
0.000000001
 43
0.0000000001
 40
5.73530676822583
 40
5.73530676822583
 40
5.73530676822583
 40
5.73530676822583
 40
5.847997652885174
 40
5.847997652885174
 40
5.960688537544519
 40
5.960688537544519
 40
6.073379422203863
 40
6.073379422203863
 40
6.186070306863208
 40
6.186070306863208
 40
6.243519056515808
 40
6.243519056515808
 40
6.243519056515808
 40
6.243519056515808
 10
2533.278448438123
 20
759.3571953681385
 30
0.0000000000227374
 10
2525.080773521419
 20
739.8068545143651
 30
0.0000000000113687
 10
2515.694389464322
 20
722.2568233536294
 30
0.0000000000113687
 10
2496.172494523567
 20
691.4000279520187
 30
0.0000000000113687
 10
2486.045168947599
 20
678.0769643079138
 30
0.0000000000113687
 10
2466.243112280692
 20
655.1687986892175
 30
0.0000000000113687
 10
2456.56617829561
 20
645.5713267990959
 30
0.0000000000113687
 10
2438.329338529318
 20
629.3450083649068
 30
0.0000000000113687
 10
2429.764270198096
 20
622.7101410258256
 30
0.0000000000113687
 10
2417.875036431915
 20
614.3640774676123
 30
0.0000000000227374
 10
2414.037305771516
 20
611.834253111212
 30
0.0000000000113687
 10
2410.381150590789
 20
609.5488971327759
 30
0.0000000000113687
  0
SPLINE
  5
D131
330
18
100
AcDbEntity
  8
1：主線
100
AcDbSpline
210
-0.0000000000033979
220
-0.000000000000552
230
1.0
 70
     8
 71
     3
 72
    16
 73
    12
 74
     0
 42
0.000000001
 43
0.0000000001
 40
2.118674865739584
 40
2.118674865739584
 40
2.118674865739584
 40
2.118674865739584
 40
2.166178790630136
 40
2.166178790630136
 40
2.213682715520689
 40
2.213682715520689
 40
2.261186640411241
 40
2.261186640411241
 40
2.308690565301794
 40
2.308690565301794
 40
2.356194490192347
 40
2.356194490192347
 40
2.356194490192347
 40
2.356194490192347
 10
2142.112393236788
 20
759.3571953671098
 30
0.0000000000113687
 10
2141.272448368651
 20
761.3603497537915
 30
0.0000000000227374
 10
2140.510729263904
 20
763.3850979376429
 30
0.0000000000113687
 10
2139.14945336637
 20
767.4713455685796
 30
0.0
 10
2138.549909156806
 20
769.5328440645144
 30
0.0000000000113687
 10
2137.518036177594
 20
773.684876474138
 30
0.0
 10
2137.085720092953
 20
775.7754041366715
 30
0.0000000000113687
 10
2136.392290642406
 20
779.9765976697126
 30
0.0
 10
2136.13118770301
 20
782.087251989853
 30
0.0000000000227374
 10
2135.782749845939
 20
786.318888557611
 30
0.0000000000113687
 10
2135.695420837241
 20
788.439855299197
 30
0.0
 10
2135.695420837241
 20
790.5608305281694
 30
0.0000000000113687
  0
SPLINE
  5
D132
330
18
100
AcDbEntity
  8
1：主線
100
AcDbSpline
210
-0.0000000000015994
220
0.0000000000002464
230
1.0
 70
     8
 71
     3
 72
    16
 73
    12
 74
     0
 42
0.000000001
 43
0.0000000001
 40
5.49778714378214
 40
5.49778714378214
 40
5.49778714378214
 40
5.49778714378214
 40
5.545291068672693
 40
5.545291068672693
 40
5.592794993563245
 40
5.592794993563245
 40
5.640298918453797
 40
5.640298918453797
 40
5.68780284334435
 40
5.68780284334435
 40
5.735306768234902
 40
5.735306768234902
 40
5.735306768234902
 40
5.735306768234902
 10
2539.695420837237
 20
790.5608305281675
 30
0.0000000000113687
 10
2539.695420837243
 20
788.4398552991861
 30
0.0000000000113687
 10
2539.608091828539
 20
786.3188885576128
 30
0.0000000000113687
 10
2539.259653971468
 20
782.087251989853
 30
0.0000000000113687
 10
2538.998551032083
 20
779.9765976697154
 30
0.0000000000113687
 10
2538.305121581525
 20
775.7754041366715
 30
0.0000000000113687
 10
2537.872805496884
 20
773.6848764741344
 30
0.0
 10
2536.840932517666
 20
769.532844064508
 30
0.0000000000113687
 10
2536.241388308102
 20
767.4713455685687
 30
0.0000000000227374
 10
2534.880112410563
 20
763.3850979376338
 30
0.0000000000113687
 10
2534.118393305827
 20
761.3603497537942
 30
0.0000000000113687
 10
2533.27844843768
 20
759.3571953671071
 30
0.0
  0
LINE
  5
D133
330
18
100
AcDbEntity
  8
1：主線
100
AcDbLine
 10
2135.695420837241
 20
790.5608305281675
 30
0.0
 11
2135.695420837235
 21
798.4933989497249
 31
0.0000000000113687
210
0.707106781186547
220
0.4082482904638953
230
0.5773502691896039
  0
LINE
  5
D134
330
18
100
AcDbEntity
  8
1：主線
100
AcDbLine
 10
2539.695420837237
 20
790.5608305281675
 30
0.0000000000113687
 11
2539.695420837243
 21
798.4933989497212
 31
0.0
210
0.707106781186547
220
0.4082482904638953
230
0.5773502691896039
  0
SPLINE
  5
D135
330
18
100
AcDbEntity
  8
1：主線
100
AcDbSpline
210
-0.000000000000021
220
-0.0000000000000104
230
1.0
 70
     8
 71
     3
 72
    18
 73
    14
 74
     0
 42
0.000000001
 43
0.0000000001
 40
1.967367769342087
 40
1.967367769342087
 40
1.967367769342087
 40
1.967367769342087
 40
2.142585896150597
 40
2.142585896150597
 40
2.396029415697443
 40
2.396029415697443
 40
2.630359319819668
 40
2.630359319819668
 40
2.895627990274062
 40
2.895627990274062
 40
3.208412467778616
 40
3.208412467778616
 40
3.393723806168813
 40
3.393723806168813
 40
3.393723806168813
 40
3.393723806168813
 10
2143.293776991354
 20
756.5724652514945
 30
0.0000000000113687
 10
2137.432084694056
 20
764.8330983142241
 30
0.0000000000113687
 10
2132.513469174181
 20
773.8399643071434
 30
0.0000000000113687
 10
2123.671435566994
 20
797.3739860577579
 30
0.0000000000113687
 10
2121.28786271155
 20
812.6151064605291
 30
0.0
 10
2123.283380191757
 20
841.5219784173077
 30
0.0000000000113687
 10
2127.116997915048
 20
855.08892774998
 30
0.0000000000113687
 10
2139.872372051847
 20
881.2734353540944
 30
0.0000000000113687
 10
2149.294376606416
 20
893.5640259351858
 30
0.0000000000113687
 10
2173.350963049408
 20
916.7643074852575
 30
0.0000000000113687
 10
2188.643251842425
 20
927.1216645426784
 30
0.0000000000227374
 10
2215.374310759749
 20
940.6188448297108
 30
0.0000000000113687
 10
2225.855553502769
 20
944.974625006942
 30
0.0000000000113687
 10
2236.746378551496
 20
948.6864137429002
 30
0.0000000000113687
  0
SPLINE
  5
D136
330
18
100
AcDbEntity
  8
1：主線
100
AcDbSpline
210
-0.0000000000000523
220
0.0000000000000134
230
1.0
 70
     8
 71
     3
 72
    18
 73
    14
 74
     0
 42
0.000000001
 43
0.0000000001
 40
4.460257827805673
 40
4.460257827805673
 40
4.460257827805673
 40
4.460257827805673
 40
4.773042305310227
 40
4.773042305310227
 40
5.08582678281478
 40
5.08582678281478
 40
5.383011132116816
 40
5.383011132116816
 40
5.622529628823872
 40
5.622529628823872
 40
5.863103498015751
 40
5.863103498015751
 40
5.886613864632395
 40
5.886613864632395
 40
5.886613864632395
 40
5.886613864632395
 10
2438.644463122976
 20
948.6864137429019
 30
0.0000000000113687
 10
2457.026938000403
 20
942.4213362227273
 30
0.0000000000113687
 10
2474.246249870195
 20
934.3354640412362
 30
0.0
 10
2505.114436580781
 20
914.2092084164433
 30
0.0
 10
2518.824393846544
 20
902.1436949529197
 30
0.0000000000227374
 10
2540.084638303436
 20
874.053025412576
 30
0.0000000000113687
 10
2547.853137031556
 20
858.0859416568037
 30
0.0000000000113687
 10
2554.071777538471
 20
826.942202978088
 30
0.0000000000113687
 10
2553.941524381302
 20
812.3451041752959
 30
0.0000000000227374
 10
2547.916595833383
 20
784.6044928966712
 30
0.0000000000113687
 10
2542.094740169538
 20
771.5449008623891
 30
0.0000000000227374
 10
2533.652983609822
 20
758.8022968762689
 30
0.0000000000113687
 10
2532.883573119288
 20
757.6808580606612
 30
0.0000000000113687
 10
2532.097064683135
 20
756.5724652514945
 30
0.0000000000113687
  0
SPLINE
  5
D137
330
18
100
AcDbEntity
  8
1：主線
100
AcDbSpline
210
-0.0000000000000105
220
-0.0000000000001286
230
1.0
 70
     8
 71
     3
 72
    16
 73
    12
 74
     0
 42
0.000000001
 43
0.0000000001
 40
3.641488639333759
 40
3.641488639333759
 40
3.641488639333759
 40
3.641488639333759
 40
3.755689510395153
 40
3.755689510395153
 40
3.869890381456547
 40
3.869890381456547
 40
3.98409125251794
 40
3.98409125251794
 40
4.098292123579334
 40
4.098292123579334
 40
4.212492994640728
 40
4.212492994640728
 40
4.212492994640728
 40
4.212492994640728
 10
2281.766921383079
 20
959.9646059392307
 30
0.0000000000113687
 10
2289.379600105676
 20
961.2546840340218
 30
0.0
 10
2296.898543369017
 20
962.2577072197437
 30
0.0000000000113687
 10
2311.824905983961
 20
963.7485483411293
 30
0.0000000000113687
 10
2319.232316509497
 20
964.2362097394052
 30
0.0000000000113687
 10
2334.010202020935
 20
964.7239217495007
 30
0.0000000000227374
 10
2341.380639653538
 20
964.723921749497
 30
0.0
 10
2356.158525164981
 20
964.2362097393961
 30
0.0000000000113687
 10
2363.565935690523
 20
963.7485483411328
 30
0.0
 10
2378.492298305467
 20
962.2577072197437
 30
0.0000000000113687
 10
2386.011241568802
 20
961.2546840340256
 30
0.0000000000113687
 10
2393.623920291405
 20
959.964605939227
 30
0.0000000000113687
  0
ELLIPSE
  5
D138
330
18
100
AcDbEntity
  8
1：主線
100
AcDbEllipse
 10
2337.695420837245
 20
508.6371127204183
 30
0.0000000000113687
 11
46.0250000000194
 21
-0.0000000000028407
 31
-0.0000000000000032
210
-0.0000000000000001
220
0.0
230
-1.0
 40
0.5773502691896724
 41
-2.356194490192856
 42
3.926990816986729
  0
ELLIPSE
  5
D139
330
18
100
AcDbEntity
  8
1：主線
100
AcDbEllipse
 10
2337.695420837245
 20
547.9254140547791
 30
0.0
 11
46.02500000002295
 21
-0.0000000000028503
 31
-0.0000000000000064
210
-0.0000000000000001
220
-0.0000000000000002
230
-1.0
 40
0.5773502691896723
 41
3.141592653589563
 42
6.283185307179357
  0
ELLIPSE
  5
D13A
330
18
100
AcDbEntity
  8
1：主線
100
AcDbEllipse
 10
2337.695420837239
 20
639.2765656679293
 30
0.0000000000113687
 11
89.02499999914487
 21
-0.0000000000055256
 31
-0.0000000000000185
210
-0.0000000000000002
220
-0.0000000000000001
230
-1.0
 40
0.5773502691896723
 41
2.545207692435545
 42
6.879570268332176
  0
ELLIPSE
  5
D13B
330
18
100
AcDbEntity
  8
1：主線
100
AcDbEllipse
 10
2337.695420837234
 20
640.9095588306763
 30
0.0000000000113687
 11
88.99999999999012
 21
-0.0000000000055148
 31
-0.0000000000000185
210
-0.0000000000000002
220
0.0
230
-1.0
 40
0.5773502691896724
 41
3.14159265358951
 42
6.283185307179304
  0
ELLIPSE
  5
D13C
330
18
100
AcDbEntity
  8
1：主線
100
AcDbEllipse
 10
2337.695420837234
 20
640.9095588306763
 30
0.0000000000113687
 11
89.99999999989187
 21
-0.0000000000055768
 31
-0.0000000000000187
210
-0.0000000000000002
220
0.0
230
-1.0
 40
0.5773502691896723
 41
2.77486689301347
 42
6.649911067754736
  0
ELLIPSE
  5
D13D
330
18
100
AcDbEntity
  8
2：副線
100
AcDbEllipse
 10
2337.695420837234
 20
786.6939068094125
 30
0.0000000000227374
 11
201.232721153386
 21
-0.0000000000124483
 31
-0.0000000000000279
210
-0.0000000000000001
220
-0.0000000000000001
230
-1.0
 40
0.5773502691896723
 41
2.90407302913616
 42
6.520704931632328
  0
ELLIPSE
  5
D13E
330
18
100
AcDbEntity
  8
2：副線
100
AcDbEllipse
 10
2337.695420837239
 20
790.5608305281694
 30
0.0000000000113687
 11
202.0000000000015
 21
-0.0000000000125098
 31
-0.0000000000000561
210
-0.0000000000000003
220
-0.0000000000000001
230
-1.0
 40
0.5773502691896725
 41
3.141592653589496
 42
6.28318530717929
  0
ELLIPSE
  5
D13F
330
18
100
AcDbEntity
  8
1：主線
100
AcDbEllipse
 10
2337.695420837234
 20
798.4933989497249
 30
0.0000000000113687
 11
202.0000000000004
 21
-0.0000000000125028
 31
-0.000000000000042
210
-0.0000000000000002
220
-0.0000000000000001
230
-1.0
 40
0.5773502691896725
 41
3.1415926535895
 42
6.283185307179294
  0
ELLIPSE
  5
D140
330
18
100
AcDbEntity
  8
1：主線
100
AcDbEllipse
 10
2337.695420837234
 20
798.4933989497249
 30
0.0000000000113687
 11
206.9999999999987
 21
-0.0000000000128266
 31
-0.0000000000000431
210
-0.0000000000000002
220
0.0
230
-1.0
 40
0.5773502691896724
 41
2.807800985717274
 42
6.616976975050632
  0
ELLIPSE
  5
D141
330
18
100
AcDbEntity
  8
1：主線
100
AcDbEllipse
 10
2337.695420837245
 20
849.9542896392449
 30
0.0
 11
198.5819884291118
 21
-0.0000000000122981
 31
-0.0000000000000276
210
-0.0000000000000001
220
-0.0000000000000001
230
-1.0
 40
0.5773502691896724
 41
-2.104063337613547
 42
-1.037529315977638
  0
ENDSEC
  0
SECTION
  2
OBJECTS
  0
DICTIONARY
  5
C
330
0
100
AcDbDictionary
281
     1
  3
ACAD_CIP_PREVIOUS_PRODUCT_INFO
350
57FF
  3
ACAD_COLOR
350
57DF
  3
ACAD_DETAILVIEWSTYLE
350
57F8
  3
ACAD_GROUP
350
D
  3
ACAD_LAYOUT
350
75E
  3
ACAD_MATERIAL
350
57AD
  3
ACAD_MLEADERSTYLE
350
57F4
  3
ACAD_MLINESTYLE
350
1B
  3
ACAD_PLOTSETTINGS
350
75F
  3
ACAD_PLOTSTYLENAME
350
75C
  3
ACAD_SCALELIST
350
57E2
  3
ACAD_SECTIONVIEWSTYLE
350
57F6
  3
ACAD_TABLESTYLE
350
57E0
  3
ACAD_VISUALSTYLE
350
57C6
  3
AcadDim
350
2413
  3
ACDB_RECOMPOSE_DATA
350
D14E
  3
ACDBVARIABLEDICTIONARY
350
33
  3
AEC_PROPERTY_SET_DEFS
350
BDB1
  3
CONTENTDICTIONARY
350
23
  0
DICTIONARY
  5
5826
330
8
100
AcDbDictionary
280
     1
281
     1
  0
DICTIONARY
  5
2886
330
2
100
AcDbDictionary
280
     1
281
     1
  3
ACAD_LAYERSTATES
360
46A0
  0
DICTIONARY
  5
5800
330
E
100
AcDbDictionary
280
     1
281
     1
  3
ADSK_XREC_LAYER_RECONCILED
360
5801
  0
DICTIONARY
  5
5802
330
32A
100
AcDbDictionary
280
     1
281
     1
  3
ADSK_XREC_LAYER_RECONCILED
360
5803
  0
DICTIONARY
  5
5804
330
32C
100
AcDbDictionary
280
     1
281
     1
  3
ADSK_XREC_LAYER_RECONCILED
360
5805
  0
DICTIONARY
  5
5806
330
32D
100
AcDbDictionary
280
     1
281
     1
  3
ADSK_XREC_LAYER_RECONCILED
360
5807
  0
DICTIONARY
  5
5808
330
32E
100
AcDbDictionary
280
     1
281
     1
  3
ADSK_XREC_LAYER_RECONCILED
360
5809
  0
DICTIONARY
  5
580A
330
32F
100
AcDbDictionary
280
     1
281
     1
  3
ADSK_XREC_LAYER_RECONCILED
360
580B
  0
DICTIONARY
  5
580C
330
330
100
AcDbDictionary
280
     1
281
     1
  3
ADSK_XREC_LAYER_RECONCILED
360
580D
  0
DICTIONARY
  5
580E
330
331
100
AcDbDictionary
280
     1
281
     1
  3
ADSK_XREC_LAYER_RECONCILED
360
580F
  0
DICTIONARY
  5
5810
330
11B8
100
AcDbDictionary
280
     1
281
     1
  3
ADSK_XREC_LAYER_RECONCILED
360
5811
  0
DICTIONARY
  5
5812
330
138B
100
AcDbDictionary
280
     1
281
     1
  3
ADSK_XREC_LAYER_RECONCILED
360
5813
  0
DICTIONARY
  5
4697
330
4696
100
AcDbDictionary
280
     1
281
     1
  3
ADSK_XREC_LAYER_RECONCILED
360
4699
  0
DICTIONARY
  5
796C
330
796B
100
AcDbDictionary
280
     1
281
     1
  0
DICTIONARY
  5
D0AF
330
D0AE
100
AcDbDictionary
280
     1
281
     1
  0
DICTIONARY
  5
D0DE
330
D0DD
100
AcDbDictionary
280
     1
281
     1
  0
DICTIONARY
  5
D109
330
D108
100
AcDbDictionary
280
     1
281
     1
  0
DICTIONARY
  5
5B07
330
18
100
AcDbDictionary
280
     1
281
     1
  3
ACAD_SORTENTS
360
5B08
  0
DICTIONARY
  5
CF61
330
CF59
100
AcDbDictionary
280
     1
281
     1
  3
ACAD_SORTENTS
360
CF62
  0
XRECORD
  5
57FF
102
{ACAD_REACTORS
330
C
102
}
330
C
100
AcDbXrecord
280
     1
300
ACDLT
300
2014
300
ACDLT_F_S
  0
DICTIONARY
  5
57DF
102
{ACAD_REACTORS
330
C
102
}
330
C
100
AcDbDictionary
281
     1
  0
DICTIONARY
  5
57F8
102
{ACAD_REACTORS
330
C
102
}
330
C
100
AcDbDictionary
281
     1
  3
Imperial24
350
A70A
  3
Metric50
350
57F9
  0
DICTIONARY
  5
D
102
{ACAD_REACTORS
330
C
102
}
330
C
100
AcDbDictionary
281
     1
  0
DICTIONARY
  5
75E
102
{ACAD_REACTORS
330
C
102
}
330
C
100
AcDbDictionary
281
     1
  3
Model
350
760
  3
ﾚｲｱｳﾄ1
350
761
  0
DICTIONARY
  5
57AD
102
{ACAD_REACTORS
330
C
102
}
330
C
100
AcDbDictionary
281
     1
  3
ByBlock
350
57B6
  3
ByLayer
350
57AE
  3
Global
350
57BE
  0
DICTIONARY
  5
57F4
102
{ACAD_REACTORS
330
C
102
}
330
C
100
AcDbDictionary
281
     1
  3
Standard
350
57F5
  0
DICTIONARY
  5
1B
102
{ACAD_REACTORS
330
C
102
}
330
C
100
AcDbDictionary
281
     1
  3
STANDARD
350
1C
  0
DICTIONARY
  5
75F
102
{ACAD_REACTORS
330
C
102
}
330
C
100
AcDbDictionary
281
     1
  3
オブA3
350
5884
  3
オブA3PDF
350
5885
  3
オブA3PDFカラー
350
5889
  3
オブA4
350
5887
  3
オブA4PDF
350
5886
  3
オブA4裏
350
5888
  0
ACDBDICTIONARYWDFLT
  5
75C
102
{ACAD_REACTORS
330
C
102
}
330
C
100
AcDbDictionary
281
     1
  3
Normal
350
75D
100
AcDbDictionaryWithDefault
340
75D
  0
DICTIONARY
  5
57E2
102
{ACAD_REACTORS
330
C
102
}
330
C
100
AcDbDictionary
281
     1
  3
A0
350
57E3
  3
A1
350
57E4
  3
A2
350
57E5
  3
A3
350
57E6
  3
A4
350
57E7
  3
A5
350
57E8
  3
A6
350
57E9
  3
A7
350
57EA
  3
A8
350
57EB
  3
A9
350
57EC
  3
B0
350
57ED
  3
B1
350
57EE
  3
B2
350
57EF
  3
B3
350
57F0
  3
B4
350
57F1
  3
B5
350
57F2
  3
B6
350
57F3
  0
DICTIONARY
  5
57F6
102
{ACAD_REACTORS
330
C
102
}
330
C
100
AcDbDictionary
281
     1
  3
Imperial24
350
A709
  3
Metric50
350
57F7
  0
DICTIONARY
  5
57E0
102
{ACAD_REACTORS
330
C
102
}
330
C
100
AcDbDictionary
281
     1
  3
Standard
350
57E1
  0
DICTIONARY
  5
57C6
102
{ACAD_REACTORS
330
C
102
}
330
C
100
AcDbDictionary
281
     1
  3
2dWireframe
350
57CC
  3
Basic
350
57CB
  3
Brighten
350
57D2
  3
ColorChange
350
57D6
  3
Conceptual
350
57CF
  3
Dim
350
57D1
  3
EdgeColorOff
350
57DE
  3
Facepattern
350
57D5
  3
Flat
350
57C7
  3
FlatWithEdges
350
57C8
  3
Gouraud
350
57C9
  3
GouraudWithEdges
350
57CA
  3
Hidden
350
57CE
  3
JitterOff
350
57DC
  3
Linepattern
350
57D4
  3
OverhangOff
350
57DD
  3
Realistic
350
57D0
  3
Shaded
350
57DB
  3
Shaded with edges
350
57DA
  3
Shades of Gray
350
57D7
  3
Sketchy
350
57D8
  3
Thicken
350
57D3
  3
Wireframe
350
57CD
  3
X-Ray
350
57D9
  0
XRECORD
  5
2413
102
{ACAD_REACTORS
330
C
102
}
330
C
100
AcDbXrecord
280
     1
 90
   990106
  3
OPEN
 60
     0
 61
     0
 62
     1
 63
     3
 64
     1
 65
     0
 66
     0
 67
     3
 68
     1
 69
     0
 70
     0
 71
     0
 72
     0
 40
0.0
170
     2
  0
XRECORD
  5
D14E
102
{ACAD_REACTORS
330
C
102
}
330
C
100
AcDbXrecord
280
     1
 90
        1
330
57E1
330
57F7
330
57F9
330
A709
330
A70A
330
D0E7
  0
DICTIONARY
  5
33
102
{ACAD_REACTORS
330
C
102
}
330
C
100
AcDbDictionary
281
     1
  3
CANNOSCALE
350
587B
  3
CMLEADERSTYLE
350
5878
  3
CTABLESTYLE
350
5877
  3
CVIEWDETAILSTYLE
350
5879
  3
CVIEWSECTIONSTYLE
350
587A
  3
DIMADEC
350
34
  3
DIMASSOC
350
23F7
  3
INDEXCTL
350
587C
  3
LAYEREVAL
350
D09C
  3
LAYERNOTIFY
350
D09D
  3
LIGHTINGUNITS
350
D09B
  3
MSLTSCALE
350
D09A
  3
SORTENTS
350
1383
  0
DICTIONARY
  5
BDB1
102
{ACAD_REACTORS
330
C
102
}
330
C
100
AcDbDictionary
281
     1
  0
DICTIONARY
  5
23
102
{ACAD_REACTORS
330
C
102
}
330
C
100
AcDbDictionary
281
     1
  0
DICTIONARY
  5
46A0
102
{ACAD_REACTORS
330
2886
102
}
330
2886
100
AcDbDictionary
281
     1
  0
XRECORD
  5
5801
102
{ACAD_REACTORS
330
5800
102
}
330
5800
100
AcDbXrecord
280
     1
290
     1
  0
XRECORD
  5
5803
102
{ACAD_REACTORS
330
5802
102
}
330
5802
100
AcDbXrecord
280
     1
290
     1
  0
XRECORD
  5
5805
102
{ACAD_REACTORS
330
5804
102
}
330
5804
100
AcDbXrecord
280
     1
290
     1
  0
XRECORD
  5
5807
102
{ACAD_REACTORS
330
5806
102
}
330
5806
100
AcDbXrecord
280
     1
290
     1
  0
XRECORD
  5
5809
102
{ACAD_REACTORS
330
5808
102
}
330
5808
100
AcDbXrecord
280
     1
290
     1
  0
XRECORD
  5
580B
102
{ACAD_REACTORS
330
580A
102
}
330
580A
100
AcDbXrecord
280
     1
290
     1
  0
XRECORD
  5
580D
102
{ACAD_REACTORS
330
580C
102
}
330
580C
100
AcDbXrecord
280
     1
290
     1
  0
XRECORD
  5
580F
102
{ACAD_REACTORS
330
580E
102
}
330
580E
100
AcDbXrecord
280
     1
290
     1
  0
XRECORD
  5
5811
102
{ACAD_REACTORS
330
5810
102
}
330
5810
100
AcDbXrecord
280
     1
290
     1
  0
XRECORD
  5
5813
102
{ACAD_REACTORS
330
5812
102
}
330
5812
100
AcDbXrecord
280
     1
290
     1
  0
XRECORD
  5
4699
102
{ACAD_REACTORS
330
4697
102
}
330
4697
100
AcDbXrecord
280
     1
290
     1
  0
SORTENTSTABLE
  5
5B08
102
{ACAD_REACTORS
330
5B07
102
}
330
5B07
100
AcDbSortentsTable
330
18
331
7A27
  5
7A27
  0
SORTENTSTABLE
  5
CF62
102
{ACAD_REACTORS
330
CF61
102
}
330
CF61
100
AcDbSortentsTable
330
CF59
  0
ACDBDETAILVIEWSTYLE
  5
A70A
102
{ACAD_XDICTIONARY
360
D0A5
102
}
102
{ACAD_REACTORS
330
57F8
102
}
330
57F8
100
AcDbModelDocViewStyle
 70
     0
  3
Imperial24
290
     0
100
AcDbDetailViewStyle
 70
     0
 71
     0
 90
        3
 71
     1
340
F
 62
   256
 40
0.24
340
0
 62
   256
 40
0.24
300

 40
0.36
280
     3
 71
     2
340
14
 90
       25
 62
   256
 71
     3
340
F
 62
   256
 40
0.24
 90
        1
 40
0.75
 90
        1
300
%<\AcVar ViewType \f "%tc1">% %<\AcVar ViewDetailId>%\PSCALE %<\AcVar ViewScale \f "%sn">%
 71
     4
340
14
 90
       25
 62
   256
340
14
 90
       25
 62
   256
280
     0
  0
ACDBDETAILVIEWSTYLE
  5
57F9
102
{ACAD_XDICTIONARY
360
D0A1
102
}
102
{ACAD_REACTORS
330
57F8
102
}
330
57F8
100
AcDbModelDocViewStyle
 70
     0
  3
Metric50
290
     0
100
AcDbDetailViewStyle
 70
     0
 71
     0
 90
        3
 71
     1
340
F
 62
   256
 40
5.0
340
0
 62
   256
 40
5.0
300

 40
0.0
280
     1
 71
     2
340
14
 90
       25
 62
   256
 71
     3
340
F
 62
   256
 40
5.0
 90
        0
 40
15.0
 90
        1
300
%<\AcVar ViewDetailId>% (%<\AcVar ViewScale \f "%sn">%)
 71
     4
340
14
 90
       25
 62
   256
340
14
 90
       25
 62
   256
280
     0
  0
LAYOUT
  5
760
102
{ACAD_REACTORS
330
75E
102
}
330
75E
100
AcDbPlotSettings
  1

  2
KONICA MINOLTA C364SeriesPCL
  4
A3
  6

 40
5.027082920074462
 41
5.027069091796875
 42
5.027099609375
 43
5.027069091796875
 44
296.9259948730469
 45
419.9466552734373
 46
0.8104534522212246
 47
0.844643083534379
 48
0.6602245427074767
 49
2.274885139995582
140
11080.66022454271
141
15602.27488513999
142
1.0
143
4.0
 70
  3748
 72
     1
 73
     1
 74
     1
  7
TAGAI1.CTB
 75
     0
147
0.2027157928435555
 76
     0
 77
     2
 78
   300
148
0.0342067849396699
149
0.0064483113992537
100
AcDbLayout
  1
Model
 70
     1
 71
     0
 10
0.0
 20
0.0
 11
12.0
 21
9.0
 12
0.0
 22
0.0
 32
0.0
 14
0.0
 24
0.0
 34
0.0
 15
0.0
 25
0.0
 35
0.0
146
0.0
 13
0.0
 23
0.0
 33
0.0
 16
1.0
 26
0.0
 36
0.0
 17
0.0
 27
1.0
 37
0.0
 76
     0
330
18
331
57AB
1001
ACAD_PSEXT
1000
KONICA MINOLTA C364SeriesPCL
1000
KONICA MINOLTA C364SeriesPCL
1000
IP_192.168.21.25
1000

1070
     0
  0
LAYOUT
  5
761
102
{ACAD_REACTORS
330
75E
102
}
330
75E
100
AcDbPlotSettings
  1

  2
Canon LASER SHOT LBP-850
  4

  6

 40
0.0
 41
0.0
 42
0.0
 43
0.0
 44
0.0
 45
0.0
 46
0.0
 47
0.0
 48
0.0
 49
0.0
140
0.0
141
0.0
142
1.0
143
1.0
 70
   688
 72
     0
 73
     0
 74
     5
  7
tagai1.ctb
 75
    16
147
1.0
 76
     0
 77
     2
 78
   300
148
0.0
149
0.0
100
AcDbLayout
  1
ﾚｲｱｳﾄ1
 70
     1
 71
     1
 10
0.0
 20
0.0
 11
420.0
 21
297.0
 12
0.0
 22
0.0
 32
0.0
 14
1.000000000000000E+20
 24
1.000000000000000E+20
 34
1.000000000000000E+20
 15
-1.000000000000000E+20
 25
-1.000000000000000E+20
 35
-1.000000000000000E+20
146
0.0
 13
0.0
 23
0.0
 33
0.0
 16
1.0
 26
0.0
 36
0.0
 17
0.0
 27
1.0
 37
0.0
 76
     0
330
15
  0
MATERIAL
  5
57B6
102
{ACAD_XDICTIONARY
360
57B7
102
}
102
{ACAD_REACTORS
330
57AD
102
}
330
57AD
100
AcDbMaterial
  1
ByBlock
 72
     0
 43
0.0208333333333333
 43
0.0
 43
0.0
 43
0.0
 43
0.0
 43
0.0208333333333333
 43
0.0
 43
0.0
 43
0.0
 43
0.0
 43
1.0
 43
0.0
 43
0.0
 43
0.0
 43
0.0
 43
1.0
 77
     0
 47
0.0208333333333333
 47
0.0
 47
0.0
 47
0.0
 47
0.0
 47
0.0208333333333333
 47
0.0
 47
0.0
 47
0.0
 47
0.0
 47
1.0
 47
0.0
 47
0.0
 47
0.0
 47
0.0
 47
1.0
171
     0
 49
0.0208333333333333
 49
0.0
 49
0.0
 49
0.0
 49
0.0
 49
0.0208333333333333
 49
0.0
 49
0.0
 49
0.0
 49
0.0
 49
1.0
 49
0.0
 49
0.0
 49
0.0
 49
0.0
 49
1.0
175
     0
142
0.0208333333333333
142
0.0
142
0.0
142
0.0
142
0.0
142
0.0208333333333333
142
0.0
142
0.0
142
0.0
142
0.0
142
1.0
142
0.0
142
0.0
142
0.0
142
0.0
142
1.0
179
     0
144
0.0208333333333333
144
0.0
144
0.0
144
0.0
144
0.0
144
0.0208333333333333
144
0.0
144
0.0
144
0.0
144
0.0
144
1.0
144
0.0
144
0.0
144
0.0
144
0.0
144
1.0
147
0.0208333333333333
147
0.0
147
0.0
147
0.0
147
0.0
147
0.0208333333333333
147
0.0
147
0.0
147
0.0
147
0.0
147
1.0
147
0.0
147
0.0
147
0.0
147
0.0
147
1.0
  0
MATERIAL
  5
57AE
102
{ACAD_XDICTIONARY
360
57AF
102
}
102
{ACAD_REACTORS
330
57AD
102
}
330
57AD
100
AcDbMaterial
  1
ByLayer
 72
     0
 43
0.0208333333333333
 43
0.0
 43
0.0
 43
0.0
 43
0.0
 43
0.0208333333333333
 43
0.0
 43
0.0
 43
0.0
 43
0.0
 43
1.0
 43
0.0
 43
0.0
 43
0.0
 43
0.0
 43
1.0
 77
     0
 47
0.0208333333333333
 47
0.0
 47
0.0
 47
0.0
 47
0.0
 47
0.0208333333333333
 47
0.0
 47
0.0
 47
0.0
 47
0.0
 47
1.0
 47
0.0
 47
0.0
 47
0.0
 47
0.0
 47
1.0
171
     0
 49
0.0208333333333333
 49
0.0
 49
0.0
 49
0.0
 49
0.0
 49
0.0208333333333333
 49
0.0
 49
0.0
 49
0.0
 49
0.0
 49
1.0
 49
0.0
 49
0.0
 49
0.0
 49
0.0
 49
1.0
175
     0
142
0.0208333333333333
142
0.0
142
0.0
142
0.0
142
0.0
142
0.0208333333333333
142
0.0
142
0.0
142
0.0
142
0.0
142
1.0
142
0.0
142
0.0
142
0.0
142
0.0
142
1.0
179
     0
144
0.0208333333333333
144
0.0
144
0.0
144
0.0
144
0.0
144
0.0208333333333333
144
0.0
144
0.0
144
0.0
144
0.0
144
1.0
144
0.0
144
0.0
144
0.0
144
0.0
144
1.0
147
0.0208333333333333
147
0.0
147
0.0
147
0.0
147
0.0
147
0.0208333333333333
147
0.0
147
0.0
147
0.0
147
0.0
147
1.0
147
0.0
147
0.0
147
0.0
147
0.0
147
1.0
  0
MATERIAL
  5
57BE
102
{ACAD_XDICTIONARY
360
57BF
102
}
102
{ACAD_REACTORS
330
57AD
102
}
330
57AD
100
AcDbMaterial
  1
Global
 72
     0
 43
0.0208333333333333
 43
0.0
 43
0.0
 43
0.0
 43
0.0
 43
0.0208333333333333
 43
0.0
 43
0.0
 43
0.0
 43
0.0
 43
1.0
 43
0.0
 43
0.0
 43
0.0
 43
0.0
 43
1.0
 77
     0
 47
0.0208333333333333
 47
0.0
 47
0.0
 47
0.0
 47
0.0
 47
0.0208333333333333
 47
0.0
 47
0.0
 47
0.0
 47
0.0
 47
1.0
 47
0.0
 47
0.0
 47
0.0
 47
0.0
 47
1.0
171
     0
 49
0.0208333333333333
 49
0.0
 49
0.0
 49
0.0
 49
0.0
 49
0.0208333333333333
 49
0.0
 49
0.0
 49
0.0
 49
0.0
 49
1.0
 49
0.0
 49
0.0
 49
0.0
 49
0.0
 49
1.0
175
     0
142
0.0208333333333333
142
0.0
142
0.0
142
0.0
142
0.0
142
0.0208333333333333
142
0.0
142
0.0
142
0.0
142
0.0
142
1.0
142
0.0
142
0.0
142
0.0
142
0.0
142
1.0
179
     0
144
0.0208333333333333
144
0.0
144
0.0
144
0.0
144
0.0
144
0.0208333333333333
144
0.0
144
0.0
144
0.0
144
0.0
144
1.0
144
0.0
144
0.0
144
0.0
144
0.0
144
1.0
147
0.0208333333333333
147
0.0
147
0.0
147
0.0
147
0.0
147
0.0208333333333333
147
0.0
147
0.0
147
0.0
147
0.0
147
1.0
147
0.0
147
0.0
147
0.0
147
0.0
147
1.0
  0
MLEADERSTYLE
  5
57F5
102
{ACAD_REACTORS
330
57F4
102
}
330
57F4
100
AcDbMLeaderStyle
179
     2
170
     2
171
     1
172
     0
 90
        2
 40
0.0
 41
0.0
173
     1
 91
-1056964608
340
12
 92
       -2
290
     1
 42
2.0
291
     1
 43
0.36
  3
Standard
 44
4.0
300

342
F
174
     1
178
     6
175
     1
176
     0
 93
-1056964608
 45
4.0
292
     0
297
     0
 46
4.0
 94
-1056964608
 47
1.0
 49
1.0
140
1.0
293
     1
141
0.0
294
     1
177
     0
142
1.0
295
     0
296
     0
143
0.125
271
     0
272
     9
273
     9
298
     1
  0
MLINESTYLE
  5
1C
102
{ACAD_REACTORS
330
1B
102
}
330
1B
100
AcDbMlineStyle
  2
STANDARD
 70
     0
  3

 62
   256
 51
90.0
 52
90.0
 71
     2
 49
0.5
 62
   256
  6
BYLAYER
 49
-0.5
 62
   256
  6
BYLAYER
  0
PLOTSETTINGS
  5
5884
102
{ACAD_REACTORS
330
75F
102
}
330
75F
100
AcDbPlotSettings
  1
オブA3
  2
EPSON LP-S3000
  4
A3
  6

 40
5.873749732971191
 41
5.873747825622557
 42
5.873748779296875
 43
5.873748779296875
 44
297.0106506347656
 45
419.9466552734373
 46
0.0
 47
0.0
 48
0.6602245427074767
 49
2.274885139995582
140
11080.66022454271
141
15602.27488513999
142
1.0
143
1.000009796045915
 70
  1716
 72
     1
 73
     1
 74
     1
  7
TAGAI1.CTB
 75
     0
147
0.9999902040500462
 76
     0
 77
     2
 78
   300
148
0.0062252642686644
149
0.0087050081928055
  0
PLOTSETTINGS
  5
5885
102
{ACAD_REACTORS
330
75F
102
}
330
75F
100
AcDbPlotSettings
  1
オブA3PDF
  2
Adobe PDF
  4
A3
  6

 40
3.174999952316283
 41
3.174999952316283
 42
3.17498779296875
 43
3.17498779296875
 44
297.0318298339844
 45
420.1583251953125
 46
0.7618695942057912
 47
0.0
 48
0.6602245427074767
 49
2.274885139995582
140
11080.66022454271
141
15602.27488513999
142
1.0
143
0.9864847522617806
 70
  3764
 72
     1
 73
     1
 74
     1
  7
TAGAI1.CTB
 75
     0
147
1.013700412203262
 76
     0
 77
     2
 78
   300
148
0.0186822558410995
149
-0.0043545630755943
1001
ACAD_PSEXT
1000
Adobe PDF
1000
Adobe PDF Converter
1000
My Documents
1000

1070
     0
  0
PLOTSETTINGS
  5
5889
102
{ACAD_REACTORS
330
75F
102
}
330
75F
100
AcDbPlotSettings
  1
オブA3PDFカラー
  2
Adobe PDF
  4
A3
  6

 40
3.174999952316283
 41
3.174999952316283
 42
3.17498779296875
 43
3.17498779296875
 44
297.0318298339844
 45
420.1583251953125
 46
0.7618695942057912
 47
0.0
 48
0.6602245427074767
 49
2.274885139995582
140
11080.66022454271
141
15602.27488513999
142
1.0
143
0.9864847522617806
 70
  3732
 72
     1
 73
     1
 74
     1
  7
TAGAI1.CTB
 75
     0
147
1.013700412203262
 76
     0
 77
     2
 78
   300
148
0.0186822558410995
149
-0.0043545630755943
1001
ACAD_PSEXT
1000
Adobe PDF
1000
Adobe PDF Converter
1000
My Documents
1000

1070
     0
  0
PLOTSETTINGS
  5
5887
102
{ACAD_REACTORS
330
75F
102
}
330
75F
100
AcDbPlotSettings
  1
オブA4
  2
EPSON LP-S3000
  4
A4
  6

 40
5.873749732971191
 41
5.873747825622557
 42
5.873748779296875
 43
5.873748779296875
 44
209.9733276367186
 45
297.0106506347656
 46
0.0
 47
0.8
 48
0.6602245427074767
 49
2.274885139995582
140
11080.66022454271
141
15602.27488513999
142
1.0
143
1.439081479612396
 70
  1716
 72
     1
 73
     1
 74
     1
  7
TAGAI1.CTB
 75
     0
147
0.6948876864632718
 76
     0
 77
     2
 78
   300
148
0.0062252642686644
149
0.0087050081928055
  0
PLOTSETTINGS
  5
5886
102
{ACAD_REACTORS
330
75F
102
}
330
75F
100
AcDbPlotSettings
  1
オブA4PDF
  2
Adobe PDF
  4
A4
  6

 40
3.174999952316283
 41
3.174999952316283
 42
3.175003051757812
 43
3.17498779296875
 44
209.9733276367186
 45
297.0318298339844
 46
0.2513475533557994
 47
0.0
 48
0.6602245427074767
 49
2.274885139995582
140
11080.66022454271
141
15602.27488513999
142
1.0
143
1.404338201244389
 70
  3764
 72
     1
 73
     1
 74
     1
  7
TAGAI1.CTB
 75
     0
147
0.7120791837136498
 76
     0
 77
     2
 78
   300
148
0.0186822558410995
149
-0.0043545630755943
1001
ACAD_PSEXT
1000
Adobe PDF
1000
Adobe PDF Converter
1000
My Documents
1000

1070
     0
  0
PLOTSETTINGS
  5
5888
102
{ACAD_REACTORS
330
75F
102
}
330
75F
100
AcDbPlotSettings
  1
オブA4裏
  2
EPSON LP-S3000.pc3
  4
A4
  6

 40
5.873749732971191
 41
5.873747825622557
 42
5.873748779296875
 43
5.873748779296875
 44
209.9733276367186
 45
297.0106506347656
 46
0.0
 47
0.8
 48
0.6602245427074767
 49
2.274885139995582
140
11080.66022454271
141
15602.27488513999
142
1.0
143
1.439081479612396
 70
  1716
 72
     1
 73
     1
 74
     1
  7
TAGAI1.CTB
 75
     0
147
0.6948876864632718
 76
     0
 77
     2
 78
   300
148
0.0062252642686644
149
0.0087050081928055
  0
ACDBPLACEHOLDER
  5
75D
102
{ACAD_REACTORS
330
75C
102
}
330
75C
  0
SCALE
  5
57E3
102
{ACAD_REACTORS
330
57E2
102
}
330
57E2
100
AcDbScale
 70
     0
300
1:1
140
1.0
141
1.0
290
     1
  0
SCALE
  5
57E4
102
{ACAD_REACTORS
330
57E2
102
}
330
57E2
100
AcDbScale
 70
     0
300
1:2
140
1.0
141
2.0
290
     0
  0
SCALE
  5
57E5
102
{ACAD_REACTORS
330
57E2
102
}
330
57E2
100
AcDbScale
 70
     0
300
1:4
140
1.0
141
4.0
290
     0
  0
SCALE
  5
57E6
102
{ACAD_REACTORS
330
57E2
102
}
330
57E2
100
AcDbScale
 70
     0
300
1:5
140
1.0
141
5.0
290
     0
  0
SCALE
  5
57E7
102
{ACAD_REACTORS
330
57E2
102
}
330
57E2
100
AcDbScale
 70
     0
300
1:8
140
1.0
141
8.0
290
     0
  0
SCALE
  5
57E8
102
{ACAD_REACTORS
330
57E2
102
}
330
57E2
100
AcDbScale
 70
     0
300
1:10
140
1.0
141
10.0
290
     0
  0
SCALE
  5
57E9
102
{ACAD_REACTORS
330
57E2
102
}
330
57E2
100
AcDbScale
 70
     0
300
1:16
140
1.0
141
16.0
290
     0
  0
SCALE
  5
57EA
102
{ACAD_REACTORS
330
57E2
102
}
330
57E2
100
AcDbScale
 70
     0
300
1:20
140
1.0
141
20.0
290
     0
  0
SCALE
  5
57EB
102
{ACAD_REACTORS
330
57E2
102
}
330
57E2
100
AcDbScale
 70
     0
300
1:30
140
1.0
141
30.0
290
     0
  0
SCALE
  5
57EC
102
{ACAD_REACTORS
330
57E2
102
}
330
57E2
100
AcDbScale
 70
     0
300
1:40
140
1.0
141
40.0
290
     0
  0
SCALE
  5
57ED
102
{ACAD_REACTORS
330
57E2
102
}
330
57E2
100
AcDbScale
 70
     0
300
1:50
140
1.0
141
50.0
290
     0
  0
SCALE
  5
57EE
102
{ACAD_REACTORS
330
57E2
102
}
330
57E2
100
AcDbScale
 70
     0
300
1:100
140
1.0
141
100.0
290
     0
  0
SCALE
  5
57EF
102
{ACAD_REACTORS
330
57E2
102
}
330
57E2
100
AcDbScale
 70
     0
300
2:1
140
2.0
141
1.0
290
     0
  0
SCALE
  5
57F0
102
{ACAD_REACTORS
330
57E2
102
}
330
57E2
100
AcDbScale
 70
     0
300
4:1
140
4.0
141
1.0
290
     0
  0
SCALE
  5
57F1
102
{ACAD_REACTORS
330
57E2
102
}
330
57E2
100
AcDbScale
 70
     0
300
8:1
140
8.0
141
1.0
290
     0
  0
SCALE
  5
57F2
102
{ACAD_REACTORS
330
57E2
102
}
330
57E2
100
AcDbScale
 70
     0
300
10:1
140
10.0
141
1.0
290
     0
  0
SCALE
  5
57F3
102
{ACAD_REACTORS
330
57E2
102
}
330
57E2
100
AcDbScale
 70
     0
300
100:1
140
100.0
141
1.0
290
     0
  0
ACDBSECTIONVIEWSTYLE
  5
A709
102
{ACAD_XDICTIONARY
360
D0A3
102
}
102
{ACAD_REACTORS
330
57F6
102
}
330
57F6
100
AcDbModelDocViewStyle
 70
     0
  3
Imperial24
290
     0
100
AcDbSectionViewStyle
 70
     0
 71
     0
 90
       78
 71
     1
340
F
 62
   256
 40
0.24
340
0
340
0
 62
   256
 40
0.24
300
I, O, Q, S, X, Z
 40
0.48
 90
        3
 40
0.18
 90
        1
 71
     2
340
14
 90
       25
 62
   256
340
14
 90
       50
 62
   256
 40
0.24
 40
0.0
 40
0.24
 71
     3
340
F
 62
   256
 40
0.24
 90
        1
 40
0.75
 90
        1
300
%<\AcVar ViewType \f "%tc1">% %<\AcVar ViewSectionStartId>%-%<\AcVar ViewSectionEndId>%\PSCALE %<\AcVar ViewScale \f "%sn">%
 71
     4
 62
   256
 62
   257
300
ANSI31
 40
1.0
 90
        0
290
     0
290
     0
 90
        6
 40
0.0
 40
1.570796326794896
 40
0.2617993877991494
 40
1.308996938995747
 40
-0.2617993877991494
 40
1.832595714594045
  0
ACDBSECTIONVIEWSTYLE
  5
57F7
102
{ACAD_XDICTIONARY
360
D09F
102
}
102
{ACAD_REACTORS
330
57F6
102
}
330
57F6
100
AcDbModelDocViewStyle
 70
     0
  3
Metric50
290
     0
100
AcDbSectionViewStyle
 70
     0
 71
     0
 90
      102
 71
     1
340
F
 62
   256
 40
5.0
340
0
340
0
 62
   256
 40
5.0
300
I, O, Q, S, X, Z
 40
10.0
 90
        0
 40
2.5
 90
        0
 71
     2
340
14
 90
       25
 62
   256
340
14
 90
       50
 62
   256
 40
5.0
 40
2.5
 40
5.0
 71
     3
340
F
 62
   256
 40
5.0
 90
        0
 40
15.0
 90
        1
300
%<\AcVar ViewSectionStartId>%-%<\AcVar ViewSectionEndId>% (%<\AcVar ViewScale \f "%sn">%)
 71
     4
 62
   256
 62
   257
300
ANSI31
 40
1.0
 90
        0
290
     0
290
     0
 90
        6
 40
0.0
 40
1.570796326794896
 40
0.2617993877991494
 40
1.308996938995747
 40
-0.2617993877991494
 40
1.832595714594045
  0
TABLESTYLE
  5
57E1
102
{ACAD_XDICTIONARY
360
5822
102
}
102
{ACAD_REACTORS
330
57E0
102
}
330
57E0
100
AcDbTableStyle
280
     0
  3
Standard
 70
     0
 71
     0
 40
1.5
 41
1.5
280
     0
281
     0
  7
STANDARD
140
4.5
170
     2
 62
     0
 63
     7
283
     0
 90
      512
 91
        0
  1

274
    -2
284
     1
 64
     0
275
    -2
285
     1
 65
     0
276
    -2
286
     1
 66
     0
277
    -2
287
     1
 67
     0
278
    -2
288
     1
 68
     0
279
    -2
289
     1
 69
     0
  7
STANDARD
140
6.0
170
     5
 62
     0
 63
     7
283
     0
 90
      512
 91
        0
  1

274
    -2
284
     1
 64
     0
275
    -2
285
     1
 65
     0
276
    -2
286
     1
 66
     0
277
    -2
287
     1
 67
     0
278
    -2
288
     1
 68
     0
279
    -2
289
     1
 69
     0
  7
STANDARD
140
4.5
170
     5
 62
     0
 63
     7
283
     0
 90
      512
 91
        0
  1

274
    -2
284
     1
 64
     0
275
    -2
285
     1
 65
     0
276
    -2
286
     1
 66
     0
277
    -2
287
     1
 67
     0
278
    -2
288
     1
 68
     0
279
    -2
289
     1
 69
     0
  0
VISUALSTYLE
  5
57CC
102
{ACAD_REACTORS
330
57C6
102
}
330
57C6
100
AcDbVisualStyle
  2
2dWireframe
 70
     4
177
     3
291
     0
 70
    58
 90
        0
176
     1
 90
        2
176
     1
 90
        0
176
     1
 90
        0
176
     1
 40
0.6
176
     1
 40
30.0
176
     1
 62
     7
176
     1
 90
        1
176
     1
 90
        4
176
     1
 62
     7
176
     1
 62
   257
176
     1
 90
        1
176
     1
 90
        1
176
     1
 40
1.0
176
     1
 90
        0
176
     1
 62
   257
176
     1
 40
1.0
176
     1
 90
        1
176
     1
 90
        6
176
     1
 90
        2
176
     1
 62
     7
176
     1
 90
        5
176
     1
 90
        0
176
     1
 90
        0
176
     1
290
     0
176
     1
 90
        1
176
     1
 40
0.0
176
     1
 90
        0
176
     1
290
     1
176
     1
290
     1
176
     1
290
     0
176
     1
290
     0
176
     1
290
     0
176
     1
290
     0
176
     1
290
     0
176
     1
290
     0
176
     1
290
     0
176
     1
 90
       50
176
     1
 40
0.0
176
     1
 40
1.0
176
     1
 90
        0
176
     1
 62
    18
176
     1
 90
       50
176
     1
 90
        3
176
     1
 62
     5
420
      255
176
     1
290
     0
176
     1
 90
       50
176
     1
 90
       50
176
     1
 90
       50
176
     1
290
     0
176
     1
 90
       50
176
     1
 62
   256
176
     0
 40
1.0
176
     0
 90
        2
176
     1
  1
strokes_ogs.tif
176
     1
290
     0
176
     1
 40
1.0
176
     1
 40
1.0
176
     1
  0
VISUALSTYLE
  5
57CB
102
{ACAD_REACTORS
330
57C6
102
}
330
57C6
100
AcDbVisualStyle
  2
Basic
 70
     7
177
     3
291
     1
 70
    58
 90
        1
176
     1
 90
        0
176
     1
 90
        1
176
     1
 90
        0
176
     1
 40
0.6
176
     1
 40
30.0
176
     1
 62
     7
176
     1
 90
        0
176
     1
 90
        4
176
     1
 62
     7
176
     1
 62
   257
176
     1
 90
        1
176
     1
 90
        1
176
     1
 40
1.0
176
     1
 90
        8
176
     1
 62
     7
176
     1
 40
1.0
176
     1
 90
        1
176
     1
 90
        6
176
     1
 90
        2
176
     1
 62
     7
176
     1
 90
        5
176
     1
 90
        0
176
     1
 90
        0
176
     1
290
     0
176
     1
 90
        1
176
     1
 40
0.0
176
     1
 90
        0
176
     1
290
     0
176
     1
290
     1
176
     1
290
     1
176
     1
290
     0
176
     1
290
     0
176
     1
290
     0
176
     1
290
     0
176
     1
290
     0
176
     1
290
     0
176
     1
 90
       50
176
     1
 40
0.0
176
     1
 40
1.0
176
     1
 90
        0
176
     1
 62
    18
176
     1
 90
       50
176
     1
 90
        3
176
     1
 62
     5
420
      255
176
     1
290
     0
176
     1
 90
       50
176
     1
 90
       50
176
     1
 90
       50
176
     1
290
     0
176
     1
 90
       50
176
     1
 62
   256
176
     0
 40
1.0
176
     0
 90
        2
176
     1
  1
strokes_ogs.tif
176
     1
290
     0
176
     1
 40
1.0
176
     1
 40
1.0
176
     1
  0
VISUALSTYLE
  5
57D2
102
{ACAD_REACTORS
330
57C6
102
}
330
57C6
100
AcDbVisualStyle
  2
Brighten
 70
    12
177
     3
291
     1
 70
    58
 90
        2
176
     1
 90
        2
176
     1
 90
        0
176
     1
 90
        0
176
     1
 40
0.6
176
     1
 40
30.0
176
     1
 62
     7
176
     1
 90
        1
176
     1
 90
        4
176
     1
 62
     7
176
     1
 62
   257
176
     1
 90
        1
176
     1
 90
        1
176
     1
 40
1.0
176
     1
 90
        8
176
     1
 62
     7
176
     1
 40
1.0
176
     1
 90
        1
176
     1
 90
        6
176
     1
 90
        2
176
     1
 62
     7
176
     1
 90
        5
176
     1
 90
        0
176
     1
 90
        0
176
     1
290
     0
176
     1
 90
        1
176
     1
 40
50.0
176
     1
 90
        0
176
     1
290
     0
176
     1
290
     1
176
     1
290
     1
176
     1
290
     0
176
     1
290
     0
176
     1
290
     0
176
     1
290
     0
176
     1
290
     0
176
     1
290
     0
176
     1
 90
       50
176
     1
 40
0.0
176
     1
 40
1.0
176
     1
 90
        0
176
     1
 62
    18
176
     1
 90
       50
176
     1
 90
        3
176
     1
 62
     5
420
      255
176
     1
290
     0
176
     1
 90
       50
176
     1
 90
       50
176
     1
 90
       50
176
     1
290
     0
176
     1
 90
       50
176
     1
 62
   256
176
     0
 40
1.0
176
     0
 90
        2
176
     1
  1
strokes_ogs.tif
176
     1
290
     0
176
     1
 40
1.0
176
     1
 40
1.0
176
     1
  0
VISUALSTYLE
  5
57D6
102
{ACAD_REACTORS
330
57C6
102
}
330
57C6
100
AcDbVisualStyle
  2
ColorChange
 70
    16
177
     3
291
     1
 70
    58
 90
        2
176
     1
 90
        2
176
     1
 90
        3
176
     1
 90
        0
176
     1
 40
0.6
176
     1
 40
30.0
176
     1
 62
     8
176
     1
 90
        1
176
     1
 90
        4
176
     1
 62
     7
176
     1
 62
   257
176
     1
 90
        1
176
     1
 90
        1
176
     1
 40
1.0
176
     1
 90
        8
176
     1
 62
     8
176
     1
 40
1.0
176
     1
 90
        1
176
     1
 90
        6
176
     1
 90
        2
176
     1
 62
     7
176
     1
 90
        5
176
     1
 90
        0
176
     1
 90
        0
176
     1
290
     0
176
     1
 90
        1
176
     1
 40
0.0
176
     1
 90
        0
176
     1
290
     0
176
     1
290
     1
176
     1
290
     1
176
     1
290
     0
176
     1
290
     0
176
     1
290
     0
176
     1
290
     0
176
     1
290
     0
176
     1
290
     0
176
     1
 90
       50
176
     1
 40
0.0
176
     1
 40
1.0
176
     1
 90
        0
176
     1
 62
    18
176
     1
 90
       50
176
     1
 90
        3
176
     1
 62
     5
420
      255
176
     1
290
     0
176
     1
 90
       50
176
     1
 90
       50
176
     1
 90
       50
176
     1
290
     0
176
     1
 90
       50
176
     1
 62
   256
176
     0
 40
1.0
176
     0
 90
        2
176
     1
  1
strokes_ogs.tif
176
     1
290
     0
176
     1
 40
1.0
176
     1
 40
1.0
176
     1
  0
VISUALSTYLE
  5
57CF
102
{ACAD_REACTORS
330
57C6
102
}
330
57C6
100
AcDbVisualStyle
  2
Conceptual
 70
     9
177
     3
291
     0
 70
    58
 90
        3
176
     1
 90
        2
176
     1
 90
        0
176
     1
 90
        0
176
     1
 40
0.6
176
     1
 40
30.0
176
     1
 62
     7
176
     1
 90
        2
176
     1
 90
        2
176
     1
 62
     7
176
     1
 62
   257
176
     1
 90
        1
176
     1
 90
        1
176
     1
 40
179.0
176
     1
 90
        8
176
     1
 62
     7
176
     1
 40
1.0
176
     1
 90
        1
176
     1
 90
        6
176
     1
 90
        2
176
     1
 62
     7
176
     1
 90
        3
176
     1
 90
        0
176
     1
 90
        0
176
     1
290
     0
176
     1
 90
        1
176
     1
 40
0.0
176
     1
 90
        0
176
     1
290
     0
176
     1
290
     1
176
     1
290
     1
176
     1
290
     0
176
     1
290
     0
176
     1
290
     0
176
     1
290
     0
176
     1
290
     0
176
     1
290
     0
176
     1
 90
       50
176
     1
 40
0.0
176
     1
 40
1.0
176
     1
 90
        0
176
     1
 62
    18
176
     1
 90
       50
176
     1
 90
        3
176
     1
 62
     5
420
      255
176
     1
290
     0
176
     1
 90
       50
176
     1
 90
       50
176
     1
 90
       50
176
     1
290
     0
176
     1
 90
       50
176
     1
 62
   256
176
     0
 40
1.0
176
     0
 90
        2
176
     1
  1
strokes_ogs.tif
176
     1
290
     0
176
     1
 40
1.0
176
     1
 40
1.0
176
     1
  0
VISUALSTYLE
  5
57D1
102
{ACAD_REACTORS
330
57C6
102
}
330
57C6
100
AcDbVisualStyle
  2
Dim
 70
    11
177
     3
291
     1
 70
    58
 90
        2
176
     1
 90
        2
176
     1
 90
        0
176
     1
 90
        0
176
     1
 40
0.6
176
     1
 40
30.0
176
     1
 62
     7
176
     1
 90
        1
176
     1
 90
        4
176
     1
 62
     7
176
     1
 62
   257
176
     1
 90
        1
176
     1
 90
        1
176
     1
 40
1.0
176
     1
 90
        8
176
     1
 62
     7
176
     1
 40
1.0
176
     1
 90
        1
176
     1
 90
        6
176
     1
 90
        2
176
     1
 62
     7
176
     1
 90
        5
176
     1
 90
        0
176
     1
 90
        0
176
     1
290
     0
176
     1
 90
        1
176
     1
 40
-50.0
176
     1
 90
        0
176
     1
290
     0
176
     1
290
     1
176
     1
290
     1
176
     1
290
     0
176
     1
290
     0
176
     1
290
     0
176
     1
290
     0
176
     1
290
     0
176
     1
290
     0
176
     1
 90
       50
176
     1
 40
0.0
176
     1
 40
1.0
176
     1
 90
        0
176
     1
 62
    18
176
     1
 90
       50
176
     1
 90
        3
176
     1
 62
     5
420
      255
176
     1
290
     0
176
     1
 90
       50
176
     1
 90
       50
176
     1
 90
       50
176
     1
290
     0
176
     1
 90
       50
176
     1
 62
   256
176
     0
 40
1.0
176
     0
 90
        2
176
     1
  1
strokes_ogs.tif
176
     1
290
     0
176
     1
 40
1.0
176
     1
 40
1.0
176
     1
  0
VISUALSTYLE
  5
57DE
102
{ACAD_REACTORS
330
57C6
102
}
330
57C6
100
AcDbVisualStyle
  2
EdgeColorOff
 70
    22
177
     3
291
     1
 70
    58
 90
        2
176
     0
 90
        2
176
     0
 90
        0
176
     0
 90
        0
176
     0
 40
0.6
176
     0
 40
30.0
176
     0
 62
     7
176
     0
 90
        1
176
     0
 90
        4
176
     0
 62
     7
176
     0
 62
   257
176
     0
 90
        1
176
     0
 90
        1
176
     0
 40
1.0
176
     0
 90
        8
176
     2
 62
     7
176
     0
 40
1.0
176
     0
 90
        1
176
     0
 90
        6
176
     0
 90
        2
176
     0
 62
     7
176
     0
 90
        5
176
     0
 90
        0
176
     0
 90
        0
176
     0
290
     0
176
     0
 90
        1
176
     0
 40
0.0
176
     0
 90
        0
176
     0
290
     0
176
     0
290
     1
176
     0
290
     1
176
     0
290
     0
176
     0
290
     0
176
     0
290
     0
176
     0
290
     0
176
     0
290
     0
176
     0
290
     0
176
     0
 90
       50
176
     0
 40
0.0
176
     0
 40
1.0
176
     0
 90
        0
176
     0
 62
    18
176
     0
 90
       50
176
     0
 90
        3
176
     0
 62
     5
420
      255
176
     0
290
     0
176
     0
 90
       50
176
     0
 90
       50
176
     0
 90
       50
176
     0
290
     0
176
     0
 90
       50
176
     0
 62
   256
176
     0
 40
1.0
176
     0
 90
        2
176
     0
  1
strokes_ogs.tif
176
     0
290
     0
176
     0
 40
1.0
176
     0
 40
1.0
176
     0
  0
VISUALSTYLE
  5
57D5
102
{ACAD_REACTORS
330
57C6
102
}
330
57C6
100
AcDbVisualStyle
  2
Facepattern
 70
    15
177
     3
291
     1
 70
    58
 90
        2
176
     1
 90
        2
176
     1
 90
        0
176
     1
 90
        0
176
     1
 40
0.6
176
     1
 40
30.0
176
     1
 62
     7
176
     1
 90
        1
176
     1
 90
        4
176
     1
 62
     7
176
     1
 62
   257
176
     1
 90
        1
176
     1
 90
        1
176
     1
 40
1.0
176
     1
 90
        8
176
     1
 62
     7
176
     1
 40
1.0
176
     1
 90
        1
176
     1
 90
        6
176
     1
 90
        2
176
     1
 62
     7
176
     1
 90
        5
176
     1
 90
        0
176
     1
 90
        0
176
     1
290
     0
176
     1
 90
        1
176
     1
 40
0.0
176
     1
 90
        0
176
     1
290
     0
176
     1
290
     1
176
     1
290
     1
176
     1
290
     0
176
     1
290
     0
176
     1
290
     0
176
     1
290
     0
176
     1
290
     0
176
     1
290
     0
176
     1
 90
       50
176
     1
 40
0.0
176
     1
 40
1.0
176
     1
 90
        0
176
     1
 62
    18
176
     1
 90
       50
176
     1
 90
        3
176
     1
 62
     5
420
      255
176
     1
290
     0
176
     1
 90
       50
176
     1
 90
       50
176
     1
 90
       50
176
     1
290
     0
176
     1
 90
       50
176
     1
 62
   256
176
     0
 40
1.0
176
     0
 90
        2
176
     1
  1
strokes_ogs.tif
176
     1
290
     0
176
     1
 40
1.0
176
     1
 40
1.0
176
     1
  0
VISUALSTYLE
  5
57C7
102
{ACAD_REACTORS
330
57C6
102
}
330
57C6
100
AcDbVisualStyle
  2
Flat
 70
     0
177
     3
291
     1
 70
    58
 90
        2
176
     1
 90
        1
176
     1
 90
        1
176
     1
 90
        2
176
     1
 40
0.6
176
     1
 40
30.0
176
     1
 62
     7
176
     1
 90
        0
176
     1
 90
        0
176
     1
 62
     7
176
     1
 62
   257
176
     1
 90
        1
176
     1
 90
        1
176
     1
 40
1.0
176
     1
 90
        8
176
     1
 62
     7
176
     1
 40
1.0
176
     1
 90
        1
176
     1
 90
        6
176
     1
 90
        2
176
     1
 62
     7
176
     1
 90
        5
176
     1
 90
        0
176
     1
 90
        0
176
     1
290
     0
176
     1
 90
       13
176
     1
 40
0.0
176
     1
 90
        0
176
     1
290
     0
176
     1
290
     1
176
     1
290
     1
176
     1
290
     0
176
     1
290
     0
176
     1
290
     0
176
     1
290
     0
176
     1
290
     0
176
     1
290
     0
176
     1
 90
       50
176
     1
 40
0.0
176
     1
 40
1.0
176
     1
 90
        0
176
     1
 62
    18
176
     1
 90
       50
176
     1
 90
        3
176
     1
 62
     5
420
      255
176
     1
290
     0
176
     1
 90
       50
176
     1
 90
       50
176
     1
 90
       50
176
     1
290
     0
176
     1
 90
       50
176
     1
 62
   256
176
     0
 40
1.0
176
     0
 90
        2
176
     1
  1
strokes_ogs.tif
176
     1
290
     0
176
     1
 40
1.0
176
     1
 40
1.0
176
     1
  0
VISUALSTYLE
  5
57C8
102
{ACAD_REACTORS
330
57C6
102
}
330
57C6
100
AcDbVisualStyle
  2
FlatWithEdges
 70
     1
177
     3
291
     1
 70
    58
 90
        2
176
     1
 90
        1
176
     1
 90
        1
176
     1
 90
        2
176
     1
 40
0.6
176
     1
 40
30.0
176
     1
 62
     7
176
     1
 90
        1
176
     1
 90
        0
176
     1
 62
     7
176
     1
 62
   257
176
     1
 90
        1
176
     1
 90
        1
176
     1
 40
1.0
176
     1
 90
        0
176
     1
 62
   257
176
     1
 40
1.0
176
     1
 90
        1
176
     1
 90
        6
176
     1
 90
        2
176
     1
 62
     7
176
     1
 90
        5
176
     1
 90
        0
176
     1
 90
        0
176
     1
290
     0
176
     1
 90
       13
176
     1
 40
0.0
176
     1
 90
        0
176
     1
290
     0
176
     1
290
     1
176
     1
290
     1
176
     1
290
     0
176
     1
290
     0
176
     1
290
     0
176
     1
290
     0
176
     1
290
     0
176
     1
290
     0
176
     1
 90
       50
176
     1
 40
0.0
176
     1
 40
1.0
176
     1
 90
        0
176
     1
 62
    18
176
     1
 90
       50
176
     1
 90
        3
176
     1
 62
     5
420
      255
176
     1
290
     0
176
     1
 90
       50
176
     1
 90
       50
176
     1
 90
       50
176
     1
290
     0
176
     1
 90
       50
176
     1
 62
   256
176
     0
 40
1.0
176
     0
 90
        2
176
     1
  1
strokes_ogs.tif
176
     1
290
     0
176
     1
 40
1.0
176
     1
 40
1.0
176
     1
  0
VISUALSTYLE
  5
57C9
102
{ACAD_REACTORS
330
57C6
102
}
330
57C6
100
AcDbVisualStyle
  2
Gouraud
 70
     2
177
     3
291
     1
 70
    58
 90
        2
176
     1
 90
        2
176
     1
 90
        1
176
     1
 90
        2
176
     1
 40
0.6
176
     1
 40
30.0
176
     1
 62
     7
176
     1
 90
        0
176
     1
 90
        0
176
     1
 62
     7
176
     1
 62
   257
176
     1
 90
        1
176
     1
 90
        1
176
     1
 40
1.0
176
     1
 90
        0
176
     1
 62
     7
176
     1
 40
1.0
176
     1
 90
        1
176
     1
 90
        6
176
     1
 90
        2
176
     1
 62
     7
176
     1
 90
        5
176
     1
 90
        0
176
     1
 90
        0
176
     1
290
     0
176
     1
 90
       13
176
     1
 40
0.0
176
     1
 90
        0
176
     1
290
     0
176
     1
290
     1
176
     1
290
     1
176
     1
290
     0
176
     1
290
     0
176
     1
290
     0
176
     1
290
     0
176
     1
290
     0
176
     1
290
     0
176
     1
 90
       50
176
     1
 40
0.0
176
     1
 40
1.0
176
     1
 90
        0
176
     1
 62
    18
176
     1
 90
       50
176
     1
 90
        3
176
     1
 62
     5
420
      255
176
     1
290
     0
176
     1
 90
       50
176
     1
 90
       50
176
     1
 90
       50
176
     1
290
     0
176
     1
 90
       50
176
     1
 62
   256
176
     0
 40
1.0
176
     0
 90
        2
176
     1
  1
strokes_ogs.tif
176
     1
290
     0
176
     1
 40
1.0
176
     1
 40
1.0
176
     1
  0
VISUALSTYLE
  5
57CA
102
{ACAD_REACTORS
330
57C6
102
}
330
57C6
100
AcDbVisualStyle
  2
GouraudWithEdges
 70
     3
177
     3
291
     1
 70
    58
 90
        2
176
     1
 90
        2
176
     1
 90
        1
176
     1
 90
        2
176
     1
 40
0.6
176
     1
 40
30.0
176
     1
 62
     7
176
     1
 90
        1
176
     1
 90
        0
176
     1
 62
     7
176
     1
 62
   257
176
     1
 90
        1
176
     1
 90
        1
176
     1
 40
1.0
176
     1
 90
        0
176
     1
 62
   257
176
     1
 40
1.0
176
     1
 90
        1
176
     1
 90
        6
176
     1
 90
        2
176
     1
 62
     7
176
     1
 90
        5
176
     1
 90
        0
176
     1
 90
        0
176
     1
290
     0
176
     1
 90
       13
176
     1
 40
0.0
176
     1
 90
        0
176
     1
290
     0
176
     1
290
     1
176
     1
290
     1
176
     1
290
     0
176
     1
290
     0
176
     1
290
     0
176
     1
290
     0
176
     1
290
     0
176
     1
290
     0
176
     1
 90
       50
176
     1
 40
0.0
176
     1
 40
1.0
176
     1
 90
        0
176
     1
 62
    18
176
     1
 90
       50
176
     1
 90
        3
176
     1
 62
     5
420
      255
176
     1
290
     0
176
     1
 90
       50
176
     1
 90
       50
176
     1
 90
       50
176
     1
290
     0
176
     1
 90
       50
176
     1
 62
   256
176
     0
 40
1.0
176
     0
 90
        2
176
     1
  1
strokes_ogs.tif
176
     1
290
     0
176
     1
 40
1.0
176
     1
 40
1.0
176
     1
  0
VISUALSTYLE
  5
57CE
102
{ACAD_REACTORS
330
57C6
102
}
330
57C6
100
AcDbVisualStyle
  2
Hidden
 70
     6
177
     3
291
     0
 70
    58
 90
        1
176
     1
 90
        2
176
     1
 90
        2
176
     1
 90
        0
176
     1
 40
0.6
176
     1
 40
30.0
176
     1
 62
     7
176
     1
 90
        2
176
     1
 90
        2
176
     1
 62
     7
176
     1
 62
   257
176
     1
 90
        2
176
     1
 90
        1
176
     1
 40
40.0
176
     1
 90
        0
176
     1
 62
   257
176
     1
 40
1.0
176
     1
 90
        1
176
     1
 90
        6
176
     1
 90
        2
176
     1
 62
     7
176
     1
 90
        3
176
     1
 90
        0
176
     1
 90
        0
176
     1
290
     0
176
     1
 90
        1
176
     1
 40
0.0
176
     1
 90
        0
176
     1
290
     0
176
     1
290
     1
176
     1
290
     1
176
     1
290
     0
176
     1
290
     0
176
     1
290
     0
176
     1
290
     0
176
     1
290
     0
176
     1
290
     0
176
     1
 90
       50
176
     1
 40
0.0
176
     1
 40
1.0
176
     1
 90
        0
176
     1
 62
    18
176
     1
 90
       50
176
     1
 90
        3
176
     1
 62
     5
420
      255
176
     1
290
     0
176
     1
 90
       50
176
     1
 90
       50
176
     1
 90
       50
176
     1
290
     0
176
     1
 90
       50
176
     1
 62
   256
176
     0
 40
1.0
176
     0
 90
        2
176
     1
  1
strokes_ogs.tif
176
     1
290
     0
176
     1
 40
1.0
176
     1
 40
1.0
176
     1
  0
VISUALSTYLE
  5
57DC
102
{ACAD_REACTORS
330
57C6
102
}
330
57C6
100
AcDbVisualStyle
  2
JitterOff
 70
    20
177
     3
291
     1
 70
    58
 90
        2
176
     0
 90
        2
176
     0
 90
        0
176
     0
 90
        0
176
     0
 40
0.6
176
     0
 40
30.0
176
     0
 62
     7
176
     0
 90
        1
176
     0
 90
        4
176
     0
 62
     7
176
     0
 62
   257
176
     0
 90
        1
176
     0
 90
        1
176
     0
 40
1.0
176
     0
 90
       10
176
     2
 62
     7
176
     0
 40
1.0
176
     0
 90
        1
176
     0
 90
        6
176
     0
 90
        2
176
     0
 62
     7
176
     0
 90
        5
176
     0
 90
        0
176
     0
 90
        0
176
     0
290
     0
176
     0
 90
        1
176
     0
 40
0.0
176
     0
 90
        0
176
     0
290
     0
176
     0
290
     1
176
     0
290
     1
176
     0
290
     0
176
     0
290
     0
176
     0
290
     0
176
     0
290
     0
176
     0
290
     0
176
     0
290
     0
176
     0
 90
       50
176
     0
 40
0.0
176
     0
 40
1.0
176
     0
 90
        0
176
     0
 62
    18
176
     0
 90
       50
176
     0
 90
        3
176
     0
 62
     5
420
      255
176
     0
290
     0
176
     0
 90
       50
176
     0
 90
       50
176
     0
 90
       50
176
     0
290
     0
176
     0
 90
       50
176
     0
 62
   256
176
     0
 40
1.0
176
     0
 90
        2
176
     0
  1
strokes_ogs.tif
176
     0
290
     0
176
     0
 40
1.0
176
     0
 40
1.0
176
     0
  0
VISUALSTYLE
  5
57D4
102
{ACAD_REACTORS
330
57C6
102
}
330
57C6
100
AcDbVisualStyle
  2
Linepattern
 70
    14
177
     3
291
     1
 70
    58
 90
        2
176
     1
 90
        2
176
     1
 90
        0
176
     1
 90
        0
176
     1
 40
0.6
176
     1
 40
30.0
176
     1
 62
     7
176
     1
 90
        1
176
     1
 90
        4
176
     1
 62
     7
176
     1
 62
   257
176
     1
 90
        7
176
     1
 90
        7
176
     1
 40
1.0
176
     1
 90
        8
176
     1
 62
     7
176
     1
 40
1.0
176
     1
 90
        1
176
     1
 90
        6
176
     1
 90
        2
176
     1
 62
     7
176
     1
 90
        5
176
     1
 90
        0
176
     1
 90
        0
176
     1
290
     0
176
     1
 90
        1
176
     1
 40
0.0
176
     1
 90
        0
176
     1
290
     0
176
     1
290
     1
176
     1
290
     1
176
     1
290
     0
176
     1
290
     0
176
     1
290
     0
176
     1
290
     0
176
     1
290
     0
176
     1
290
     0
176
     1
 90
       50
176
     1
 40
0.0
176
     1
 40
1.0
176
     1
 90
        0
176
     1
 62
    18
176
     1
 90
       50
176
     1
 90
        3
176
     1
 62
     5
420
      255
176
     1
290
     0
176
     1
 90
       50
176
     1
 90
       50
176
     1
 90
       50
176
     1
290
     0
176
     1
 90
       50
176
     1
 62
   256
176
     0
 40
1.0
176
     0
 90
        2
176
     1
  1
strokes_ogs.tif
176
     1
290
     0
176
     1
 40
1.0
176
     1
 40
1.0
176
     1
  0
VISUALSTYLE
  5
57DD
102
{ACAD_REACTORS
330
57C6
102
}
330
57C6
100
AcDbVisualStyle
  2
OverhangOff
 70
    21
177
     3
291
     1
 70
    58
 90
        2
176
     0
 90
        2
176
     0
 90
        0
176
     0
 90
        0
176
     0
 40
0.6
176
     0
 40
30.0
176
     0
 62
     7
176
     0
 90
        1
176
     0
 90
        4
176
     0
 62
     7
176
     0
 62
   257
176
     0
 90
        1
176
     0
 90
        1
176
     0
 40
1.0
176
     0
 90
        9
176
     2
 62
     7
176
     0
 40
1.0
176
     0
 90
        1
176
     0
 90
        6
176
     0
 90
        2
176
     0
 62
     7
176
     0
 90
        5
176
     0
 90
        0
176
     0
 90
        0
176
     0
290
     0
176
     0
 90
        1
176
     0
 40
0.0
176
     0
 90
        0
176
     0
290
     0
176
     0
290
     1
176
     0
290
     1
176
     0
290
     0
176
     0
290
     0
176
     0
290
     0
176
     0
290
     0
176
     0
290
     0
176
     0
290
     0
176
     0
 90
       50
176
     0
 40
0.0
176
     0
 40
1.0
176
     0
 90
        0
176
     0
 62
    18
176
     0
 90
       50
176
     0
 90
        3
176
     0
 62
     5
420
      255
176
     0
290
     0
176
     0
 90
       50
176
     0
 90
       50
176
     0
 90
       50
176
     0
290
     0
176
     0
 90
       50
176
     0
 62
   256
176
     0
 40
1.0
176
     0
 90
        2
176
     0
  1
strokes_ogs.tif
176
     0
290
     0
176
     0
 40
1.0
176
     0
 40
1.0
176
     0
  0
VISUALSTYLE
  5
57D0
102
{ACAD_REACTORS
330
57C6
102
}
330
57C6
100
AcDbVisualStyle
  2
Realistic
 70
     8
177
     3
291
     0
 70
    58
 90
        2
176
     1
 90
        2
176
     1
 90
        0
176
     1
 90
        2
176
     1
 40
0.6
176
     1
 40
30.0
176
     1
 62
     7
176
     1
 90
        0
176
     1
 90
        0
176
     1
 62
     7
176
     1
 62
   257
176
     1
 90
        1
176
     1
 90
        1
176
     1
 40
1.0
176
     1
 90
        8
176
     1
 62
   257
176
     1
 40
1.0
176
     1
 90
        1
176
     1
 90
        6
176
     1
 90
        2
176
     1
 62
     7
176
     1
 90
        3
176
     1
 90
        0
176
     1
 90
        0
176
     1
290
     0
176
     1
 90
       13
176
     1
 40
0.0
176
     1
 90
        0
176
     1
290
     0
176
     1
290
     1
176
     1
290
     1
176
     1
290
     0
176
     1
290
     0
176
     1
290
     0
176
     1
290
     0
176
     1
290
     0
176
     1
290
     0
176
     1
 90
       50
176
     1
 40
0.0
176
     1
 40
1.0
176
     1
 90
        0
176
     1
 62
    18
176
     1
 90
       50
176
     1
 90
        3
176
     1
 62
     5
420
      255
176
     1
290
     0
176
     1
 90
       50
176
     1
 90
       50
176
     1
 90
       50
176
     1
290
     0
176
     1
 90
       50
176
     1
 62
   256
176
     0
 40
1.0
176
     0
 90
        2
176
     1
  1
strokes_ogs.tif
176
     1
290
     0
176
     1
 40
1.0
176
     1
 40
1.0
176
     1
  0
VISUALSTYLE
  5
57DB
102
{ACAD_REACTORS
330
57C6
102
}
330
57C6
100
AcDbVisualStyle
  2
Shaded
 70
    27
177
     3
291
     0
 70
    58
 90
        2
176
     1
 90
        2
176
     1
 90
        1
176
     1
 90
        2
176
     1
 40
0.6
176
     1
 40
30.0
176
     1
 62
     7
176
     1
 90
        0
176
     1
 90
        4
176
     1
 62
     7
176
     1
 62
   257
176
     1
 90
        1
176
     1
 90
        1
176
     1
 40
1.0
176
     1
 90
        8
176
     1
 62
   257
176
     1
 40
1.0
176
     1
 90
        1
176
     1
 90
        6
176
     1
 90
        2
176
     1
 62
     8
176
     1
 90
        3
176
     1
 90
        0
176
     1
 90
        0
176
     1
290
     0
176
     1
 90
        5
176
     1
 40
0.0
176
     1
 90
        0
176
     1
290
     0
176
     1
290
     1
176
     1
290
     1
176
     1
290
     0
176
     1
290
     0
176
     1
290
     0
176
     1
290
     0
176
     1
290
     0
176
     1
290
     0
176
     1
 90
       50
176
     1
 40
0.0
176
     1
 40
1.0
176
     1
 90
        0
176
     1
 62
    18
176
     1
 90
       50
176
     1
 90
        3
176
     1
 62
     5
420
      255
176
     1
290
     0
176
     1
 90
       50
176
     1
 90
       50
176
     1
 90
       50
176
     1
290
     0
176
     1
 90
       50
176
     1
 62
   256
176
     0
 40
1.0
176
     0
 90
        2
176
     1
  1
strokes_ogs.tif
176
     1
290
     0
176
     1
 40
1.0
176
     1
 40
1.0
176
     1
  0
VISUALSTYLE
  5
57DA
102
{ACAD_REACTORS
330
57C6
102
}
330
57C6
100
AcDbVisualStyle
  2
Shaded with edges
 70
    26
177
     3
291
     0
 70
    58
 90
        2
176
     1
 90
        2
176
     1
 90
        1
176
     1
 90
        2
176
     1
 40
0.6
176
     1
 40
30.0
176
     1
 62
     7
176
     1
 90
        1
176
     1
 90
       10
176
     1
 62
     7
176
     1
 62
   257
176
     1
 90
        2
176
     1
 90
        1
176
     1
 40
1.0
176
     1
 90
        8
176
     1
 62
   257
176
     1
 40
1.0
176
     1
 90
        1
176
     1
 90
        6
176
     1
 90
        2
176
     1
 62
     7
176
     1
 90
        3
176
     1
 90
        0
176
     1
 90
        0
176
     1
290
     0
176
     1
 90
        5
176
     1
 40
0.0
176
     1
 90
        0
176
     1
290
     0
176
     1
290
     1
176
     1
290
     1
176
     1
290
     0
176
     1
290
     0
176
     1
290
     0
176
     1
290
     0
176
     1
290
     0
176
     1
290
     0
176
     1
 90
       50
176
     1
 40
0.0
176
     1
 40
1.0
176
     1
 90
        0
176
     1
 62
    18
176
     1
 90
       50
176
     1
 90
        3
176
     1
 62
     5
420
      255
176
     1
290
     0
176
     1
 90
       50
176
     1
 90
       50
176
     1
 90
       50
176
     1
290
     0
176
     1
 90
       50
176
     1
 62
   256
176
     0
 40
1.0
176
     0
 90
        2
176
     1
  1
strokes_ogs.tif
176
     1
290
     0
176
     1
 40
1.0
176
     1
 40
1.0
176
     1
  0
VISUALSTYLE
  5
57D7
102
{ACAD_REACTORS
330
57C6
102
}
330
57C6
100
AcDbVisualStyle
  2
Shades of Gray
 70
    23
177
     3
291
     0
 70
    58
 90
        2
176
     1
 90
        2
176
     1
 90
        3
176
     1
 90
        0
176
     1
 40
0.6
176
     1
 40
30.0
176
     1
 62
     7
176
     1
 90
        2
176
     1
 90
        2
176
     1
 62
     7
176
     1
 62
     7
176
     1
 90
        1
176
     1
 90
        1
176
     1
 40
40.0
176
     1
 90
        8
176
     1
 62
     7
176
     1
 40
1.0
176
     1
 90
        1
176
     1
 90
        6
176
     1
 90
        2
176
     1
 62
     7
176
     1
 90
        3
176
     1
 90
        0
176
     1
 90
        0
176
     1
290
     0
176
     1
 90
        1
176
     1
 40
0.0
176
     1
 90
        0
176
     1
290
     0
176
     1
290
     1
176
     1
290
     1
176
     1
290
     0
176
     1
290
     0
176
     1
290
     0
176
     1
290
     0
176
     1
290
     0
176
     1
290
     0
176
     1
 90
       50
176
     1
 40
0.0
176
     1
 40
1.0
176
     1
 90
        0
176
     1
 62
    18
176
     1
 90
       50
176
     1
 90
        3
176
     1
 62
     5
420
      255
176
     1
290
     0
176
     1
 90
       50
176
     1
 90
       50
176
     1
 90
       50
176
     1
290
     0
176
     1
 90
       50
176
     1
 62
   256
176
     0
 40
1.0
176
     0
 90
        2
176
     1
  1
strokes_ogs.tif
176
     1
290
     0
176
     1
 40
1.0
176
     1
 40
1.0
176
     1
  0
VISUALSTYLE
  5
57D8
102
{ACAD_REACTORS
330
57C6
102
}
330
57C6
100
AcDbVisualStyle
  2
Sketchy
 70
    24
177
     3
291
     0
 70
    58
 90
        1
176
     1
 90
        2
176
     1
 90
        2
176
     1
 90
        0
176
     1
 40
0.6
176
     1
 40
30.0
176
     1
 62
     7
176
     1
 90
        2
176
     1
 90
        2
176
     1
 62
     7
176
     1
 62
     7
176
     1
 90
        1
176
     1
 90
        1
176
     1
 40
40.0
176
     1
 90
       11
176
     1
 62
     7
176
     1
 40
1.0
176
     1
 90
        1
176
     1
 90
        6
176
     1
 90
        2
176
     1
 62
     7
176
     1
 90
        6
176
     1
 90
        0
176
     1
 90
        0
176
     1
290
     0
176
     1
 90
        1
176
     1
 40
0.0
176
     1
 90
        0
176
     1
290
     0
176
     1
290
     1
176
     1
290
     1
176
     1
290
     0
176
     1
290
     0
176
     1
290
     0
176
     1
290
     0
176
     1
290
     0
176
     1
290
     0
176
     1
 90
       50
176
     1
 40
0.0
176
     1
 40
1.0
176
     1
 90
        0
176
     1
 62
    18
176
     1
 90
       50
176
     1
 90
        3
176
     1
 62
     5
420
      255
176
     1
290
     0
176
     1
 90
       50
176
     1
 90
       50
176
     1
 90
       50
176
     1
290
     0
176
     1
 90
       50
176
     1
 62
   256
176
     0
 40
1.0
176
     0
 90
        2
176
     1
  1
strokes_ogs.tif
176
     1
290
     0
176
     1
 40
1.0
176
     1
 40
1.0
176
     1
  0
VISUALSTYLE
  5
57D3
102
{ACAD_REACTORS
330
57C6
102
}
330
57C6
100
AcDbVisualStyle
  2
Thicken
 70
    13
177
     3
291
     1
 70
    58
 90
        2
176
     1
 90
        2
176
     1
 90
        0
176
     1
 90
        0
176
     1
 40
0.6
176
     1
 40
30.0
176
     1
 62
     7
176
     1
 90
        1
176
     1
 90
        4
176
     1
 62
     7
176
     1
 62
   257
176
     1
 90
        1
176
     1
 90
        1
176
     1
 40
1.0
176
     1
 90
       12
176
     1
 62
     7
176
     1
 40
1.0
176
     1
 90
        1
176
     1
 90
        6
176
     1
 90
        2
176
     1
 62
     7
176
     1
 90
        5
176
     1
 90
        0
176
     1
 90
        0
176
     1
290
     0
176
     1
 90
        1
176
     1
 40
0.0
176
     1
 90
        0
176
     1
290
     0
176
     1
290
     1
176
     1
290
     1
176
     1
290
     0
176
     1
290
     0
176
     1
290
     0
176
     1
290
     0
176
     1
290
     0
176
     1
290
     0
176
     1
 90
       50
176
     1
 40
0.0
176
     1
 40
1.0
176
     1
 90
        0
176
     1
 62
    18
176
     1
 90
       50
176
     1
 90
        3
176
     1
 62
     5
420
      255
176
     1
290
     0
176
     1
 90
       50
176
     1
 90
       50
176
     1
 90
       50
176
     1
290
     0
176
     1
 90
       50
176
     1
 62
   256
176
     0
 40
1.0
176
     0
 90
        2
176
     1
  1
strokes_ogs.tif
176
     1
290
     0
176
     1
 40
1.0
176
     1
 40
1.0
176
     1
  0
VISUALSTYLE
  5
57CD
102
{ACAD_REACTORS
330
57C6
102
}
330
57C6
100
AcDbVisualStyle
  2
Wireframe
 70
     5
177
     3
291
     0
 70
    58
 90
        0
176
     1
 90
        2
176
     1
 90
        0
176
     1
 90
        0
176
     1
 40
0.6
176
     1
 40
30.0
176
     1
 62
     7
176
     1
 90
        1
176
     1
 90
        4
176
     1
 62
     7
176
     1
 62
   257
176
     1
 90
        1
176
     1
 90
        1
176
     1
 40
1.0
176
     1
 90
        0
176
     1
 62
   257
176
     1
 40
1.0
176
     1
 90
        1
176
     1
 90
        6
176
     1
 90
        2
176
     1
 62
     7
176
     1
 90
        3
176
     1
 90
        0
176
     1
 90
        0
176
     1
290
     0
176
     1
 90
        1
176
     1
 40
0.0
176
     1
 90
        0
176
     1
290
     0
176
     1
290
     1
176
     1
290
     1
176
     1
290
     0
176
     1
290
     0
176
     1
290
     0
176
     1
290
     0
176
     1
290
     0
176
     1
290
     0
176
     1
 90
       50
176
     1
 40
0.0
176
     1
 40
1.0
176
     1
 90
        0
176
     1
 62
    18
176
     1
 90
       50
176
     1
 90
        3
176
     1
 62
     5
420
      255
176
     1
290
     0
176
     1
 90
       50
176
     1
 90
       50
176
     1
 90
       50
176
     1
290
     0
176
     1
 90
       50
176
     1
 62
   256
176
     0
 40
1.0
176
     0
 90
        2
176
     1
  1
strokes_ogs.tif
176
     1
290
     0
176
     1
 40
1.0
176
     1
 40
1.0
176
     1
  0
VISUALSTYLE
  5
57D9
102
{ACAD_REACTORS
330
57C6
102
}
330
57C6
100
AcDbVisualStyle
  2
X-Ray
 70
    25
177
     3
291
     0
 70
    58
 90
        2
176
     1
 90
        2
176
     1
 90
        1
176
     1
 90
        1
176
     1
 40
0.5
176
     1
 40
30.0
176
     1
 62
     7
176
     1
 90
        1
176
     1
 90
        0
176
     1
 62
     7
176
     1
 62
   257
176
     1
 90
        1
176
     1
 90
        1
176
     1
 40
1.0
176
     1
 90
        8
176
     1
 62
     7
176
     1
 40
1.0
176
     1
 90
        1
176
     1
 90
        6
176
     1
 90
        2
176
     1
 62
     7
176
     1
 90
        3
176
     1
 90
        0
176
     1
 90
        0
176
     1
290
     0
176
     1
 90
       13
176
     1
 40
0.0
176
     1
 90
        0
176
     1
290
     0
176
     1
290
     1
176
     1
290
     1
176
     1
290
     0
176
     1
290
     0
176
     1
290
     0
176
     1
290
     0
176
     1
290
     0
176
     1
290
     0
176
     1
 90
       50
176
     1
 40
0.0
176
     1
 40
1.0
176
     1
 90
        0
176
     1
 62
    18
176
     1
 90
       50
176
     1
 90
        3
176
     1
 62
     5
420
      255
176
     1
290
     0
176
     1
 90
       50
176
     1
 90
       50
176
     1
 90
       50
176
     1
290
     0
176
     1
 90
       50
176
     1
 62
   256
176
     0
 40
1.0
176
     0
 90
        2
176
     1
  1
strokes_ogs.tif
176
     1
290
     0
176
     1
 40
1.0
176
     1
 40
1.0
176
     1
  0
DICTIONARYVAR
  5
587B
102
{ACAD_REACTORS
330
33
102
}
330
33
100
DictionaryVariables
280
     0
  1
1:1
  0
DICTIONARYVAR
  5
5878
102
{ACAD_REACTORS
330
33
102
}
330
33
100
DictionaryVariables
280
     0
  1
STANDARD
  0
DICTIONARYVAR
  5
5877
102
{ACAD_REACTORS
330
33
102
}
330
33
100
DictionaryVariables
280
     0
  1
STANDARD
  0
DICTIONARYVAR
  5
5879
102
{ACAD_REACTORS
330
33
102
}
330
33
100
DictionaryVariables
280
     0
  1
Metric50
  0
DICTIONARYVAR
  5
587A
102
{ACAD_REACTORS
330
33
102
}
330
33
100
DictionaryVariables
280
     0
  1
Metric50
  0
DICTIONARYVAR
  5
34
102
{ACAD_REACTORS
330
33
102
}
330
33
100
DictionaryVariables
280
     0
  1
0
  0
DICTIONARYVAR
  5
23F7
102
{ACAD_REACTORS
330
33
102
}
330
33
100
DictionaryVariables
280
     0
  1
1
  0
DICTIONARYVAR
  5
587C
102
{ACAD_REACTORS
330
33
102
}
330
33
100
DictionaryVariables
280
     0
  1
0
  0
DICTIONARYVAR
  5
D09C
102
{ACAD_REACTORS
330
33
102
}
330
33
100
DictionaryVariables
280
     0
  1
1
  0
DICTIONARYVAR
  5
D09D
102
{ACAD_REACTORS
330
33
102
}
330
33
100
DictionaryVariables
280
     0
  1
15
  0
DICTIONARYVAR
  5
D09B
102
{ACAD_REACTORS
330
33
102
}
330
33
100
DictionaryVariables
280
     0
  1
0
  0
DICTIONARYVAR
  5
D09A
102
{ACAD_REACTORS
330
33
102
}
330
33
100
DictionaryVariables
280
     0
  1
0
  0
DICTIONARYVAR
  5
1383
102
{ACAD_REACTORS
330
33
102
}
330
33
100
DictionaryVariables
280
     0
  1
96
  0
DICTIONARY
  5
D0A5
330
A70A
100
AcDbDictionary
280
     1
281
     1
  3
ACAD_XREC_ROUNDTRIP
360
D14D
  0
DICTIONARY
  5
D0A1
330
57F9
100
AcDbDictionary
280
     1
281
     1
  3
ACAD_XREC_ROUNDTRIP
360
D14B
  0
DICTIONARY
  5
57B7
330
57B6
100
AcDbDictionary
280
     1
281
     1
  3
BUMPTILE
360
57B9
  3
DIFFUSETILE
360
57B8
  3
OPACITYTILE
360
57BC
  3
REFLECTIONTILE
360
57BB
  3
REFRACTIONTILE
360
57BD
  3
SPECULARTILE
360
57BA
  0
DICTIONARY
  5
57AF
330
57AE
100
AcDbDictionary
280
     1
281
     1
  3
BUMPTILE
360
57B1
  3
DIFFUSETILE
360
57B0
  3
OPACITYTILE
360
57B4
  3
REFLECTIONTILE
360
57B3
  3
REFRACTIONTILE
360
57B5
  3
SPECULARTILE
360
57B2
  0
DICTIONARY
  5
57BF
330
57BE
100
AcDbDictionary
280
     1
281
     1
  3
BUMPTILE
360
57C1
  3
DIFFUSETILE
360
57C0
  3
OPACITYTILE
360
57C4
  3
REFLECTIONTILE
360
57C3
  3
REFRACTIONTILE
360
57C5
  3
SPECULARTILE
360
57C2
  0
DICTIONARY
  5
D0A3
330
A709
100
AcDbDictionary
280
     1
281
     1
  3
ACAD_XREC_ROUNDTRIP
360
D14C
  0
DICTIONARY
  5
D09F
330
57F7
100
AcDbDictionary
280
     1
281
     1
  3
ACAD_XREC_ROUNDTRIP
360
D14A
  0
DICTIONARY
  5
5822
330
57E1
100
AcDbDictionary
280
     1
281
     1
  3
ACAD_ROUNDTRIP_2008_TABLESTYLE_CELLSTYLEMAP
360
D149
  0
XRECORD
  5
D14D
102
{ACAD_REACTORS
330
D0A5
102
}
330
D0A5
100
AcDbXrecord
280
     1
102
DISPLAYNAME
  1
Imperial24
102
FLAGS
 90
        0
  0
XRECORD
  5
D14B
102
{ACAD_REACTORS
330
D0A1
102
}
330
D0A1
100
AcDbXrecord
280
     1
102
DISPLAYNAME
  1
Metric50
102
FLAGS
 90
        0
  0
XRECORD
  5
57B9
102
{ACAD_REACTORS
330
57B7
102
}
330
57B7
100
AcDbXrecord
280
     1
270
     1
271
     1
  0
XRECORD
  5
57B8
102
{ACAD_REACTORS
330
57B7
102
}
330
57B7
100
AcDbXrecord
280
     1
270
     1
271
     1
  0
XRECORD
  5
57BC
102
{ACAD_REACTORS
330
57B7
102
}
330
57B7
100
AcDbXrecord
280
     1
270
     1
271
     1
  0
XRECORD
  5
57BB
102
{ACAD_REACTORS
330
57B7
102
}
330
57B7
100
AcDbXrecord
280
     1
270
     1
271
     1
  0
XRECORD
  5
57BD
102
{ACAD_REACTORS
330
57B7
102
}
330
57B7
100
AcDbXrecord
280
     1
270
     1
271
     1
  0
XRECORD
  5
57BA
102
{ACAD_REACTORS
330
57B7
102
}
330
57B7
100
AcDbXrecord
280
     1
270
     1
271
     1
  0
XRECORD
  5
57B1
102
{ACAD_REACTORS
330
57AF
102
}
330
57AF
100
AcDbXrecord
280
     1
270
     1
271
     1
  0
XRECORD
  5
57B0
102
{ACAD_REACTORS
330
57AF
102
}
330
57AF
100
AcDbXrecord
280
     1
270
     1
271
     1
  0
XRECORD
  5
57B4
102
{ACAD_REACTORS
330
57AF
102
}
330
57AF
100
AcDbXrecord
280
     1
270
     1
271
     1
  0
XRECORD
  5
57B3
102
{ACAD_REACTORS
330
57AF
102
}
330
57AF
100
AcDbXrecord
280
     1
270
     1
271
     1
  0
XRECORD
  5
57B5
102
{ACAD_REACTORS
330
57AF
102
}
330
57AF
100
AcDbXrecord
280
     1
270
     1
271
     1
  0
XRECORD
  5
57B2
102
{ACAD_REACTORS
330
57AF
102
}
330
57AF
100
AcDbXrecord
280
     1
270
     1
271
     1
  0
XRECORD
  5
57C1
102
{ACAD_REACTORS
330
57BF
102
}
330
57BF
100
AcDbXrecord
280
     1
270
     1
271
     1
  0
XRECORD
  5
57C0
102
{ACAD_REACTORS
330
57BF
102
}
330
57BF
100
AcDbXrecord
280
     1
270
     1
271
     1
  0
XRECORD
  5
57C4
102
{ACAD_REACTORS
330
57BF
102
}
330
57BF
100
AcDbXrecord
280
     1
270
     1
271
     1
  0
XRECORD
  5
57C3
102
{ACAD_REACTORS
330
57BF
102
}
330
57BF
100
AcDbXrecord
280
     1
270
     1
271
     1
  0
XRECORD
  5
57C5
102
{ACAD_REACTORS
330
57BF
102
}
330
57BF
100
AcDbXrecord
280
     1
270
     1
271
     1
  0
XRECORD
  5
57C2
102
{ACAD_REACTORS
330
57BF
102
}
330
57BF
100
AcDbXrecord
280
     1
270
     1
271
     1
  0
XRECORD
  5
D14C
102
{ACAD_REACTORS
330
D0A3
102
}
330
D0A3
100
AcDbXrecord
280
     1
102
DISPLAYNAME
  1
Imperial24
102
FLAGS
 90
        0
  0
XRECORD
  5
D14A
102
{ACAD_REACTORS
330
D09F
102
}
330
D09F
100
AcDbXrecord
280
     1
102
DISPLAYNAME
  1
Metric50
102
FLAGS
 90
        0
  0
CELLSTYLEMAP
  5
D149
102
{ACAD_REACTORS
330
5822
102
}
330
5822
100
AcDbCellStyleMap
 90
        3
300
CELLSTYLE
  1
TABLEFORMAT_BEGIN
 90
        5
170
     1
 91
        0
 92
    32768
 62
   257
 93
        1
300
CONTENTFORMAT
  1
CONTENTFORMAT_BEGIN
 90
        0
 91
        0
 92
      512
 93
        0
300

 40
0.0
140
1.0
 94
        5
 62
     0
340
F
144
6.0
309
CONTENTFORMAT_END
171
     1
301
MARGIN
  1
CELLMARGIN_BEGIN
 40
1.5
 40
1.5
 40
1.5
 40
1.5
 40
0.18
 40
0.18
309
CELLMARGIN_END
 94
        6
 95
        1
302
GRIDFORMAT
  1
GRIDFORMAT_BEGIN
 90
        0
 91
        1
 62
     0
 92
       -2
340
0
 93
        0
 40
1.125
309
GRIDFORMAT_END
 95
        2
302
GRIDFORMAT
  1
GRIDFORMAT_BEGIN
 90
        0
 91
        1
 62
     0
 92
       -2
340
0
 93
        0
 40
1.125
309
GRIDFORMAT_END
 95
        4
302
GRIDFORMAT
  1
GRIDFORMAT_BEGIN
 90
        0
 91
        1
 62
     0
 92
       -2
340
0
 93
        0
 40
1.125
309
GRIDFORMAT_END
 95
        8
302
GRIDFORMAT
  1
GRIDFORMAT_BEGIN
 90
        0
 91
        1
 62
     0
 92
       -2
340
0
 93
        0
 40
1.125
309
GRIDFORMAT_END
 95
       16
302
GRIDFORMAT
  1
GRIDFORMAT_BEGIN
 90
        0
 91
        1
 62
     0
 92
       -2
340
0
 93
        0
 40
1.125
309
GRIDFORMAT_END
 95
       32
302
GRIDFORMAT
  1
GRIDFORMAT_BEGIN
 90
        0
 91
        1
 62
     0
 92
       -2
340
0
 93
        0
 40
1.125
309
GRIDFORMAT_END
309
TABLEFORMAT_END
  1
CELLSTYLE_BEGIN
 90
        1
 91
        1
300
_TITLE
309
CELLSTYLE_END
300
CELLSTYLE
  1
TABLEFORMAT_BEGIN
 90
        5
170
     1
 91
        0
 92
        0
 62
   257
 93
        1
300
CONTENTFORMAT
  1
CONTENTFORMAT_BEGIN
 90
        0
 91
        0
 92
      512
 93
        0
300

 40
0.0
140
1.0
 94
        5
 62
     0
340
F
144
4.5
309
CONTENTFORMAT_END
171
     1
301
MARGIN
  1
CELLMARGIN_BEGIN
 40
1.5
 40
1.5
 40
1.5
 40
1.5
 40
0.18
 40
0.18
309
CELLMARGIN_END
 94
        6
 95
        1
302
GRIDFORMAT
  1
GRIDFORMAT_BEGIN
 90
        0
 91
        1
 62
     0
 92
       -2
340
0
 93
        0
 40
1.125
309
GRIDFORMAT_END
 95
        2
302
GRIDFORMAT
  1
GRIDFORMAT_BEGIN
 90
        0
 91
        1
 62
     0
 92
       -2
340
0
 93
        0
 40
1.125
309
GRIDFORMAT_END
 95
        4
302
GRIDFORMAT
  1
GRIDFORMAT_BEGIN
 90
        0
 91
        1
 62
     0
 92
       -2
340
0
 93
        0
 40
1.125
309
GRIDFORMAT_END
 95
        8
302
GRIDFORMAT
  1
GRIDFORMAT_BEGIN
 90
        0
 91
        1
 62
     0
 92
       -2
340
0
 93
        0
 40
1.125
309
GRIDFORMAT_END
 95
       16
302
GRIDFORMAT
  1
GRIDFORMAT_BEGIN
 90
        0
 91
        1
 62
     0
 92
       -2
340
0
 93
        0
 40
1.125
309
GRIDFORMAT_END
 95
       32
302
GRIDFORMAT
  1
GRIDFORMAT_BEGIN
 90
        0
 91
        1
 62
     0
 92
       -2
340
0
 93
        0
 40
1.125
309
GRIDFORMAT_END
309
TABLEFORMAT_END
  1
CELLSTYLE_BEGIN
 90
        2
 91
        1
300
_HEADER
309
CELLSTYLE_END
300
CELLSTYLE
  1
TABLEFORMAT_BEGIN
 90
        5
170
     1
 91
        0
 92
        0
 62
   257
 93
        1
300
CONTENTFORMAT
  1
CONTENTFORMAT_BEGIN
 90
        0
 91
        0
 92
      512
 93
        0
300

 40
0.0
140
1.0
 94
        2
 62
     0
340
F
144
4.5
309
CONTENTFORMAT_END
171
     1
301
MARGIN
  1
CELLMARGIN_BEGIN
 40
1.5
 40
1.5
 40
1.5
 40
1.5
 40
0.18
 40
0.18
309
CELLMARGIN_END
 94
        6
 95
        1
302
GRIDFORMAT
  1
GRIDFORMAT_BEGIN
 90
        0
 91
        1
 62
     0
 92
       -2
340
0
 93
        0
 40
1.125
309
GRIDFORMAT_END
 95
        2
302
GRIDFORMAT
  1
GRIDFORMAT_BEGIN
 90
        0
 91
        1
 62
     0
 92
       -2
340
0
 93
        0
 40
1.125
309
GRIDFORMAT_END
 95
        4
302
GRIDFORMAT
  1
GRIDFORMAT_BEGIN
 90
        0
 91
        1
 62
     0
 92
       -2
340
0
 93
        0
 40
1.125
309
GRIDFORMAT_END
 95
        8
302
GRIDFORMAT
  1
GRIDFORMAT_BEGIN
 90
        0
 91
        1
 62
     0
 92
       -2
340
0
 93
        0
 40
1.125
309
GRIDFORMAT_END
 95
       16
302
GRIDFORMAT
  1
GRIDFORMAT_BEGIN
 90
        0
 91
        1
 62
     0
 92
       -2
340
0
 93
        0
 40
1.125
309
GRIDFORMAT_END
 95
       32
302
GRIDFORMAT
  1
GRIDFORMAT_BEGIN
 90
        0
 91
        1
 62
     0
 92
       -2
340
0
 93
        0
 40
1.125
309
GRIDFORMAT_END
309
TABLEFORMAT_END
  1
CELLSTYLE_BEGIN
 90
        3
 91
        2
300
_DATA
309
CELLSTYLE_END
  0
ENDSEC
  0
SECTION
  2
ACDSDATA
 70
     2
 71
     6
  0
ACDSSCHEMA
 90
        0
  1
AcDb_Thumbnail_Schema
  2
AcDbDs::ID
280
    10
 91
        8
  2
Thumbnail_Data
280
    15
 91
        0
101
ACDSRECORD
 95
        0
 90
        1
  2
AcDbDs::TreatedAsObjectData
280
     1
291
     1
101
ACDSRECORD
 95
        0
 90
        2
  2
AcDbDs::Legacy
280
     1
291
     1
101
ACDSRECORD
  1
AcDbDs::ID
 90
        3
  2
AcDs:Indexable
280
     1
291
     1
101
ACDSRECORD
  1
AcDbDs::ID
 90
        4
  2
AcDbDs::HandleAttribute
280
     7
282
     1
  0
ACDSSCHEMA
 90
        1
  1
AcDbDs::TreatedAsObjectDataSchema
  2
AcDbDs::TreatedAsObjectData
280
     1
 91
        0
  0
ACDSSCHEMA
 90
        2
  1
AcDbDs::LegacySchema
  2
AcDbDs::Legacy
280
     1
 91
        0
  0
ACDSSCHEMA
 90
        3
  1
AcDbDs::IndexedPropertySchema
  2
AcDs:Indexable
280
     1
 91
        0
  0
ACDSSCHEMA
 90
        4
  1
AcDbDs::HandleAttributeSchema
  2
AcDbDs::HandleAttribute
280
     7
 91
        1
284
     1
  0
ACDSRECORD
 90
        0
  2
AcDbDs::ID
280
    10
320
760
  2
Thumbnail_Data
280
    15
 94
     1805
310
89504E470D0A1A0A0000000D4948445200000100000000890803000000F46416F000000300504C5445000000000000C8C8C80000000000000000000000000000000000000000000000000000330000660000990000CC0000FF0033000033330033660033990033CC0033FF0066000066330066660066990066CC0066FF0099
310
000099330099660099990099CC0099FF00CC0000CC3300CC6600CC9900CCCC00CCFF00FF0000FF3300FF6600FF9900FFCC00FFFF3300003300333300663300993300CC3300FF3333003333333333663333993333CC3333FF3366003366333366663366993366CC3366FF3399003399333399663399993399CC3399FF33CC00
310
33CC3333CC6633CC9933CCCC33CCFF33FF0033FF3333FF6633FF9933FFCC33FFFF6600006600336600666600996600CC6600FF6633006633336633666633996633CC6633FF6666006666336666666666996666CC6666FF6699006699336699666699996699CC6699FF66CC0066CC3366CC6666CC9966CCCC66CCFF66FF0066
310
FF3366FF6666FF9966FFCC66FFFF9900009900339900669900999900CC9900FF9933009933339933669933999933CC9933FF9966009966339966669966999966CC9966FF9999009999339999669999999999CC9999FF99CC0099CC3399CC6699CC9999CCCC99CCFF99FF0099FF3399FF6699FF9999FFCC99FFFFCC0000CC00
310
33CC0066CC0099CC00CCCC00FFCC3300CC3333CC3366CC3399CC33CCCC33FFCC6600CC6633CC6666CC6699CC66CCCC66FFCC9900CC9933CC9966CC9999CC99CCCC99FFCCCC00CCCC33CCCC66CCCC99CCCCCCCCCCFFCCFF00CCFF33CCFF66CCFF99CCFFCCCCFFFFFF0000FF0033FF0066FF0099FF00CCFF00FFFF3300FF3333
310
FF3366FF3399FF33CCFF33FFFF6600FF6633FF6666FF6699FF66CCFF66FFFF9900FF9933FF9966FF9999FF99CCFF99FFFFCC00FFCC33FFCC66FFCC99FFCCCCFFCCFFFFFF00FFFF33FFFF66FFFF99FFFFCCFFFFFF0000000D0D0D1A1A1A2828283535354343435050505D5D5D6B6B6B787878868686939393A1A1A1AEAEAEBB
310
BBBBC9C9C9D6D6D6E4E4E4F1F1F1FFFFFF00000000000000000000000000000000000000000000000000000000000008F1915C000003B84944415478DAED9D599684200C45D901FB5FE8FBEF5694120545949041FAF4475539E45D220494E8DC575E2D28152BE2CFC928AFF8D736D354F12F6CAF4ABC2E080F450847F04615
310
0A7683D72C9789E055AB052200F3E349D32FCC09FA182B0701C41D98DCCCD6A110C4EB4745914DA06CFFA5C62A0A9059FD7B5D3E5792314019933CFD5BEDBEA26C2108238092FABDF6FCEE4708590690A33FAA3F175EE0506400210052F5378FB56320020072D3192DE21308A167491180BFFE207FB2BF597E40301FE38000
310
02F4CFD63F93BF20702B02DE047094EF1FCB5F2E84802039056BFDFF7F4F7D3F7325F026B0ABFF57E5AF085CD210802980D8F8BD5DA6636E1B0230D53FBBBFEF72925D43008E0066FDCE773A8B4F1A0270D5EF7DB7F32C0D013F02489AFF8E25F101D8D31F1A027E0440A73F21C00D0089FE2D015E00FE8DEAD7FE1F08F072
310
8100804AFFD4173073012C0EE089CE3711E00780CC01E68B000B753600281D2010E00680D2019802F094A7E406200C822C03207680A523340C6076014691E0D4067E004C03F0E4003C584D08E003E0065C031F003E04C801E003C0ECCE084C5F01035CC0B3BB3BEA95BB1C33833CEB07042C3A003900E74C1360F998987900
310
8456317D52D23C0032BBA43C2B6C0F0091658C170C980740621BEB3533E60110582774D99819FDBD2D14B074D43C80AE36CA583D0DE3FA3F008DEBE7F5E8BFB4F420B99281A0241AB8527FE70781FADD6912810BDF5001A09C47A0A67550A03F6F6EE5647E7E3371A994D0AA3FBFA1825452376EE61C3795984D0CCDFA8F1B
310
CB4C2887AAB6AD8680D4847A687580FDBECE892770FF6E2E14E84FD654B7EFEA9C020220DC932501D0EDC88E009E0050915C18CD00B42457466323A829B7B46B00A02AC1F86D39EA12ACDFD4A332BFBC6DFDF744E97CCBC2A3091135FDA1D9EABFA1CD3A00DDEF9AC107C0B6FE0A7DEADFB6043AFDDB61289F49D69E00967C
310
3EF8A5B6C232144DF2EEC42FC78C383B668FC7AEDE112422665BC066783A1A40FEF1883700FC72B3FF844700EB0F6EEB182300201FFEBEE401F1E3321713FF773F0C0350BAFDF9D09C50F9E9A71D82ED0F1833EC285E7830D0079E0FF6601D8083110054516031101A1C0CF503501908AD5F0C8A03BA03B80E84D61E402980
310
8A4068ED15A1D503CE0321F0009089841F03A80B847EF2C7F43BC8F478BC7284128482E81109CB01507821951900200A04CB8110DCC8C4C46C02A1519322E303A11820E80450352314010C8805860742A30138F41A0CD60642B1271E140C750320BC23B4A3DF3D5A4FA2D309ACC92F8C06BFC2B4FC0119125624599041FC00
310
00000049454E44AE4260820BFD6AC90000000049454E44AE426082
  0
ENDSEC
  0
EOF
