  0
SECTION
  2
HEADER
  9
$ACADVER
  1
AC1027
  9
$ACADMAINTVER
 70
    55
  9
$DWGCODEPAGE
  3
ANSI_932
  9
$LASTSAVEDBY
  1
User
  9
$REQUIREDVERSIONS
160
                 0
  9
$INSBASE
 10
0.0
 20
0.0
 30
0.0
  9
$EXTMIN
 10
250.0871160888253
 20
47.37955299858708
 30
-0.0000000349181948
  9
$EXTMAX
 10
808.0761874479566
 20
516.4079609576874
 30
0.0000000814935747
  9
$LIMMIN
 10
0.0
 20
0.0
  9
$LIMMAX
 10
420.0
 20
297.0
  9
$ORTHOMODE
 70
     0
  9
$REGENMODE
 70
     1
  9
$FILLMODE
 70
     1
  9
$QTEXTMODE
 70
     0
  9
$MIRRTEXT
 70
     0
  9
$LTSCALE
 40
0.75
  9
$ATTMODE
 70
     1
  9
$TEXTSIZE
 40
3.5
  9
$TRACEWID
 40
1.0
  9
$TEXTSTYLE
  7
Standard
  9
$CLAYER
  8
0
  9
$CELTYPE
  6
ByLayer
  9
$CECOLOR
 62
   256
  9
$CELTSCALE
 40
1.0
  9
$DISPSILH
 70
     0
  9
$DIMSCALE
 40
1.0
  9
$DIMASZ
 40
3.5
  9
$DIMEXO
 40
2.0
  9
$DIMDLI
 40
9.899494936611663
  9
$DIMRND
 40
0.0
  9
$DIMDLE
 40
0.0
  9
$DIMEXE
 40
2.0
  9
$DIMTP
 40
0.1
  9
$DIMTM
 40
0.1000000001
  9
$DIMTXT
 40
3.5
  9
$DIMCEN
 40
0.0
  9
$DIMTSZ
 40
0.0
  9
$DIMTOL
 70
     0
  9
$DIMLIM
 70
     0
  9
$DIMTIH
 70
     0
  9
$DIMTOH
 70
     0
  9
$DIMSE1
 70
     0
  9
$DIMSE2
 70
     0
  9
$DIMTAD
 70
     1
  9
$DIMZIN
 70
    12
  9
$DIMBLK
  1

  9
$DIMASO
 70
     1
  9
$DIMSHO
 70
     1
  9
$DIMPOST
  1

  9
$DIMAPOST
  1
in
  9
$DIMALT
 70
     0
  9
$DIMALTD
 70
     4
  9
$DIMALTF
 40
0.0393701
  9
$DIMLFAC
 40
1.0
  9
$DIMTOFL
 70
     1
  9
$DIMTVP
 40
0.0
  9
$DIMTIX
 70
     0
  9
$DIMSOXD
 70
     0
  9
$DIMSAH
 70
     0
  9
$DIMBLK1
  1

  9
$DIMBLK2
  1

  9
$DIMSTYLE
  2
ISO-25
  9
$DIMCLRD
 70
   256
  9
$DIMCLRE
 70
   256
  9
$DIMCLRT
 70
   256
  9
$DIMTFAC
 40
0.7140000000000001
  9
$DIMGAP
 40
1.5
  9
$DIMJUST
 70
     0
  9
$DIMSD1
 70
     0
  9
$DIMSD2
 70
     0
  9
$DIMTOLJ
 70
     0
  9
$DIMTZIN
 70
    12
  9
$DIMALTZ
 70
    12
  9
$DIMALTTZ
 70
    12
  9
$DIMUPT
 70
     0
  9
$DIMDEC
 70
     2
  9
$DIMTDEC
 70
     2
  9
$DIMALTU
 70
     2
  9
$DIMALTTD
 70
     4
  9
$DIMTXSTY
  7
Standard
  9
$DIMAUNIT
 70
     0
  9
$DIMADEC
 70
     2
  9
$DIMALTRND
 40
0.0
  9
$DIMAZIN
 70
     3
  9
$DIMDSEP
 70
    46
  9
$DIMATFIT
 70
     3
  9
$DIMFRAC
 70
     0
  9
$DIMLDRBLK
  1

  9
$DIMLUNIT
 70
     2
  9
$DIMLWD
 70
    -2
  9
$DIMLWE
 70
    -2
  9
$DIMTMOVE
 70
     0
  9
$DIMFXL
 40
1.0
  9
$DIMFXLON
 70
     0
  9
$DIMJOGANG
 40
0.7853981633974483
  9
$DIMTFILL
 70
     0
  9
$DIMTFILLCLR
 70
     0
  9
$DIMARCSYM
 70
     0
  9
$DIMLTYPE
  6

  9
$DIMLTEX1
  6

  9
$DIMLTEX2
  6

  9
$DIMTXTDIRECTION
 70
     0
  9
$LUNITS
 70
     2
  9
$LUPREC
 70
     4
  9
$SKETCHINC
 40
1.0
  9
$FILLETRAD
 40
0.0
  9
$AUNITS
 70
     0
  9
$AUPREC
 70
     0
  9
$MENU
  1
.
  9
$ELEVATION
 40
0.0
  9
$PELEVATION
 40
0.0
  9
$THICKNESS
 40
0.0
  9
$LIMCHECK
 70
     0
  9
$CHAMFERA
 40
0.0
  9
$CHAMFERB
 40
0.0
  9
$CHAMFERC
 40
0.0
  9
$CHAMFERD
 40
0.0
  9
$SKPOLY
 70
     0
  9
$TDCREATE
 40
2459249.712614630
  9
$TDUCREATE
 40
2459249.337614630
  9
$TDUPDATE
 40
2459250.415616656
  9
$TDUUPDATE
 40
2459250.040616655
  9
$TDINDWG
 40
0.0417885417
  9
$TDUSRTIMER
 40
0.0417885417
  9
$USRTIMER
 70
     1
  9
$ANGBASE
 50
0.0
  9
$ANGDIR
 70
     0
  9
$PDMODE
 70
     0
  9
$PDSIZE
 40
0.0
  9
$PLINEWID
 40
0.0
  9
$SPLFRAME
 70
     0
  9
$SPLINETYPE
 70
     6
  9
$SPLINESEGS
 70
     8
  9
$HANDSEED
  5
786
  9
$SURFTAB1
 70
     6
  9
$SURFTAB2
 70
     6
  9
$SURFTYPE
 70
     6
  9
$SURFU
 70
     6
  9
$SURFV
 70
     6
  9
$UCSBASE
  2

  9
$UCSNAME
  2

  9
$UCSORG
 10
0.0
 20
0.0
 30
0.0
  9
$UCSXDIR
 10
1.0
 20
0.0
 30
0.0
  9
$UCSYDIR
 10
0.0
 20
1.0
 30
0.0
  9
$UCSORTHOREF
  2

  9
$UCSORTHOVIEW
 70
     0
  9
$UCSORGTOP
 10
0.0
 20
0.0
 30
0.0
  9
$UCSORGBOTTOM
 10
0.0
 20
0.0
 30
0.0
  9
$UCSORGLEFT
 10
0.0
 20
0.0
 30
0.0
  9
$UCSORGRIGHT
 10
0.0
 20
0.0
 30
0.0
  9
$UCSORGFRONT
 10
0.0
 20
0.0
 30
0.0
  9
$UCSORGBACK
 10
0.0
 20
0.0
 30
0.0
  9
$PUCSBASE
  2

  9
$PUCSNAME
  2

  9
$PUCSORG
 10
0.0
 20
0.0
 30
0.0
  9
$PUCSXDIR
 10
1.0
 20
0.0
 30
0.0
  9
$PUCSYDIR
 10
0.0
 20
1.0
 30
0.0
  9
$PUCSORTHOREF
  2

  9
$PUCSORTHOVIEW
 70
     0
  9
$PUCSORGTOP
 10
0.0
 20
0.0
 30
0.0
  9
$PUCSORGBOTTOM
 10
0.0
 20
0.0
 30
0.0
  9
$PUCSORGLEFT
 10
0.0
 20
0.0
 30
0.0
  9
$PUCSORGRIGHT
 10
0.0
 20
0.0
 30
0.0
  9
$PUCSORGFRONT
 10
0.0
 20
0.0
 30
0.0
  9
$PUCSORGBACK
 10
0.0
 20
0.0
 30
0.0
  9
$USERI1
 70
     0
  9
$USERI2
 70
     0
  9
$USERI3
 70
     0
  9
$USERI4
 70
     0
  9
$USERI5
 70
     0
  9
$USERR1
 40
0.0
  9
$USERR2
 40
0.0
  9
$USERR3
 40
0.0
  9
$USERR4
 40
0.0
  9
$USERR5
 40
0.0
  9
$WORLDVIEW
 70
     1
  9
$SHADEDGE
 70
     3
  9
$SHADEDIF
 70
    70
  9
$TILEMODE
 70
     1
  9
$MAXACTVP
 70
    64
  9
$PINSBASE
 10
0.0
 20
0.0
 30
0.0
  9
$PLIMCHECK
 70
     0
  9
$PEXTMIN
 10
1.000000000000000E+20
 20
1.000000000000000E+20
 30
1.000000000000000E+20
  9
$PEXTMAX
 10
-1.000000000000000E+20
 20
-1.000000000000000E+20
 30
-1.000000000000000E+20
  9
$PLIMMIN
 10
0.0
 20
0.0
  9
$PLIMMAX
 10
12.0
 20
9.0
  9
$UNITMODE
 70
     0
  9
$VISRETAIN
 70
     1
  9
$PLINEGEN
 70
     0
  9
$PSLTSCALE
 70
     1
  9
$TREEDEPTH
 70
  3020
  9
$CMLSTYLE
  2
Standard
  9
$CMLJUST
 70
     0
  9
$CMLSCALE
 40
20.0
  9
$PROXYGRAPHICS
 70
     1
  9
$MEASUREMENT
 70
     1
  9
$CELWEIGHT
370
    -1
  9
$ENDCAPS
280
     0
  9
$JOINSTYLE
280
     0
  9
$LWDISPLAY
290
     0
  9
$INSUNITS
 70
     4
  9
$HYPERLINKBASE
  1

  9
$STYLESHEET
  1

  9
$XEDIT
290
     1
  9
$CEPSNTYPE
380
     0
  9
$PSTYLEMODE
290
     1
  9
$FINGERPRINTGUID
  2
{D7814EF0-75F9-499F-BC11-8B73F1DC2791}
  9
$VERSIONGUID
  2
{CF1E3F4D-2966-4382-A5F6-21410DBAB029}
  9
$EXTNAMES
290
     1
  9
$PSVPSCALE
 40
0.0
  9
$OLESTARTUP
290
     0
  9
$SORTENTS
280
   127
  9
$INDEXCTL
280
     0
  9
$HIDETEXT
280
     1
  9
$XCLIPFRAME
280
     0
  9
$HALOGAP
280
     0
  9
$OBSCOLOR
 70
   257
  9
$OBSLTYPE
280
     0
  9
$INTERSECTIONDISPLAY
280
     0
  9
$INTERSECTIONCOLOR
 70
   257
  9
$DIMASSOC
280
     2
  9
$PROJECTNAME
  1

  9
$CAMERADISPLAY
290
     0
  9
$LENSLENGTH
 40
50.0
  9
$CAMERAHEIGHT
 40
0.0
  9
$STEPSPERSEC
 40
2.0
  9
$STEPSIZE
 40
6.0
  9
$3DDWFPREC
 40
2.0
  9
$PSOLWIDTH
 40
5.0
  9
$PSOLHEIGHT
 40
80.0
  9
$LOFTANG1
 40
1.570796326794896
  9
$LOFTANG2
 40
1.570796326794896
  9
$LOFTMAG1
 40
0.0
  9
$LOFTMAG2
 40
0.0
  9
$LOFTPARAM
 70
     7
  9
$LOFTNORMALS
280
     1
  9
$LATITUDE
 40
37.795
  9
$LONGITUDE
 40
-122.394
  9
$NORTHDIRECTION
 40
0.0
  9
$TIMEZONE
 70
 -8000
  9
$LIGHTGLYPHDISPLAY
280
     1
  9
$TILEMODELIGHTSYNCH
280
     1
  9
$CMATERIAL
347
11
  9
$SOLIDHIST
280
     0
  9
$SHOWHIST
280
     1
  9
$DWFFRAME
280
     2
  9
$DGNFRAME
280
     0
  9
$REALWORLDSCALE
290
     1
  9
$INTERFERECOLOR
 62
     1
  9
$INTERFEREOBJVS
345
33
  9
$INTERFEREVPVS
346
30
  9
$CSHADOW
280
     0
  9
$SHADOWPLANELOCATION
 40
0.0
  0
ENDSEC
  0
SECTION
  2
CLASSES
  0
CLASS
  1
ACDBDICTIONARYWDFLT
  2
AcDbDictionaryWithDefault
  3
ObjectDBX Classes
 90
        0
 91
        1
280
     0
281
     0
  0
CLASS
  1
MATERIAL
  2
AcDbMaterial
  3
ObjectDBX Classes
 90
     1153
 91
        3
280
     0
281
     0
  0
CLASS
  1
VISUALSTYLE
  2
AcDbVisualStyle
  3
ObjectDBX Classes
 90
     4095
 91
       24
280
     0
281
     0
  0
CLASS
  1
SCALE
  2
AcDbScale
  3
ObjectDBX Classes
 90
     1153
 91
       17
280
     0
281
     0
  0
CLASS
  1
TABLESTYLE
  2
AcDbTableStyle
  3
ObjectDBX Classes
 90
     4095
 91
        1
280
     0
281
     0
  0
CLASS
  1
MLEADERSTYLE
  2
AcDbMLeaderStyle
  3
ACDB_MLEADERSTYLE_CLASS
 90
     4095
 91
        1
280
     0
281
     0
  0
CLASS
  1
ACDBSECTIONVIEWSTYLE
  2
AcDbSectionViewStyle
  3
ObjectDBX Classes
 90
     1025
 91
        2
280
     0
281
     0
  0
CLASS
  1
ACDBDETAILVIEWSTYLE
  2
AcDbDetailViewStyle
  3
ObjectDBX Classes
 90
     1025
 91
        2
280
     0
281
     0
  0
CLASS
  1
SORTENTSTABLE
  2
AcDbSortentsTable
  3
ObjectDBX Classes
 90
        0
 91
        3
280
     0
281
     0
  0
CLASS
  1
DICTIONARYVAR
  2
AcDbDictionaryVar
  3
ObjectDBX Classes
 90
        0
 91
        6
280
     0
281
     0
  0
CLASS
  1
CELLSTYLEMAP
  2
AcDbCellStyleMap
  3
ObjectDBX Classes
 90
     1152
 91
        2
280
     0
281
     0
  0
ENDSEC
  0
SECTION
  2
TABLES
  0
TABLE
  2
VPORT
  5
8
330
0
100
AcDbSymbolTable
 70
     1
  0
VPORT
  5
57
330
8
100
AcDbSymbolTableRecord
100
AcDbViewportTableRecord
  2
*Active
 70
     0
 10
0.0
 20
0.0
 11
1.0
 21
1.0
 12
529.081651768391
 22
281.8937569781373
 13
0.0
 23
0.0
 14
0.5
 24
0.5
 15
0.5
 25
0.5
 16
0.0
 26
0.0
 36
1.0
 17
0.0
 27
0.0
 37
0.0
 40
472.5593620968099
 41
1.865577889447236
 42
50.0
 43
0.0
 44
0.0
 50
0.0
 51
0.0
 71
     0
 72
 20000
 73
     1
 74
     0
 75
     0
 76
     0
 77
     0
 78
     0
281
     0
 65
     1
110
0.0
120
0.0
130
0.0
111
1.0
121
0.0
131
0.0
112
0.0
122
1.0
132
0.0
 79
     0
146
0.0
348
2F
 60
     3
 61
     5
292
     1
282
     1
141
0.0
142
0.0
 63
   250
421
  3355443
1001
ACAD_NAV_VCDISPLAY
1070
     3
  0
ENDTAB
  0
TABLE
  2
LTYPE
  5
5
330
0
100
AcDbSymbolTable
 70
     1
  0
LTYPE
  5
5B
330
5
100
AcDbSymbolTableRecord
100
AcDbLinetypeTableRecord
  2
ByBlock
 70
     0
  3

 72
    65
 73
     0
 40
0.0
  0
LTYPE
  5
5C
330
5
100
AcDbSymbolTableRecord
100
AcDbLinetypeTableRecord
  2
ByLayer
 70
     0
  3

 72
    65
 73
     0
 40
0.0
  0
LTYPE
  5
5D
330
5
100
AcDbSymbolTableRecord
100
AcDbLinetypeTableRecord
  2
Continuous
 70
     0
  3
Solid line
 72
    65
 73
     0
 40
0.0
  0
ENDTAB
  0
TABLE
  2
LAYER
  5
2
102
{ACAD_XDICTIONARY
360
45A
102
}
330
0
100
AcDbSymbolTable
 70
     8
  0
LAYER
  5
54
330
2
100
AcDbSymbolTableRecord
100
AcDbLayerTableRecord
  2
0
 70
     0
 62
     7
  6
Continuous
370
    -3
390
F
347
21
348
0
1001
AcAecLayerStandard
1000

1000

  0
LAYER
  5
79
330
2
100
AcDbSymbolTableRecord
100
AcDbLayerTableRecord
  2
Defpoints
 70
     0
 62
     7
  6
Continuous
290
     0
370
    -3
390
F
347
21
348
0
1001
AcAecLayerStandard
1000

1000

  0
LAYER
  5
88
330
2
100
AcDbSymbolTableRecord
100
AcDbLayerTableRecord
  2
可視
 70
     0
 62
     7
  6
Continuous
370
    50
390
F
347
21
348
0
  0
LAYER
  5
1F1
330
2
100
AcDbSymbolTableRecord
100
AcDbLayerTableRecord
  2
Border
 70
     0
 62
     7
  6
Continuous
370
    25
390
F
347
21
348
0
1001
AcAecLayerStandard
1000

1000

1001
AcCmTransparency
1071
        0
  0
LAYER
  5
23A
330
2
100
AcDbSymbolTableRecord
100
AcDbLayerTableRecord
  2
TitleBlock
 70
     0
 62
     7
  6
Continuous
370
    35
390
F
347
21
348
0
1001
AcAecLayerStandard
1000

1000

1001
AcCmTransparency
1071
        0
  0
LAYER
  5
455
102
{ACAD_XDICTIONARY
360
456
102
}
330
2
100
AcDbSymbolTableRecord
100
AcDbLayerTableRecord
  2
1：主線
 70
     0
 62
     7
  6
Continuous
370
    -3
390
F
347
21
348
0
  0
LAYER
  5
457
102
{ACAD_XDICTIONARY
360
458
102
}
330
2
100
AcDbSymbolTableRecord
100
AcDbLayerTableRecord
  2
7：文字
 70
     0
 62
     2
  6
Continuous
370
    -3
390
F
347
21
348
0
  0
LAYER
  5
4B5
330
2
100
AcDbSymbolTableRecord
100
AcDbLayerTableRecord
  2
細線
 70
     0
 62
     7
  6
Continuous
370
    35
390
F
347
21
348
0
  0
ENDTAB
  0
TABLE
  2
STYLE
  5
3
330
0
100
AcDbSymbolTable
 70
     3
  0
STYLE
  5
55
330
3
100
AcDbSymbolTableRecord
100
AcDbTextStyleTableRecord
  2
Standard
 70
     0
 40
0.0
 41
1.0
 50
0.0
 71
     0
 42
3.5
  3
arial.ttf
  4

1001
ACAD
1000
Arial
1071
       34
  0
STYLE
  5
5A
330
3
100
AcDbSymbolTableRecord
100
AcDbTextStyleTableRecord
  2
Annotative
 70
     0
 40
0.0
 41
1.0
 50
0.0
 71
     0
 42
0.2
  3
txt
  4

1001
AcadAnnotative
1000
AnnotativeData
1002
{
1070
     1
1070
     1
1002
}
  0
STYLE
  5
7A
330
3
100
AcDbSymbolTableRecord
100
AcDbTextStyleTableRecord
  2
FusionTitle
 70
     0
 40
0.0
 41
1.0
 50
0.0
 71
     0
 42
2.5
  3
arial.ttf
  4

1001
ACAD
1000
Arial
1071
       34
  0
ENDTAB
  0
TABLE
  2
VIEW
  5
6
330
0
100
AcDbSymbolTable
 70
     0
  0
ENDTAB
  0
TABLE
  2
UCS
  5
7
330
0
100
AcDbSymbolTable
 70
     0
  0
ENDTAB
  0
TABLE
  2
APPID
  5
9
330
0
100
AcDbSymbolTable
 70
    13
  0
APPID
  5
56
330
9
100
AcDbSymbolTableRecord
100
AcDbRegAppTableRecord
  2
ACAD
 70
     0
  0
APPID
  5
5E
330
9
100
AcDbSymbolTableRecord
100
AcDbRegAppTableRecord
  2
AcadAnnotative
 70
     0
  0
APPID
  5
78
330
9
100
AcDbSymbolTableRecord
100
AcDbRegAppTableRecord
  2
ACAD_PSEXT
 70
     0
  0
APPID
  5
7C
330
9
100
AcDbSymbolTableRecord
100
AcDbRegAppTableRecord
  2
ACAD_DSTYLE_DIMJAG
 70
     0
  0
APPID
  5
7D
330
9
100
AcDbSymbolTableRecord
100
AcDbRegAppTableRecord
  2
ACAD_DSTYLE_DIMTALN
 70
     0
  0
APPID
  5
80
330
9
100
AcDbSymbolTableRecord
100
AcDbRegAppTableRecord
  2
ACAD_DSTYLE_DIMBREAK
 70
     0
  0
APPID
  5
1F2
330
9
100
AcDbSymbolTableRecord
100
AcDbRegAppTableRecord
  2
AcAecLayerStandard
 70
     0
  0
APPID
  5
1F3
330
9
100
AcDbSymbolTableRecord
100
AcDbRegAppTableRecord
  2
AcCmTransparency
 70
     0
  0
APPID
  5
238
330
9
100
AcDbSymbolTableRecord
100
AcDbRegAppTableRecord
  2
AcDbDynamicBlockGUID
 70
     0
  0
APPID
  5
275
330
9
100
AcDbSymbolTableRecord
100
AcDbRegAppTableRecord
  2
FusionTitleBlock
 70
     0
  0
APPID
  5
2E3
330
9
100
AcDbSymbolTableRecord
100
AcDbRegAppTableRecord
  2
AcadAnnoPO
 70
     0
  0
APPID
  5
459
330
9
100
AcDbSymbolTableRecord
100
AcDbRegAppTableRecord
  2
ACAD_NAV_VCDISPLAY
 70
     0
  0
APPID
  5
465
330
9
100
AcDbSymbolTableRecord
100
AcDbRegAppTableRecord
  2
ACAD_EXEMPT_FROM_CAD_STANDARDS
 70
     0
  0
ENDTAB
  0
TABLE
  2
DIMSTYLE
  5
A
330
0
100
AcDbSymbolTable
 70
     3
100
AcDbDimStyleTable
 71
     1
340
7F
  0
DIMSTYLE
105
58
330
A
100
AcDbSymbolTableRecord
100
AcDbDimStyleTableRecord
  2
Standard
 70
     0
 43
9.899494936611663
 78
    12
 79
     3
140
3.5
179
     2
271
     2
272
     2
284
    12
285
    12
286
    12
340
55
  0
DIMSTYLE
105
59
330
A
100
AcDbSymbolTableRecord
100
AcDbDimStyleTableRecord
  2
Annotative
 70
     0
 40
0.0
 41
2.5
 42
0.625
 43
9.899494936611663
 44
1.25
 73
     0
 74
     0
 77
     1
 78
    12
 79
     3
140
3.5
141
2.5
143
0.03937007874016
147
0.625
171
     3
172
     1
179
     2
271
     2
272
     2
274
     3
278
    44
283
     0
284
    12
285
    12
286
    12
340
55
1001
AcadAnnotative
1000
AnnotativeData
1002
{
1070
     1
1070
     1
1002
}
  0
DIMSTYLE
105
7F
330
A
100
AcDbSymbolTableRecord
100
AcDbDimStyleTableRecord
  2
ISO-25
 70
     0
  4
in
 41
3.5
 42
2.0
 43
9.899494936611663
 44
2.0
 47
0.1
 48
0.1000000001
 73
     0
 74
     0
 77
     1
 78
    12
 79
     3
140
3.5
141
0.0
143
0.0393701
146
0.7140000000000001
147
1.5
171
     4
172
     1
176
   256
177
   256
178
   256
179
     2
271
     2
272
     2
274
     4
283
     0
284
    12
285
    12
286
    12
340
55
1001
ACAD_DSTYLE_DIMBREAK
1070
   391
1040
3.5
1001
ACAD_DSTYLE_DIMJAG
1070
   388
1040
1.5
1001
ACAD_DSTYLE_DIMTALN
1070
   392
1070
     1
  0
ENDTAB
  0
TABLE
  2
BLOCK_RECORD
  5
1
330
0
100
AcDbSymbolTable
 70
     6
  0
BLOCK_RECORD
  5
70
102
{ACAD_XDICTIONARY
360
81
102
}
330
1
100
AcDbSymbolTableRecord
100
AcDbBlockTableRecord
  2
*Model_Space
340
73
 70
     0
280
     1
281
     0
  0
BLOCK_RECORD
  5
6C
330
1
100
AcDbSymbolTableRecord
100
AcDbBlockTableRecord
  2
*Paper_Space
340
6F
 70
     0
280
     1
281
     0
  0
BLOCK_RECORD
  5
74
330
1
100
AcDbSymbolTableRecord
100
AcDbBlockTableRecord
  2
*Paper_Space0
340
77
 70
     0
280
     1
281
     0
  0
BLOCK_RECORD
  5
85
330
1
100
AcDbSymbolTableRecord
100
AcDbBlockTableRecord
  2
CustomObjectsInViewport3_0
340
0
102
{BLKREFS
331
4B7
102
}
 70
     0
280
     1
281
     0
  0
BLOCK_RECORD
  5
1F4
102
{ACAD_XDICTIONARY
360
1F5
102
}
330
1
100
AcDbSymbolTableRecord
100
AcDbBlockTableRecord
  2
ISO_A3_SHEET
340
0
310
2800000020000000200000000100080000000000000400000000000000000000000000000000000000000000000080000080000000808000800000008000800080800000C0C0C000C0DCC000F0CAA6000020400000206000002080000020A0000020C0000020E00000400000004020000040400000406000004080000040A0
310
000040C0000040E00000600000006020000060400000606000006080000060A0000060C0000060E00000800000008020000080400000806000008080000080A0000080C0000080E00000A0000000A0200000A0400000A0600000A0800000A0A00000A0C00000A0E00000C0000000C0200000C0400000C0600000C0800000C0
310
A00000C0C00000C0E00000E0000000E0200000E0400000E0600000E0800000E0A00000E0C00000E0E00040000000400020004000400040006000400080004000A0004000C0004000E00040200000402020004020400040206000402080004020A0004020C0004020E000404000004040200040404000404060004040800040
310
40A0004040C0004040E00040600000406020004060400040606000406080004060A0004060C0004060E00040800000408020004080400040806000408080004080A0004080C0004080E00040A0000040A0200040A0400040A0600040A0800040A0A00040A0C00040A0E00040C0000040C0200040C0400040C0600040C08000
310
40C0A00040C0C00040C0E00040E0000040E0200040E0400040E0600040E0800040E0A00040E0C00040E0E00080000000800020008000400080006000800080008000A0008000C0008000E00080200000802020008020400080206000802080008020A0008020C0008020E00080400000804020008040400080406000804080
310
008040A0008040C0008040E00080600000806020008060400080606000806080008060A0008060C0008060E00080800000808020008080400080806000808080008080A0008080C0008080E00080A0000080A0200080A0400080A0600080A0800080A0A00080A0C00080A0E00080C0000080C0200080C0400080C0600080C0
310
800080C0A00080C0C00080C0E00080E0000080E0200080E0400080E0600080E0800080E0A00080E0C00080E0E000C0000000C0002000C0004000C0006000C0008000C000A000C000C000C000E000C0200000C0202000C0204000C0206000C0208000C020A000C020C000C020E000C0400000C0402000C0404000C0406000C0
310
408000C040A000C040C000C040E000C0600000C0602000C0604000C0606000C0608000C060A000C060C000C060E000C0800000C0802000C0804000C0806000C0808000C080A000C080C000C080E000C0A00000C0A02000C0A04000C0A06000C0A08000C0A0A000C0A0C000C0A0E000C0C00000C0C02000C0C04000C0C06000
310
C0C08000C0C0A000F0FBFF00A4A0A000808080000000FF0000FF000000FFFF00FF000000FF00FF00FFFF0000FFFFFF0049494949494949494949494949494949494949494949494949494949494949494949494949494949494949494949494949494949494949494949494949494949494949494949494949494949494949
310
494949494949494949494949494949494949494949494949494949494949494949494949494949494949494949494949494949494949494949494949494949494949494949494949494949494949494949494949494949494949494949494949494949494949494949494949494949494949FFFFFFFFFFFFFFFFFFFFFFFFFF
310
FFFFFFFFFFFFFFFFFFFFFFFFFFFFFFFFFF4949FF49FF494949494949494949494949FF494949494949494949494949FFFF49494949FF49494949494949494949494949494949494949494949494949FF49494949FFFF49494949494949494949494949494949494949494949494949FF4949494949FF494949494949494949
310
49494949494949494949494949494949FF4949494949FF49494949494949494949494949494949494949494949494949FF49494949FFFF49494949494949494949494949494949494949494949494949FF4949494949FF49494949494949494949494949494949494949494949494949FF4949494949FF4949494949494949
310
4949494949494949494949494949494949FF4949494949FF49494949494949494949494949494949494949494949494949FF49494949FFFF49494949494949494949494949494949494949494949494949FF4949494949FF49494949494949494949494949494949494949494949494949FF4949494949FF49494949494949
310
494949494949494949494949494949494949FF49494949FFFF49494949494949494949494949494949494949494949494949FF4949494949FF49494949494949494949494949494949494949494949494949FF4949494949FF49494949494949494949494949494949494949494949494949FF49494949FFFF494949494949
310
49494949494949494949494949494949494949FF4949494949FF49494949494949494949494949494949494949494949494949FF494949FF49FF494949494949494949494949FF494949494949494949494949FFFF4949FFFFFFFFFFFFFFFFFFFFFFFFFFFFFFFFFFFFFFFFFFFFFFFFFFFFFFFFFFFF49494949494949494949
310
49494949494949494949494949494949494949494949494949494949494949494949494949494949494949494949494949494949494949494949494949494949494949494949494949494949494949494949494949494949494949494949494949494949494949494949494949494949494949494949494949494949494949
310
4949494949494949494949494949494949494949494949494949494949494949494949494949494949494949494949494949494949494949
 70
     4
280
     1
281
     0
1001
AcDbDynamicBlockGUID
1000
{B4874B5E-8040-BF49-A9B6-B81412F7B0AC}
  0
BLOCK_RECORD
  5
23B
102
{ACAD_XDICTIONARY
360
23C
102
}
330
1
100
AcDbSymbolTableRecord
100
AcDbBlockTableRecord
  2
ISO_TITLEBLOCK
340
0
310
2800000020000000200000000100080000000000000400000000000000000000000000000000000000000000000080000080000000808000800000008000800080800000C0C0C000C0DCC000F0CAA6000020400000206000002080000020A0000020C0000020E00000400000004020000040400000406000004080000040A0
310
000040C0000040E00000600000006020000060400000606000006080000060A0000060C0000060E00000800000008020000080400000806000008080000080A0000080C0000080E00000A0000000A0200000A0400000A0600000A0800000A0A00000A0C00000A0E00000C0000000C0200000C0400000C0600000C0800000C0
310
A00000C0C00000C0E00000E0000000E0200000E0400000E0600000E0800000E0A00000E0C00000E0E00040000000400020004000400040006000400080004000A0004000C0004000E00040200000402020004020400040206000402080004020A0004020C0004020E000404000004040200040404000404060004040800040
310
40A0004040C0004040E00040600000406020004060400040606000406080004060A0004060C0004060E00040800000408020004080400040806000408080004080A0004080C0004080E00040A0000040A0200040A0400040A0600040A0800040A0A00040A0C00040A0E00040C0000040C0200040C0400040C0600040C08000
310
40C0A00040C0C00040C0E00040E0000040E0200040E0400040E0600040E0800040E0A00040E0C00040E0E00080000000800020008000400080006000800080008000A0008000C0008000E00080200000802020008020400080206000802080008020A0008020C0008020E00080400000804020008040400080406000804080
310
008040A0008040C0008040E00080600000806020008060400080606000806080008060A0008060C0008060E00080800000808020008080400080806000808080008080A0008080C0008080E00080A0000080A0200080A0400080A0600080A0800080A0A00080A0C00080A0E00080C0000080C0200080C0400080C0600080C0
310
800080C0A00080C0C00080C0E00080E0000080E0200080E0400080E0600080E0800080E0A00080E0C00080E0E000C0000000C0002000C0004000C0006000C0008000C000A000C000C000C000E000C0200000C0202000C0204000C0206000C0208000C020A000C020C000C020E000C0400000C0402000C0404000C0406000C0
310
408000C040A000C040C000C040E000C0600000C0602000C0604000C0606000C0608000C060A000C060C000C060E000C0800000C0802000C0804000C0806000C0808000C080A000C080C000C080E000C0A00000C0A02000C0A04000C0A06000C0A08000C0A0A000C0A0C000C0A0E000C0C00000C0C02000C0C04000C0C06000
310
C0C08000C0C0A000F0FBFF00A4A0A000808080000000FF0000FF000000FFFF00FF000000FF00FF00FFFF0000FFFFFF0049494949494949494949494949494949494949494949494949494949494949494949494949494949494949494949494949494949494949494949494949494949494949494949494949494949494949
310
49494949494949494949494949494949494949494949494949494949494949494949494949494949494949494949494949494949494949494949494949494949494949494949494949494949494949494949494949494949494949494949494949494949494949494949494949494949494949494949494949494949494949
310
49494949494949494949494949494949494949494949494949494949494949494949494949494949494949494949494949494949494949494949494949494949494949494949494949494949494949494949494949494949494949494949494949494949494949494949494949494949494949494949494949494949494949
310
49494949494949494949494949494949494949494949494949494949494949494949494949494949494949494949494949494949FFFFFFFFFFFFFFFFFFFFFFFFFFFFFFFFFFFFFFFFFFFFFFFFFFFFFF4949494949FF4949494949494949FFFFFFFFFF49494949FFFFFFFFFFFFFFFFFFFF49494949FF4949494949494949FFFF
310
FFFFFF494949FFFFFFFFFFFFFFFFFFFF4949494949FF4949494949494949FFFFFFFFFF494949FFFFFFFFFFFFFFFFFFFF4949494949FF4949494949494949FFFFFFFFFFFFFFFFFFFFFFFFFFFFFFFFFFFF4949494949FFFFFFFFFFFFFFFFFFFFFFFFFFFFFFFFFFFFFFFFFFFFFFFFFFFFFF4949494949FFFFFF49FFFFFFFFFFFF
310
FFFFFFFFFFFFFFFFFFFFFFFFFFFFFFFFFFFFFFFF4949FFFFFFFFFFFFFFFFFFFFFFFFFFFFFFFFFFFFFFFFFFFFFFFFFFFFFF494949494949494949494949494949494949494949494949494949494949494949494949494949494949494949494949494949494949494949494949494949494949494949494949494949494949
310
49494949494949494949494949494949494949494949494949494949494949494949494949494949494949494949494949494949494949494949494949494949494949494949494949494949494949494949494949494949494949494949494949494949494949494949494949494949494949494949494949494949494949
310
49494949494949494949494949494949494949494949494949494949494949494949494949494949494949494949494949494949494949494949494949494949494949494949494949494949494949494949494949494949494949494949494949494949494949494949494949494949494949494949494949494949494949
310
4949494949494949494949494949494949494949494949494949494949494949494949494949494949494949494949494949494949494949
 70
     4
280
     1
281
     0
1001
AcDbDynamicBlockGUID
1000
{4E801ACD-8F25-234B-AE99-A1285D258BA6}
1001
FusionTitleBlock
1000
TitleBlock
  0
BLOCK_RECORD
  5
44F
330
1
100
AcDbSymbolTableRecord
100
AcDbBlockTableRecord
  2
_OPEN
340
0
 70
     0
280
     1
281
     0
  0
BLOCK_RECORD
  5
4B6
102
{ACAD_XDICTIONARY
360
4B8
102
}
330
1
100
AcDbSymbolTableRecord
100
AcDbBlockTableRecord
  2
A$C1A8649A0
340
0
 70
     4
280
     1
281
     0
  0
ENDTAB
  0
ENDSEC
  0
SECTION
  2
BLOCKS
  0
BLOCK
  5
71
330
70
100
AcDbEntity
  8
0
100
AcDbBlockBegin
  2
*Model_Space
 70
     0
 10
0.0
 20
0.0
 30
0.0
  3
*Model_Space
  1

  0
ENDBLK
  5
72
330
70
100
AcDbEntity
  8
0
100
AcDbBlockEnd
  0
BLOCK
  5
6D
330
6C
100
AcDbEntity
 67
     1
  8
0
100
AcDbBlockBegin
  2
*Paper_Space
 70
     0
 10
0.0
 20
0.0
 30
0.0
  3
*Paper_Space
  1

  0
ENDBLK
  5
6E
330
6C
100
AcDbEntity
 67
     1
  8
0
100
AcDbBlockEnd
  0
BLOCK
  5
75
330
74
100
AcDbEntity
 67
     1
  8
0
100
AcDbBlockBegin
  2
*Paper_Space0
 70
     0
 10
0.0
 20
0.0
 30
0.0
  3
*Paper_Space0
  1

  0
ENDBLK
  5
76
330
74
100
AcDbEntity
 67
     1
  8
0
100
AcDbBlockEnd
  0
BLOCK
  5
86
330
85
100
AcDbEntity
  8
0
100
AcDbBlockBegin
  2
CustomObjectsInViewport3_0
 70
     0
 10
0.0
 20
0.0
 30
0.0
  3
CustomObjectsInViewport3_0
  1

  0
SPLINE
  5
87
330
85
100
AcDbEntity
  8
可視
100
AcDbSpline
210
0.0
220
0.0
230
1.0
 70
     8
 71
     3
 72
     8
 73
     4
 74
     0
 42
0.000000001
 43
0.0000000001
 40
0.3488181591977377
 40
0.3488181591977377
 40
0.3488181591977377
 40
0.3488181591977377
 40
0.3488269394648309
 40
0.3488269394648309
 40
0.3488269394648309
 40
0.3488269394648309
 10
260.7577178465356
 20
159.6399148818836
 30
0.0000000000004547
 10
260.7577193798795
 20
159.639920184454
 30
0.0000000000004547
 10
260.7577209129756
 20
159.639925487044
 30
0.0000000000004547
 10
260.7577224458225
 20
159.6399307896538
 30
0.0000000000004547
  0
SPLINE
  5
89
330
85
100
AcDbEntity
  8
可視
100
AcDbSpline
210
0.0
220
0.0
230
1.0
 70
     8
 71
     3
 72
    38
 73
    34
 74
     0
 42
0.000000001
 43
0.0000000001
 40
0.0001322624964782
 40
0.0001322624964782
 40
0.0001322624964782
 40
0.0001322624964782
 40
0.4153352704198865
 40
0.4153352704198865
 40
0.8446094214425887
 40
0.8446094214425887
 40
1.137367758176752
 40
1.137367758176752
 40
1.534642794633341
 40
1.534642794633341
 40
1.764587992039392
 40
1.764587992039392
 40
2.385899905555318
 40
2.385899905555318
 40
2.74432916035296
 40
2.74432916035296
 40
3.155289900672166
 40
3.155289900672166
 40
3.566250649641352
 40
3.566250649641352
 40
3.924679910116918
 40
3.924679910116918
 40
4.545991827710117
 40
4.545991827710117
 40
4.775937025115561
 40
4.775937025115561
 40
5.173212058130715
 40
5.173212058130715
 40
5.465970392572531
 40
5.465970392572531
 40
5.895244555077862
 40
5.895244555077862
 40
6.310447207795764
 40
6.310447207795764
 40
6.310447207795764
 40
6.310447207795764
 10
193.4468901259934
 20
160.9906698326004
 30
0.0000000000004547
 10
193.6029028817263
 20
161.038565006517
 30
0.0000000000004547
 10
193.7693144780467
 20
161.0863526647343
 30
0.0000000000004547
 10
194.1279036167584
 20
161.1825591819423
 30
0.0000000000004547
 10
194.3205437638814
 20
161.2309335527887
 30
0.0000000000004547
 10
194.6608603323745
 20
161.3115821466983
 30
0.0000000000004547
 10
194.8032650188368
 20
161.3439913239223
 30
0.0000000000004547
 10
195.1488240376388
 20
161.419377638598
 30
0.0000000000004547
 10
195.3553297983119
 20
161.4619269079994
 30
0.0000000000004547
 10
195.6923110441228
 20
161.5280973747362
 30
0.0000000000004547
 10
195.8181206942595
 20
161.5521373100639
 30
0.0000000000004547
 10
196.29184779971
 20
161.6398970995233
 30
0.0000000000004547
 10
196.6527670891118
 20
161.701106552814
 30
0.0000000000004547
 10
197.2416602560897
 20
161.7939383412694
 30
0.0000000000004547
 10
197.4610403000174
 20
161.8270356943685
 30
0.0000000000004547
 10
197.9393786724145
 20
161.8955050080466
 30
0.0000000000004547
 10
198.1991157075081
 20
161.9304334827046
 30
0.0000000000004547
 10
198.725417923693
 20
161.9977107583521
 30
0.0000000000004547
 10
198.9917234126806
 20
162.0300263612727
 30
0.0000000000004547
 10
199.4947768931038
 20
162.0870084840497
 30
0.0000000000004547
 10
199.730701270292
 20
162.1121127492412
 30
0.0000000000004547
 10
200.3783351756136
 20
162.1773463683221
 30
0.0000000000004547
 10
200.791268700513
 20
162.2150586168959
 30
0.0000000000004547
 10
201.3562140288286
 20
162.2600724459756
 30
0.0000000000004547
 10
201.5086357843163
 20
162.2715988630514
 30
0.0000000000004547
 10
201.9234705614883
 20
162.3015331221044
 30
0.0000000000004547
 10
202.1850136632309
 20
162.3188145858353
 30
0.0000000000004547
 10
202.6359451474691
 20
162.3452437417796
 30
0.0000000000004547
 10
202.8260787449597
 20
162.3553429738564
 30
0.0000000000004547
 10
203.2913447105912
 20
162.3776721089896
 30
0.0000000000004547
 10
203.5644775421836
 20
162.388837580676
 30
0.0000000000004547
 10
204.0931826569911
 20
162.4060540757698
 30
0.0000000000004547
 10
204.3487440732533
 20
162.4122073355201
 30
0.0000000000004547
 10
204.5990936327882
 20
162.4162575574017
 30
0.0000000000004547
  0
SPLINE
  5
8A
330
85
100
AcDbEntity
  8
可視
100
AcDbSpline
210
0.0
220
0.0
230
1.0
 70
     8
 71
     3
 72
    22
 73
    18
 74
     0
 42
0.000000001
 43
0.0000000001
 40
0.0001322740050139
 40
0.0001322740050139
 40
0.0001322740050139
 40
0.0001322740050139
 40
4.502497325352242
 40
4.502497325352242
 40
8.799195149622175
 40
8.799195149622175
 40
11.58898387154243
 40
11.58898387154243
 40
15.2636060074526
 40
15.2636060074526
 40
18.93822817306503
 40
18.93822817306503
 40
21.72801690366371
 40
21.72801690366371
 40
26.02471473144971
 40
26.02471473144971
 40
30.52707974603914
 40
30.52707974603914
 40
30.52707974603914
 40
30.52707974603914
 10
163.4073440702302
 20
150.3971049729533
 30
0.0000000000004547
 10
164.6610408262331
 20
150.9164696874316
 30
0.0000000000004547
 10
165.9486917327576
 20
151.4358064213906
 30
0.0000000000004547
 10
168.5312070883331
 20
152.4533677395717
 30
0.0000000000004547
 10
169.8225872032687
 20
152.9509110804559
 30
0.0000000000004547
 10
172.0023646048255
 20
153.7709325974828
 30
0.0000000000004547
 10
172.8731541278491
 20
154.093790088098
 30
0.0000000000004547
 10
174.9201013289876
 20
154.8424043297815
 30
0.0000000000004547
 10
176.1053438055915
 20
155.268290438325
 30
0.0000000000004547
 10
178.5190240832926
 20
156.1194843512059
 30
0.0000000000004547
 10
179.7474293864104
 20
156.5447806948292
 30
0.0000000000004547
 10
181.9460667413684
 20
157.2933886651925
 30
0.0000000000004547
 10
182.9071378019894
 20
157.6165440654001
 30
0.0000000000004547
 10
185.3793564035347
 20
158.4370673616645
 30
0.0000000000004547
 10
186.9070450089764
 20
158.9336797638127
 30
0.0000000000004547
 10
190.0938898160111
 20
159.950706146518
 30
0.0000000000004547
 10
191.755123444688
 20
160.4713052171939
 30
0.0000000000004547
 10
193.4468901084553
 20
160.9906698622856
 30
0.0000000000004547
  0
SPLINE
  5
8B
330
85
100
AcDbEntity
  8
可視
100
AcDbSpline
210
0.0
220
0.0
230
1.0
 70
     8
 71
     3
 72
    18
 73
    14
 74
     0
 42
0.000000001
 43
0.0000000001
 40
4.06382519051804
 40
4.06382519051804
 40
4.06382519051804
 40
4.06382519051804
 40
4.545964490578406
 40
4.545964490578406
 40
4.775909675694348
 40
4.775909675694348
 40
5.173184689305556
 40
5.173184689305556
 40
5.4659430074915
 40
5.4659430074915
 40
5.8952171268079
 40
5.8952171268079
 40
6.310420118274095
 40
6.310420118274095
 40
6.310420118274095
 40
6.310420118274095
 10
162.6010940898557
 20
149.6677272671135
 30
0.0000000000004547
 10
162.5798110232851
 20
149.7143318712791
 30
0.0000000000004547
 10
162.5756285734624
 20
149.7627039581048
 30
0.0000000000004547
 10
162.5948241267947
 20
149.8358101683872
 30
0.0000000000004547
 10
162.6049229843463
 20
149.8596989067501
 30
0.0000000000004547
 10
162.6430587766342
 20
149.9258149502282
 30
0.0000000000004547
 10
162.6787842086276
 20
149.9686894712633
 30
0.0000000000004547
 10
162.7608120110494
 20
150.0440933428647
 30
0.0000000000004547
 10
162.8018334883543
 20
150.0763701284459
 30
0.0000000000004547
 10
162.9181683402171
 20
150.1567614638445
 30
0.0000000000004547
 10
163.0004692076516
 20
150.2053461272351
 30
0.0000000000004547
 10
163.1877157392992
 20
150.3016307146797
 30
0.0000000000004547
 10
163.291729649653
 20
150.349209679498
 30
0.0000000000004547
 10
163.4073441069211
 20
150.3971049168111
 30
0.0000000000004547
  0
SPLINE
  5
8C
330
85
100
AcDbEntity
  8
可視
100
AcDbSpline
210
0.0
220
0.0
230
1.0
 70
     8
 71
     3
 72
    30
 73
    26
 74
     0
 42
0.000000001
 43
0.0000000001
 40
0.0001054829471863
 40
0.0001054829471863
 40
0.0001054829471863
 40
0.0001054829471863
 40
0.4153323173560059
 40
0.4153323173560059
 40
0.8446031081916657
 40
0.8446031081916657
 40
1.137359011418342
 40
1.137359011418342
 40
1.534630597557899
 40
1.534630597557899
 40
1.764573730987926
 40
1.764573730987926
 40
2.385879924977514
 40
2.385879924977514
 40
2.744305809136998
 40
2.744305809136998
 40
3.155262660815893
 40
3.155262660815893
 40
3.566223377197365
 40
3.566223377197365
 40
3.924652610199051
 40
3.924652610199051
 40
4.545964483298743
 40
4.545964483298743
 40
4.566380221521336
 40
4.566380221521336
 40
4.566380221521336
 40
4.566380221521336
 10
257.4317616773283
 20
162.4162575704067
 30
0.0000000000004547
 10
257.6591548807821
 20
162.4122071172561
 30
0.0000000000004547
 10
257.8792218358594
 20
162.406053361035
 30
0.0000000000004547
 10
258.3105246874607
 20
162.3888359004043
 30
0.0000000000004547
 10
258.5209473870423
 20
162.3776702880602
 30
0.0000000000004547
 10
258.8588221793548
 20
162.3553409676011
 30
0.0000000000004547
 10
258.9912913811641
 20
162.3452416705435
 30
0.0000000000004547
 10
259.29238299301
 20
162.3188124158855
 30
0.0000000000004547
 10
259.4568667718657
 20
162.3015309395598
 30
0.0000000000004547
 10
259.7017735052493
 20
162.2715967483435
 30
0.0000000000004547
 10
259.7883824590279
 20
162.2600703607524
 30
0.0000000000004547
 10
260.0969690927436
 20
162.2150566814801
 30
0.0000000000004547
 10
260.298088591066
 20
162.1773446312839
 30
0.0000000000004547
 10
260.5748546143684
 20
162.1121114810651
 30
0.0000000000004547
 10
260.6674783601052
 20
162.0870074056006
 30
0.0000000000004547
 10
260.8473669935481
 20
162.0300257536161
 30
0.0000000000004547
 10
260.9317419588411
 20
161.9977104409875
 30
0.0000000000004547
 10
261.0764951049914
 20
161.9304334823399
 30
0.0000000000004547
 10
261.1368016351171
 20
161.8955050063051
 30
0.0000000000004547
 10
261.2268322954112
 20
161.8270356910668
 30
0.0000000000004547
 10
261.2594340523997
 20
161.793938337715
 30
0.0000000000004547
 10
261.3227581538752
 20
161.7011065529519
 30
0.0000000000004547
 10
261.3344759917581
 20
161.6398971045335
 30
0.0000000000004547
 10
261.3172013255976
 20
161.5737386141273
 30
0.0000000000004547
 10
261.3166210457573
 20
161.571631234905
 30
0.0000000000004547
 10
261.3160100587227
 20
161.5695213042388
 30
0.0000000000004547
  0
SPLINE
  5
8D
330
85
100
AcDbEntity
  8
可視
100
AcDbSpline
210
0.0
220
0.0
230
1.0
 70
     8
 71
     3
 72
    22
 73
    18
 74
     0
 42
0.000000001
 43
0.0000000001
 40
0.0001319786183733
 40
0.0001319786183733
 40
0.0001319786183733
 40
0.0001319786183733
 40
4.502497670047349
 40
4.502497670047349
 40
8.799196552250547
 40
8.799196552250547
 40
11.58898585964974
 40
11.58898585964974
 40
15.26360877993516
 40
15.26360877993516
 40
18.93822563838964
 40
18.93822563838964
 40
21.72801021796301
 40
21.72801021796301
 40
26.02470144322307
 40
26.02470144322307
 40
30.5270855525586
 40
30.5270855525586
 40
30.5270855525586
 40
30.5270855525586
 10
204.5990935875966
 20
162.4162572634593
 30
0.0000000000004547
 10
207.3138297353955
 20
162.4601760386179
 30
0.0000000000004547
 10
210.0133282851534
 20
162.497009998707
 30
0.0000000000004547
 10
215.2585858203274
 20
162.5578605052553
 30
0.0000000000004547
 10
217.8047489181597
 20
162.5820091754057
 30
0.0000000000004547
 10
221.9788183245128
 20
162.6110817079221
 30
0.0000000000004547
 10
223.6154161935762
 20
162.6199866319
 30
0.0000000000004547
 10
227.3920441177474
 20
162.6351975104968
 30
0.0000000000004547
 10
229.5268003426347
 20
162.6398144812348
 30
0.0000000000004547
 10
233.7719065346391
 20
162.6398144827187
 30
0.0000000000004547
 10
235.8821993812646
 20
162.6351975283387
 30
0.0000000000004547
 10
239.5725742473278
 20
162.6199866995365
 30
0.0000000000004547
 10
241.1577960875777
 20
162.611081804298
 30
0.0000000000004547
 10
245.1655133181544
 20
162.5820093684461
 30
0.0000000000004547
 10
247.5774409454636
 20
162.5578607773292
 30
0.0000000000004547
 10
252.4791697572789
 20
162.4970102795183
 30
0.0000000000004547
 10
254.966092748183
 20
162.4601761791643
 30
0.0000000000004547
 10
257.4317616010692
 20
162.4162572463024
 30
0.0000000000004547
  0
SPLINE
  5
8E
330
85
100
AcDbEntity
  8
可視
100
AcDbSpline
210
0.0
220
0.0
230
1.0
 70
     8
 71
     3
 72
    14
 73
    10
 74
     0
 42
0.000000001
 43
0.0000000001
 40
-3.100860027593691
 40
-3.100860027593691
 40
-3.100860027593691
 40
-3.100860027593691
 40
-2.325742647938536
 40
-2.325742647938536
 40
-1.550540799203254
 40
-1.550540799203254
 40
-0.7754626321865367
 40
-0.7754626321865367
 40
-0.0000195036291632
 40
-0.0000195036291632
 40
-0.0000195036291632
 40
-0.0000195036291632
 10
256.4202694881422
 20
166.0099786111451
 30
0.0000000000004547
 10
256.8447714382844
 20
166.0024172464211
 30
0.0000000000004547
 10
257.2392594015939
 20
165.985941450822
 30
0.0000000000004547
 10
257.9566901598791
 20
165.9358351794253
 30
0.0000000000004547
 10
258.2777935089805
 20
165.9023315209523
 30
0.0000000000004547
 10
258.8353121150555
 20
165.819197027576
 30
0.0000000000004547
 10
259.0703681503085
 20
165.7697944061
 30
0.0000000000004547
 10
259.4462610079633
 20
165.6569343304302
 30
0.0000000000004547
 10
259.5860588609194
 20
165.5937947024064
 30
0.0000000000004547
 10
259.6757711733214
 20
165.52463979297
 30
0.0000000000004547
  0
SPLINE
  5
8F
330
85
100
AcDbEntity
  8
可視
100
AcDbSpline
210
0.0
220
0.0
230
1.0
 70
     8
 71
     3
 72
     8
 73
     4
 74
     0
 42
0.000000001
 43
0.0000000001
 40
0.5951174928297622
 40
0.5951174928297622
 40
0.5951174928297622
 40
0.5951174928297622
 40
1.0
 40
1.0
 40
1.0
 40
1.0
 10
197.6780220311048
 20
165.5135611265503
 30
0.0000000000004547
 10
197.6746750980212
 20
165.5160032885838
 30
0.0000000000004547
 10
197.671327961965
 20
165.518444401702
 30
0.0000000000004547
 10
197.6679806233205
 20
165.5208844664739
 30
0.0000000000004547
  0
SPLINE
  5
90
330
85
100
AcDbEntity
  8
可視
100
AcDbSpline
210
0.0
220
0.0
230
1.0
 70
     8
 71
     3
 72
    10
 73
     6
 74
     0
 42
0.000000001
 43
0.0000000001
 40
0.0004132957151008
 40
0.0004132957151008
 40
0.0004132957151008
 40
0.0004132957151008
 40
0.0242238185680218
 40
0.0242238185680218
 40
0.052460315168729
 40
0.052460315168729
 40
0.052460315168729
 40
0.052460315168729
 10
197.7201213582034
 20
165.5181123236371
 30
0.0000000000004547
 10
197.7121519161847
 20
165.5194754309515
 30
0.0000000000004547
 10
197.7042570048886
 20
165.5190007315555
 30
0.0000000000004547
 10
197.6868849062878
 20
165.5190316321616
 30
0.0000000000004547
 10
197.6773382233209
 20
165.519739008753
 30
0.0000000000004547
 10
197.6679806014781
 20
165.5208845088674
 30
0.0000000000004547
  0
LINE
  5
91
330
85
100
AcDbEntity
  8
可視
100
AcDbLine
 10
197.1889969578908
 20
165.7363407546921
 30
0.0000000000004547
 11
195.4207922096379
 21
165.1127763456246
 31
0.0000000000004547
210
0.0
220
1.0
230
0.0
  0
SPLINE
  5
92
330
85
100
AcDbEntity
  8
可視
100
AcDbSpline
210
0.0
220
0.0
230
1.0
 70
     8
 71
     3
 72
    10
 73
     6
 74
     0
 42
0.000000001
 43
0.0000000001
 40
-0.3727540082643099
 40
-0.3727540082643099
 40
-0.3727540082643099
 40
-0.3727540082643099
 40
-0.2010028838829041
 40
-0.2010028838829041
 40
-0.0016871858415886
 40
-0.0016871858415886
 40
-0.0016871858415886
 40
-0.0016871858415886
 10
197.0899944375139
 20
165.4237849191387
 30
0.0000000000004547
 10
197.1440799391894
 20
165.4997862282803
 30
0.0000000000004547
 10
197.1910051353697
 20
165.5727923387637
 30
0.0000000000004547
 10
197.2789215097207
 20
165.7209002335985
 30
0.0000000000004547
 10
197.3192698483065
 20
165.7970160231133
 30
0.0000000000004547
 10
197.3537912484896
 20
165.8683088369883
 30
0.0000000000004547
  0
SPLINE
  5
93
330
85
100
AcDbEntity
  8
可視
100
AcDbSpline
210
0.0
220
0.0
230
1.0
 70
     8
 71
     3
 72
    14
 73
    10
 74
     0
 42
0.000000001
 43
0.0000000001
 40
0.0000009955994357
 40
0.0000009955994357
 40
0.0000009955994357
 40
0.0000009955994357
 40
0.031385558012925
 40
0.031385558012925
 40
0.08624395457312
 40
0.08624395457312
 40
0.0865989145657922
 40
0.0865989145657922
 40
0.0874700607404521
 40
0.0874700607404521
 40
0.0874700607404521
 40
0.0874700607404521
 10
197.6679806188148
 20
165.5208845297288
 30
0.0000000000004547
 10
197.6878831418355
 20
165.5259492847569
 30
0.0000000000004547
 10
197.708124509557
 20
165.5317291360715
 30
0.0000000000004547
 10
197.7623204922522
 20
165.549516782813
 30
0.0000000000004547
 10
197.7804005424186
 20
165.5581512596755
 30
0.0000000000004547
 10
197.7846383326862
 20
165.5592002679845
 30
0.0000000000004547
 10
197.7846655356622
 20
165.5592068257083
 30
0.0000000000004547
 10
197.7847594665113
 20
165.5592288219538
 30
0.0000000000004547
 10
197.7848246635171
 20
165.5592429523186
 30
0.0000000000004547
 10
197.7851704762979
 20
165.559848783911
 30
0.0000000000004547
  0
SPLINE
  5
94
330
85
100
AcDbEntity
  8
可視
100
AcDbSpline
210
0.0
220
0.0
230
1.0
 70
     8
 71
     3
 72
     8
 73
     4
 74
     0
 42
0.000000001
 43
0.0000000001
 40
0.2920595800633562
 40
0.2920595800633562
 40
0.2920595800633562
 40
0.2920595800633562
 40
0.2925472897789367
 40
0.2925472897789367
 40
0.2925472897789367
 40
0.2925472897789367
 10
185.3488964384348
 20
169.83648420623
 30
0.0000000000004547
 10
185.3517863926681
 20
169.8365878427637
 30
0.0000000000004547
 10
185.3546764174787
 20
169.8366907430275
 30
0.0000000000004547
 10
185.3575665128653
 20
169.8367929070215
 30
0.0000000000004547
  0
SPLINE
  5
95
330
85
100
AcDbEntity
  8
可視
100
AcDbSpline
210
0.0
220
0.0
230
1.0
 70
     8
 71
     3
 72
    18
 73
    14
 74
     0
 42
0.000000001
 43
0.0000000001
 40
0.001683408472602
 40
0.001683408472602
 40
0.001683408472602
 40
0.001683408472602
 40
0.0227120863985236
 40
0.0227120863985236
 40
0.0369549023659376
 40
0.0369549023659376
 40
0.050620617988196
 40
0.050620617988196
 40
0.067527299089957
 40
0.067527299089957
 40
0.0916732799407381
 40
0.0916732799407381
 40
0.1421326620982503
 40
0.1421326620982503
 40
0.1421326620982503
 40
0.1421326620982503
 10
197.3537912484898
 20
165.8683088369885
 30
0.0000000000004547
 10
197.349970190445
 20
165.8606424327933
 30
0.0000000000004547
 10
197.3449435147511
 20
165.8520244401486
 30
0.0000000000004547
 10
197.3337953006739
 20
165.8364210663056
 30
0.0000000000004547
 10
197.3285564156799
 20
165.8298153734383
 30
0.0000000000004547
 10
197.3166343634509
 20
165.8164884845462
 30
0.0000000000004547
 10
197.3103500172308
 20
165.8101539059219
 30
0.0000000000004547
 10
197.2954223510132
 20
165.7964928429188
 30
0.0000000000004547
 10
197.2870918363005
 20
165.7897614455064
 30
0.0000000000004547
 10
197.2675691672727
 20
165.7753530998804
 30
0.0000000000004547
 10
197.256437762747
 20
165.7683261042923
 30
0.0000000000004547
 10
197.225420051926
 20
165.7506068852534
 30
0.0000000000004547
 10
197.2056338453517
 20
165.7422078189572
 30
0.0000000000004547
 10
197.1889969578846
 20
165.7363407546868
 30
0.0000000000004547
  0
SPLINE
  5
96
330
85
100
AcDbEntity
  8
可視
100
AcDbSpline
210
0.0
220
0.0
230
1.0
 70
     8
 71
     3
 72
    14
 73
    10
 74
     0
 42
0.000000001
 43
0.0000000001
 40
-3.101012085408658
 40
-3.101012085408658
 40
-3.101012085408658
 40
-3.101012085408658
 40
-2.325532989972495
 40
-2.325532989972495
 40
-1.550418873101086
 40
-1.550418873101086
 40
-0.7751810685064769
 40
-0.7751810685064769
 40
-0.0000276984423399
 40
-0.0000276984423399
 40
-0.0000276984423399
 40
-0.0000276984423399
 10
197.7547586893959
 20
165.5246397510651
 30
0.0000000000004547
 10
198.2364377839092
 20
165.5937946660192
 30
0.0000000000004547
 10
198.734869064335
 20
165.6569342992345
 30
0.0000000000004547
 10
199.75089469661
 20
165.7697943844461
 30
0.0000000000004547
 10
200.2657873690769
 20
165.8191970102107
 30
0.0000000000004547
 10
201.2946615931899
 20
165.9023315109305
 30
0.0000000000004547
 10
201.8061142486383
 20
165.9358351724011
 30
0.0000000000004547
 10
202.8077309614666
 20
165.9859414495386
 30
0.0000000000004547
 10
203.2953527910545
 20
166.0024172470108
 30
0.0000000000004547
 10
203.7627374227086
 20
166.0099786118889
 30
0.0000000000004547
  0
SPLINE
  5
97
330
85
100
AcDbEntity
  8
可視
100
AcDbSpline
210
0.0
220
0.0
230
1.0
 70
     8
 71
     3
 72
     8
 73
     4
 74
     0
 42
0.000000001
 43
0.0000000001
 40
0.30982307222327
 40
0.30982307222327
 40
0.30982307222327
 40
0.30982307222327
 40
0.3825803678201685
 40
0.3825803678201685
 40
0.3825803678201685
 40
0.3825803678201685
 10
259.2025567974693
 20
165.7883878363125
 30
0.0000000000004547
 10
259.1625305061932
 20
165.815627336865
 30
0.0000000000004547
 10
259.1223685740167
 20
165.8422915841159
 30
0.0000000000004547
 10
259.0823299740435
 20
165.8683132912504
 30
0.0000000000004547
  0
SPLINE
  5
98
330
85
100
AcDbEntity
  8
可視
100
AcDbSpline
210
0.0
220
0.0
230
1.0
 70
     8
 71
     3
 72
    11
 73
     7
 74
     0
 42
0.000000001
 43
0.0000000001
 40
0.0
 40
0.0
 40
0.0
 40
0.0
 40
0.2
 40
0.4
 40
0.6
 40
0.6067652317863242
 40
0.6067652317863242
 40
0.6067652317863242
 40
0.6067652317863242
 10
241.6983768176549
 20
168.8191501587199
 30
0.0000000000004547
 10
241.6675826238611
 20
168.8343077150713
 30
0.0000000000004547
 10
241.613286618787
 20
168.8595333140677
 30
0.0000000000004547
 10
241.5464235879704
 20
168.8823147069881
 30
0.0000000000004547
 10
241.5057646740522
 20
168.8876160906973
 30
0.0000000000004547
 10
241.4874848058805
 20
168.8877829731244
 30
0.0000000000004547
 10
241.48688902713
 20
168.8877857057206
 30
0.0000000000004547
  0
ELLIPSE
  5
99
330
85
100
AcDbEntity
  8
可視
100
AcDbEllipse
 10
241.3783004898964
 20
166.4616216945873
 30
0.0000000000004547
 11
0.0479826941528996
 21
2.426038710245116
 31
0.0
210
0.0000000000000002
220
0.0
230
-1.0
 40
0.4972286403118639
 41
0.2285812500490313
 42
1.054499571783982
  0
SPLINE
  5
9A
330
85
100
AcDbEntity
  8
可視
100
AcDbSpline
210
0.0
220
0.0
230
1.0
 70
     8
 71
     3
 72
     8
 73
     4
 74
     0
 42
0.000000001
 43
0.0000000001
 40
0.3644778802138211
 40
0.3644778802138211
 40
0.3644778802138211
 40
0.3644778802138211
 40
0.3645592869128086
 40
0.3645592869128086
 40
0.3645592869128086
 40
0.3645592869128086
 10
198.7621768416409
 20
167.7700181868508
 30
0.0000000000004547
 10
198.7611682316962
 20
167.7698664907798
 30
0.0000000000004547
 10
198.7601596306599
 20
167.7697147356639
 30
0.0000000000004547
 10
198.7591510385307
 20
167.7695629215041
 30
0.0000000000004547
  0
SPLINE
  5
9B
330
85
100
AcDbEntity
  8
可視
100
AcDbSpline
210
0.0
220
0.0
230
1.0
 70
     8
 71
     3
 72
     8
 73
     4
 74
     0
 42
0.000000001
 43
0.0000000001
 40
0.3575280752236907
 40
0.3575280752236907
 40
0.3575280752236907
 40
0.3575280752236907
 40
0.3576380282009701
 40
0.3576380282009701
 40
0.3576380282009701
 40
0.3576380282009701
 10
200.9436283453013
 20
168.0785025983106
 30
0.0000000000004547
 10
200.9422550256252
 20
168.0783206714756
 30
0.0000000000004547
 10
200.9408817218737
 20
168.0781386318383
 30
0.0000000000004547
 10
200.9395084340449
 20
168.0779564794012
 30
0.0000000000004547
  0
SPLINE
  5
9C
330
85
100
AcDbEntity
  8
可視
100
AcDbSpline
210
0.0
220
0.0
230
1.0
 70
     8
 71
     3
 72
     8
 73
     4
 74
     0
 42
0.000000001
 43
0.0000000001
 40
0.3505950971240006
 40
0.3505950971240006
 40
0.3505950971240006
 40
0.3505950971240006
 40
0.350718112384429
 40
0.350718112384429
 40
0.350718112384429
 40
0.350718112384429
 10
203.1250429560664
 20
168.3482306065205
 30
0.0000000000004547
 10
203.1234957680376
 20
168.348052876375
 30
0.0000000000004547
 10
203.1219485995807
 20
168.3478749994221
 30
0.0000000000004547
 10
203.1204014506934
 20
168.3476969756649
 30
0.0000000000004547
  0
SPLINE
  5
9D
330
85
100
AcDbEntity
  8
可視
100
AcDbSpline
210
0.0
220
0.0
230
1.0
 70
     8
 71
     3
 72
     8
 73
     4
 74
     0
 42
0.000000001
 43
0.0000000001
 40
0.3435945484035286
 40
0.3435945484035286
 40
0.3435945484035286
 40
0.3435945484035286
 40
0.3437187218071914
 40
0.3437187218071914
 40
0.3437187218071914
 40
0.3437187218071914
 10
205.3092755808136
 20
168.5802052248296
 30
0.0000000000004547
 10
205.3077044089093
 20
168.5800519098367
 30
0.0000000000004547
 10
205.3061332566174
 20
168.5798984402684
 30
0.0000000000004547
 10
205.3045621239367
 20
168.5797448161281
 30
0.0000000000004547
  0
SPLINE
  5
9E
330
85
100
AcDbEntity
  8
可視
100
AcDbSpline
210
0.0
220
0.0
230
1.0
 70
     8
 71
     3
 72
     8
 73
     4
 74
     0
 42
0.000000001
 43
0.0000000001
 40
0.6634800284518253
 40
0.6634800284518253
 40
0.6634800284518253
 40
0.6634800284518253
 40
0.6634946835220208
 40
0.6634946835220208
 40
0.6634946835220208
 40
0.6634946835220208
 10
207.5918696098386
 20
168.7826964166415
 30
0.0000000000004547
 10
207.592057845651
 20
168.7827114547672
 30
0.0000000000004547
 10
207.5922460818001
 20
168.7827264906785
 30
0.0000000000004547
 10
207.5924343182862
 20
168.7827415243755
 30
0.0000000000004547
  0
SPLINE
  5
9F
330
85
100
AcDbEntity
  8
可視
100
AcDbSpline
210
0.0
220
0.0
230
1.0
 70
     8
 71
     3
 72
     8
 73
     4
 74
     0
 42
0.000000001
 43
0.0000000001
 40
0.3291241057281122
 40
0.3291241057281122
 40
0.3291241057281122
 40
0.3291241057281122
 40
0.3291356134773858
 40
0.3291356134773858
 40
0.3291356134773858
 40
0.3291356134773858
 10
209.6956808344505
 20
168.9339165744233
 30
0.0000000000004547
 10
209.6955338521868
 20
168.9339071785069
 30
0.0000000000004547
 10
209.6953868700934
 20
168.9338977811973
 30
0.0000000000004547
 10
209.6952398881711
 20
168.9338883824945
 30
0.0000000000004547
  0
SPLINE
  5
A0
330
85
100
AcDbEntity
  8
可視
100
AcDbSpline
210
0.0
220
0.0
230
1.0
 70
     8
 71
     3
 72
     8
 73
     4
 74
     0
 42
0.000000001
 43
0.0000000001
 40
0.3215443507260505
 40
0.3215443507260505
 40
0.3215443507260505
 40
0.3215443507260505
 40
0.3215749315636
 40
0.3215749315636
 40
0.3215749315636
 40
0.3215749315636
 10
211.902098417542
 20
169.0568093850457
 30
0.0000000000004547
 10
211.9017063352862
 20
169.056790745481
 30
0.0000000000004547
 10
211.9013142542208
 20
169.0567720959063
 30
0.0000000000004547
 10
211.9009221743458
 20
169.0567534363217
 30
0.0000000000004547
  0
SPLINE
  5
A1
330
85
100
AcDbEntity
  8
可視
100
AcDbSpline
210
0.0
220
0.0
230
1.0
 70
     8
 71
     3
 72
     8
 73
     4
 74
     0
 42
0.000000001
 43
0.0000000001
 40
0.3136536845202324
 40
0.3136536845202324
 40
0.3136536845202324
 40
0.3136536845202324
 40
0.3136933475390439
 40
0.3136933475390439
 40
0.3136933475390439
 40
0.3136933475390439
 10
214.1199912616958
 20
169.1443441028416
 30
0.0000000000004547
 10
214.1194811141474
 20
169.1443280508126
 30
0.0000000000004547
 10
214.1189709685816
 20
169.1443119817291
 30
0.0000000000004547
 10
214.1184608249985
 20
169.1442958955908
 30
0.0000000000004547
  0
SPLINE
  5
A2
330
85
100
AcDbEntity
  8
可視
100
AcDbSpline
210
0.0
220
0.0
230
1.0
 70
     8
 71
     3
 72
     8
 73
     4
 74
     0
 42
0.000000001
 43
0.0000000001
 40
0.7228854770926129
 40
0.7228854770926129
 40
0.7228854770926129
 40
0.7228854770926129
 40
0.7229047383173165
 40
0.7229047383173165
 40
0.7229047383173165
 40
0.7229047383173165
 10
223.2583485196331
 20
169.1451766280051
 30
0.0000000000004547
 10
223.2586008137118
 20
169.1451691063223
 30
0.0000000000004547
 10
223.2588531083873
 20
169.1451615805873
 30
0.0000000000004547
 10
223.2591054036591
 20
169.1451540508002
 30
0.0000000000004547
  0
SPLINE
  5
A3
330
85
100
AcDbEntity
  8
可視
100
AcDbSpline
210
0.0
220
0.0
230
1.0
 70
    24
 71
     3
 72
     8
 73
     4
 74
     0
 42
0.000000001
 43
0.0000000001
 40
0.2777984597426419
 40
0.2777984597426419
 40
0.2777984597426419
 40
0.2777984597426419
 40
0.2777990960252168
 40
0.2777990960252168
 40
0.2777990960252168
 40
0.2777990960252168
 10
223.144814960171
 20
169.1485278736675
 30
0.0000000000004547
 10
223.1448067165984
 20
169.1485281135867
 30
0.0000000000004547
 10
223.1447984730264
 20
169.1485283535015
 30
0.0000000000004547
 10
223.1447902294547
 20
169.1485285934118
 30
0.0000000000004547
  0
SPLINE
  5
A4
330
85
100
AcDbEntity
  8
可視
100
AcDbSpline
210
0.0
220
0.0
230
1.0
 70
     8
 71
     3
 72
     8
 73
     4
 74
     0
 42
0.000000001
 43
0.0000000001
 40
0.7334059002135922
 40
0.7334059002135922
 40
0.7334059002135922
 40
0.7334059002135922
 40
0.7334461964715709
 40
0.7334461964715709
 40
0.7334461964715709
 40
0.7334461964715709
 10
225.5716792257064
 20
169.0599627479492
 30
0.0000000000004547
 10
225.5722074930179
 20
169.0599396386688
 30
0.0000000000004547
 10
225.5727357629719
 20
169.0599165118105
 30
0.0000000000004547
 10
225.5732640355684
 20
169.0598933673741
 30
0.0000000000004547
  0
SPLINE
  5
A5
330
85
100
AcDbEntity
  8
可視
100
AcDbSpline
210
0.0
220
0.0
230
1.0
 70
     8
 71
     3
 72
     8
 73
     4
 74
     0
 42
0.000000001
 43
0.0000000001
 40
0.7446646881057228
 40
0.7446646881057228
 40
0.7446646881057228
 40
0.7446646881057228
 40
0.7447214108137557
 40
0.7447214108137557
 40
0.7447214108137557
 40
0.7447214108137557
 10
227.9108727987539
 20
168.9419384578461
 30
0.0000000000004547
 10
227.9116167544344
 20
168.9418960300514
 30
0.0000000000004547
 10
227.9123607154359
 20
168.9418535678876
 30
0.0000000000004547
 10
227.9131046817572
 20
168.9418110713542
 30
0.0000000000004547
  0
SPLINE
  5
A6
330
85
100
AcDbEntity
  8
可視
100
AcDbSpline
210
0.0
220
0.0
230
1.0
 70
     8
 71
     3
 72
     8
 73
     4
 74
     0
 42
0.000000001
 43
0.0000000001
 40
0.7567687162052258
 40
0.7567687162052258
 40
0.7567687162052258
 40
0.7567687162052258
 40
0.7568292762870154
 40
0.7568292762870154
 40
0.7568292762870154
 40
0.7568292762870154
 10
230.2791038267085
 20
168.7918580190824
 30
0.0000000000004547
 10
230.2798982168831
 20
168.7918027691582
 30
0.0000000000004547
 10
230.2806926132523
 20
168.7917474807541
 30
0.0000000000004547
 10
230.2814870158161
 20
168.7916921538694
 30
0.0000000000004547
  0
SPLINE
  5
A7
330
85
100
AcDbEntity
  8
可視
100
AcDbSpline
210
0.0
220
0.0
230
1.0
 70
     8
 71
     3
 72
     8
 73
     4
 74
     0
 42
0.000000001
 43
0.0000000001
 40
0.2316500356910169
 40
0.2316500356910169
 40
0.2316500356910169
 40
0.2316500356910169
 40
0.2317006920023199
 40
0.2317006920023199
 40
0.2317006920023199
 40
0.2317006920023199
 10
232.5174505573157
 20
168.6238904907606
 30
0.0000000000004547
 10
232.5167946648276
 20
168.6239431604892
 30
0.0000000000004547
 10
232.5161387758781
 20
168.6239958038743
 30
0.0000000000004547
 10
232.5154828904667
 20
168.6240484209165
 30
0.0000000000004547
  0
SPLINE
  5
A8
330
85
100
AcDbEntity
  8
可視
100
AcDbSpline
210
0.0
220
0.0
230
1.0
 70
     8
 71
     3
 72
     8
 73
     4
 74
     0
 42
0.000000001
 43
0.0000000001
 40
0.2177417823880601
 40
0.2177417823880601
 40
0.2177417823880601
 40
0.2177417823880601
 40
0.2178260808883582
 40
0.2178260808883582
 40
0.2178260808883582
 40
0.2178260808883582
 10
234.937408698969
 20
168.4163426949605
 30
0.0000000000004547
 10
234.9363177404964
 20
168.4164417750801
 30
0.0000000000004547
 10
234.9352267930794
 20
168.4165407839578
 30
0.0000000000004547
 10
234.9341358567124
 20
168.4166397215967
 30
0.0000000000004547
  0
SPLINE
  5
A9
330
85
100
AcDbEntity
  8
可視
100
AcDbSpline
210
0.0
220
0.0
230
1.0
 70
     8
 71
     3
 72
     8
 73
     4
 74
     0
 42
0.000000001
 43
0.0000000001
 40
0.2026039910089727
 40
0.2026039910089727
 40
0.2026039910089727
 40
0.2026039910089727
 40
0.2027113725671592
 40
0.2027113725671592
 40
0.2027113725671592
 40
0.2027113725671592
 10
237.3962803469463
 20
168.1811882390986
 30
0.0000000000004547
 10
237.3948909206458
 20
168.1813272362655
 30
0.0000000000004547
 10
237.3935015149564
 20
168.1814661210901
 30
0.0000000000004547
 10
237.3921121298652
 20
168.1816048935786
 30
0.0000000000004547
  0
SPLINE
  5
AA
330
85
100
AcDbEntity
  8
可視
100
AcDbSpline
210
0.0
220
0.0
230
1.0
 70
     8
 71
     3
 72
     8
 73
     4
 74
     0
 42
0.000000001
 43
0.0000000001
 40
0.1860672959874393
 40
0.1860672959874393
 40
0.1860672959874393
 40
0.1860672959874393
 40
0.1861827698151291
 40
0.1861827698151291
 40
0.1861827698151291
 40
0.1861827698151291
 10
239.8992467853502
 20
167.9208278815338
 30
0.0000000000004547
 10
239.8977518989316
 20
167.9209887740239
 30
0.0000000000004547
 10
239.8962570405122
 20
167.9211495409695
 30
0.0000000000004547
 10
239.894762210075
 20
167.9213101823782
 30
0.0000000000004547
  0
SPLINE
  5
AB
330
85
100
AcDbEntity
  8
可視
100
AcDbSpline
210
0.0
220
0.0
230
1.0
 70
     8
 71
     3
 72
     8
 73
     4
 74
     0
 42
0.000000001
 43
0.0000000001
 40
0.167938032145614
 40
0.167938032145614
 40
0.167938032145614
 40
0.167938032145614
 40
0.1680440264075162
 40
0.1680440264075162
 40
0.1680440264075162
 40
0.1680440264075162
 10
242.4523654139193
 20
167.638609123945
 30
0.0000000000004547
 10
242.4509906465373
 20
167.638764646346
 30
0.0000000000004547
 10
242.449615907603
 20
167.6389200671622
 30
0.0000000000004547
 10
242.4482411971001
 20
167.6390753863997
 30
0.0000000000004547
  0
SPLINE
  5
AC
330
85
100
AcDbEntity
  8
可視
100
AcDbSpline
210
0.0
220
0.0
230
1.0
 70
     8
 71
     3
 72
     8
 73
     4
 74
     0
 42
0.000000001
 43
0.0000000001
 40
0.1480088439026354
 40
0.1480088439026354
 40
0.1480088439026354
 40
0.1480088439026354
 40
0.1480825894823723
 40
0.1480825894823723
 40
0.1480825894823723
 40
0.1480825894823723
 10
245.0627621920855
 20
167.3392595788925
 30
0.0000000000004547
 10
245.0618014406312
 20
167.3393709200494
 30
0.0000000000004547
 10
245.0608407062901
 20
167.3394822143234
 30
0.0000000000004547
 10
245.0598799890565
 20
167.3395934617163
 30
0.0000000000004547
  0
SPLINE
  5
AD
330
85
100
AcDbEntity
  8
可視
100
AcDbSpline
210
0.0
220
0.0
230
1.0
 70
     8
 71
     3
 72
     8
 73
     4
 74
     0
 42
0.000000001
 43
0.0000000001
 40
0.877624367926532
 40
0.877624367926532
 40
0.877624367926532
 40
0.877624367926532
 40
0.877791352819101
 40
0.877791352819101
 40
0.877791352819101
 40
0.877791352819101
 10
248.0494803652011
 20
166.9937658626825
 30
0.0000000000004547
 10
248.0517279928263
 20
166.9935075421384
 30
0.0000000000004547
 10
248.0539757425413
 20
166.9932489909042
 30
0.0000000000004547
 10
248.0562236143033
 20
166.9929902089804
 30
0.0000000000004547
  0
SPLINE
  5
AE
330
85
100
AcDbEntity
  8
可視
100
AcDbSpline
210
0.0
220
0.0
230
1.0
 70
     8
 71
     3
 72
     8
 73
     4
 74
     0
 42
0.000000001
 43
0.0000000001
 40
0.3053930743730636
 40
0.3053930743730636
 40
0.3053930743730636
 40
0.3053930743730636
 40
0.3054329481235979
 40
0.3054329481235979
 40
0.3054329481235979
 40
0.3054329481235979
 10
216.351339209099
 20
169.196907409683
 30
0.0000000000004547
 10
216.3508250154123
 20
169.1968993264482
 30
0.0000000000004547
 10
216.3503108237132
 20
169.1968912258315
 30
0.0000000000004547
 10
216.3497966340024
 20
169.1968831078328
 30
0.0000000000004547
  0
SPLINE
  5
AF
330
85
100
AcDbEntity
  8
可視
100
AcDbSpline
210
0.0
220
0.0
230
1.0
 70
     8
 71
     3
 72
     8
 73
     4
 74
     0
 42
0.000000001
 43
0.0000000001
 40
0.2590195599363557
 40
0.2590195599363557
 40
0.2590195599363557
 40
0.2590195599363557
 40
0.2590389642435232
 40
0.2590389642435232
 40
0.2590389642435232
 40
0.2590389642435232
 10
220.862097220928
 20
169.1985642292067
 30
0.0000000000004547
 10
220.8618759297683
 20
169.1985674671911
 30
0.0000000000004547
 10
220.861654638948
 20
169.1985707019668
 30
0.0000000000004547
 10
220.8614333484663
 20
169.1985739335336
 30
0.0000000000004547
  0
SPLINE
  5
B0
330
85
100
AcDbEntity
  8
可視
100
AcDbSpline
210
0.0
220
0.0
230
1.0
 70
     8
 71
     3
 72
     8
 73
     4
 74
     0
 42
0.000000001
 43
0.0000000001
 40
0.2579984116963794
 40
0.2579984116963794
 40
0.2579984116963794
 40
0.2579984116963794
 40
0.2580145513961652
 40
0.2580145513961652
 40
0.2580145513961652
 40
0.2580145513961652
 10
218.5981785274878
 20
169.2148526263341
 30
0.0000000000004547
 10
218.5980034821453
 20
169.2148525616261
 30
0.0000000000004547
 10
218.5978284370326
 20
169.2148524949045
 30
0.0000000000004547
 10
218.5976533921494
 20
169.2148524261693
 30
0.0000000000004547
  0
SPLINE
  5
B1
330
85
100
AcDbEntity
  8
可視
100
AcDbSpline
210
0.0
220
0.0
230
1.0
 70
     8
 71
     3
 72
    10
 73
     6
 74
     0
 42
0.000000001
 43
0.0000000001
 40
-30.44270515552923
 40
-30.44270515552923
 40
-30.44270515552923
 40
-30.44270515552923
 40
-15.22136618829602
 40
-15.22136618829602
 40
-0.0000271810910868
 40
-0.0000271810910868
 40
-0.0000271810910868
 40
-0.0000271810910868
 10
203.762737349675
 20
166.0099786002633
 30
0.0000000000004547
 10
212.940560972135
 20
166.1584577972872
 30
0.0000000000004547
 10
221.9353242323491
 20
166.2327197277178
 30
0.0000000000004547
 10
239.5113784590431
 20
166.2327197345897
 30
0.0000000000004547
 10
248.0845121638188
 20
166.15845781116
 30
0.0000000000004547
 10
256.4202693800937
 20
166.0099785983286
 30
0.0000000000004547
  0
SPLINE
  5
B2
330
85
100
AcDbEntity
  8
可視
100
AcDbSpline
210
0.0
220
0.0
230
1.0
 70
     8
 71
     3
 72
     8
 73
     4
 74
     0
 42
0.000000001
 43
0.0000000001
 40
0.8572562219993004
 40
0.8572562219993004
 40
0.8572562219993004
 40
0.8572562219993004
 40
0.8609711707347999
 40
0.8609711707347999
 40
0.8609711707347999
 40
0.8609711707347999
 10
215.3538720646102
 20
166.1596373016688
 30
0.0000000000004547
 10
215.3540471257461
 20
166.1595720883016
 30
0.0000000000004547
 10
215.354217685973
 20
166.1595073366209
 30
0.0000000000004547
 10
215.3543834368761
 20
166.1594430535109
 30
0.0000000000004547
  0
SPLINE
  5
B3
330
85
100
AcDbEntity
  8
可視
100
AcDbSpline
210
0.0
220
0.0
230
1.0
 70
     8
 71
     3
 72
     8
 73
     4
 74
     0
 42
0.000000001
 43
0.0000000001
 40
0.8728664063197955
 40
0.8728664063197955
 40
0.8728664063197955
 40
0.8728664063197955
 40
0.8729210005397082
 40
0.8729210005397082
 40
0.8729210005397082
 40
0.8729210005397082
 10
219.2571651939565
 20
166.1944033702263
 30
0.0000000000004547
 10
219.2571683764156
 20
166.1944020619834
 30
0.0000000000004547
 10
219.2571715580645
 20
166.1944007537667
 30
0.0000000000004547
 10
219.2571747389029
 20
166.1943994455763
 30
0.0000000000004547
  0
SPLINE
  5
B4
330
85
100
AcDbEntity
  8
可視
100
AcDbSpline
210
0.0
220
0.0
230
1.0
 70
     8
 71
     3
 72
     8
 73
     4
 74
     0
 42
0.000000001
 43
0.0000000001
 40
0.8619247886455703
 40
0.8619247886455703
 40
0.8619247886455703
 40
0.8619247886455703
 40
0.8624773745936835
 40
0.8624773745936835
 40
0.8624773745936835
 40
0.8624773745936835
 10
221.1989694865913
 20
166.2079453007974
 30
0.0000000000004547
 10
221.1989992735912
 20
166.2079322010843
 30
0.0000000000004547
 10
221.19902896442
 20
166.2079191090502
 30
0.0000000000004547
 10
221.1990585587282
 20
166.2079060247638
 30
0.0000000000004547
  0
SPLINE
  5
B5
330
85
100
AcDbEntity
  8
可視
100
AcDbSpline
210
0.0
220
0.0
230
1.0
 70
     8
 71
     3
 72
     8
 73
     4
 74
     0
 42
0.000000001
 43
0.0000000001
 40
0.8511144987057596
 40
0.8511144987057596
 40
0.8511144987057596
 40
0.8511144987057596
 40
0.8519777969569782
 40
0.8519777969569782
 40
0.8519777969569782
 40
0.8519777969569782
 10
223.1340778123247
 20
166.2189908023927
 30
0.0000000000004547
 10
223.1341223449476
 20
166.2189705408466
 30
0.0000000000004547
 10
223.1341666419919
 20
166.2189502999673
 30
0.0000000000004547
 10
223.1342107018602
 20
166.2189300800161
 30
0.0000000000004547
  0
SPLINE
  5
B6
330
85
100
AcDbEntity
  8
可視
100
AcDbSpline
210
0.0
220
0.0
230
1.0
 70
     8
 71
     3
 72
     8
 73
     4
 74
     0
 42
0.000000001
 43
0.0000000001
 40
0.8412118357920347
 40
0.8412118357920347
 40
0.8412118357920347
 40
0.8412118357920347
 40
0.8420618384840633
 40
0.8420618384840633
 40
0.8420618384840633
 40
0.8420618384840633
 10
225.0623289317632
 20
166.2275755660759
 30
0.0000000000004547
 10
225.0623711230335
 20
166.227555979563
 30
0.0000000000004547
 10
225.062413102781
 20
166.2275364084978
 30
0.0000000000004547
 10
225.0624548696467
 20
166.2275168529573
 30
0.0000000000004547
  0
SPLINE
  5
B7
330
85
100
AcDbEntity
  8
可視
100
AcDbSpline
210
0.0
220
0.0
230
1.0
 70
     8
 71
     3
 72
     8
 73
     4
 74
     0
 42
0.000000001
 43
0.0000000001
 40
0.8509509258845536
 40
0.8509509258845536
 40
0.8509509258845536
 40
0.8509509258845536
 40
0.852417039420726
 40
0.852417039420726
 40
0.852417039420726
 40
0.852417039420726
 10
234.6034202299827
 20
166.2325334921689
 30
0.0000000000004547
 10
234.6034966901782
 20
166.2324973294454
 30
0.0000000000004547
 10
234.6035724637701
 20
166.2324612259953
 30
0.0000000000004547
 10
234.6036475436656
 20
166.2324251828498
 30
0.0000000000004547
  0
SPLINE
  5
B8
330
85
100
AcDbEntity
  8
可視
100
AcDbSpline
210
0.0
220
0.0
230
1.0
 70
     8
 71
     3
 72
     8
 73
     4
 74
     0
 42
0.000000001
 43
0.0000000001
 40
0.8553652037279867
 40
0.8553652037279867
 40
0.8553652037279867
 40
0.8553652037279867
 40
0.855868414887597
 40
0.855868414887597
 40
0.855868414887597
 40
0.855868414887597
 10
236.4914577406689
 20
166.2260096115884
 30
0.0000000000004547
 10
236.4914841646776
 20
166.2259973708952
 30
0.0000000000004547
 10
236.49151050896
 20
166.2259851371322
 30
0.0000000000004547
 10
236.491536773244
 20
166.2259729103472
 30
0.0000000000004547
  0
SPLINE
  5
B9
330
85
100
AcDbEntity
  8
可視
100
AcDbSpline
210
0.0
220
0.0
230
1.0
 70
     8
 71
     3
 72
     8
 73
     4
 74
     0
 42
0.000000001
 43
0.0000000001
 40
0.8608921928691922
 40
0.8608921928691922
 40
0.8608921928691922
 40
0.8608921928691922
 40
0.8619319001491334
 40
0.8619319001491334
 40
0.8619319001491334
 40
0.8619319001491334
 10
238.3729286609193
 20
166.2169414799783
 30
0.0000000000004547
 10
238.3729835878837
 20
166.2169168437167
 30
0.0000000000004547
 10
238.3730381682203
 20
166.2168922390096
 30
0.0000000000004547
 10
238.3730923995888
 20
166.2168676662942
 30
0.0000000000004547
  0
SPLINE
  5
BA
330
85
100
AcDbEntity
  8
可視
100
AcDbSpline
210
0.0
220
0.0
230
1.0
 70
     8
 71
     3
 72
     8
 73
     4
 74
     0
 42
0.000000001
 43
0.0000000001
 40
0.8676340090487537
 40
0.8676340090487537
 40
0.8676340090487537
 40
0.8676340090487537
 40
0.8695219205917311
 40
0.8695219205917311
 40
0.8695219205917311
 40
0.8695219205917311
 10
240.2477082498044
 20
166.205368588669
 30
0.0000000000004547
 10
240.2478091154066
 20
166.2053254457372
 30
0.0000000000004547
 10
240.2479088012388
 20
166.2052824151841
 30
0.0000000000004547
 10
240.2480072521667
 20
166.2052395012291
 30
0.0000000000004547
  0
SPLINE
  5
BB
330
85
100
AcDbEntity
  8
可視
100
AcDbSpline
210
0.0
220
0.0
230
1.0
 70
     8
 71
     3
 72
     9
 73
     5
 74
     0
 42
0.000000001
 43
0.0000000001
 40
0.8748609620489137
 40
0.8748609620489137
 40
0.8748609620489137
 40
0.8748609620489137
 40
0.875
 40
0.8755901246180643
 40
0.8755901246180643
 40
0.8755901246180643
 40
0.8755901246180643
 10
242.1156499582162
 20
166.1913274379109
 30
0.0000000000004547
 10
242.1156575056998
 20
166.1913243721725
 30
0.0000000000004547
 10
242.1156970548405
 20
166.1913082972592
 30
0.0000000000004547
 10
242.1157364337062
 20
166.1912922374055
 30
0.0000000000004547
 10
242.1157681901464
 20
166.1912792499129
 30
0.0000000000004547
  0
SPLINE
  5
BC
330
85
100
AcDbEntity
  8
可視
100
AcDbSpline
210
0.0
220
0.0
230
1.0
 70
    24
 71
     3
 72
     8
 73
     4
 74
     0
 42
0.000000001
 43
0.0000000001
 40
0.2713595354965004
 40
0.2713595354965004
 40
0.2713595354965004
 40
0.2713595354965004
 40
0.2713769335456199
 40
0.2713769335456199
 40
0.2713769335456199
 40
0.2713769335456199
 10
227.167105461906
 20
167.0095078471213
 30
0.0000000000004547
 10
227.1671102938956
 20
167.0095058474993
 30
0.0000000000004547
 10
227.1671151258495
 20
167.0095038478721
 30
0.0000000000004547
 10
227.1671199577668
 20
167.0095018482399
 30
0.0000000000004547
  0
SPLINE
  5
BD
330
85
100
AcDbEntity
  8
可視
100
AcDbSpline
210
0.0
220
0.0
230
1.0
 70
     8
 71
     3
 72
     8
 73
     4
 74
     0
 42
0.000000001
 43
0.0000000001
 40
0.8526267520384863
 40
0.8526267520384863
 40
0.8526267520384863
 40
0.8526267520384863
 40
0.8529527317795897
 40
0.8529527317795897
 40
0.8529527317795897
 40
0.8529527317795897
 10
228.8987029819273
 20
166.237130732283
 30
0.0000000000004547
 10
228.8987206376441
 20
166.2371223131344
 30
0.0000000000004547
 10
228.8987382612607
 20
166.2371138965522
 30
0.0000000000004547
 10
228.8987558527035
 20
166.2371054825495
 30
0.0000000000004547
  0
SPLINE
  5
BE
330
85
100
AcDbEntity
  8
可視
100
AcDbSpline
210
0.0
220
0.0
230
1.0
 70
    24
 71
     3
 72
     8
 73
     4
 74
     0
 42
0.000000001
 43
0.0000000001
 40
0.6985631236216785
 40
0.6985631236216785
 40
0.6985631236216785
 40
0.6985631236216785
 40
0.6986242843165372
 40
0.6986242843165372
 40
0.6986242843165372
 40
0.6986242843165372
 10
226.2489435000041
 20
167.3736630439373
 30
0.0000000000004547
 10
226.2489503936369
 20
167.3736604299574
 30
0.0000000000004547
 10
226.24895728769
 20
167.373657815634
 30
0.0000000000004547
 10
226.2489641821637
 20
167.3736552009672
 30
0.0000000000004547
  0
SPLINE
  5
BF
330
85
100
AcDbEntity
  8
可視
100
AcDbSpline
210
0.0
220
0.0
230
1.0
 70
     8
 71
     3
 72
     8
 73
     4
 74
     0
 42
0.000000001
 43
0.0000000001
 40
0.4288160545393282
 40
0.4288160545393282
 40
0.4288160545393282
 40
0.4288160545393282
 40
0.4288820781393678
 40
0.4288820781393678
 40
0.4288820781393678
 40
0.4288820781393678
 10
226.5035829856363
 20
167.5530821227865
 30
0.0000000000004547
 10
226.5035826356505
 20
167.553087093156
 30
0.0000000000004547
 10
226.5035822860089
 20
167.5530920623966
 30
0.0000000000004547
 10
226.5035819367113
 20
167.5530970305086
 30
0.0000000000004547
  0
SPLINE
  5
C0
330
85
100
AcDbEntity
  8
可視
100
AcDbSpline
210
0.0
220
0.0
230
1.0
 70
     8
 71
     3
 72
     8
 73
     4
 74
     0
 42
0.000000001
 43
0.0000000001
 40
0.5019572689946578
 40
0.5019572689946578
 40
0.5019572689946578
 40
0.5019572689946578
 40
0.5020487061888919
 40
0.5020487061888919
 40
0.5020487061888919
 40
0.5020487061888919
 10
230.3998075411769
 20
167.0824367685045
 30
0.0000000000004547
 10
230.3998059430814
 20
167.0824518525154
 30
0.0000000000004547
 10
230.3998043446388
 20
167.0824669356389
 30
0.0000000000004547
 10
230.3998027458479
 20
167.0824820178753
 30
0.0000000000004547
  0
SPLINE
  5
C1
330
85
100
AcDbEntity
  8
可視
100
AcDbSpline
210
0.0
220
0.0
230
1.0
 70
     8
 71
     3
 72
     8
 73
     4
 74
     0
 42
0.000000001
 43
0.0000000001
 40
0.2299773712401731
 40
0.2299773712401731
 40
0.2299773712401731
 40
0.2299773712401731
 40
0.2303752071751398
 40
0.2303752071751398
 40
0.2303752071751398
 40
0.2303752071751398
 10
229.7228594035143
 20
166.7360998934296
 30
0.0000000000004547
 10
229.7228900143405
 20
166.7360864368797
 30
0.0000000000004547
 10
229.7229206261477
 20
166.7360729661206
 30
0.0000000000004547
 10
229.7229512389265
 20
166.7360594811535
 30
0.0000000000004547
  0
SPLINE
  5
C2
330
85
100
AcDbEntity
  8
可視
100
AcDbSpline
210
0.0
220
0.0
230
1.0
 70
     8
 71
     3
 72
     8
 73
     4
 74
     0
 42
0.000000001
 43
0.0000000001
 40
0.8458815008522011
 40
0.8458815008522011
 40
0.8458815008522011
 40
0.8458815008522011
 40
0.8468342737639961
 40
0.8468342737639961
 40
0.8468342737639961
 40
0.8468342737639961
 10
230.8070604139587
 20
166.23811058785
 30
0.0000000000004547
 10
230.8071101951232
 20
166.2380866597604
 30
0.0000000000004547
 10
230.8071596893101
 20
166.2380627523395
 30
0.0000000000004547
 10
230.8072088945075
 20
166.2380388657729
 30
0.0000000000004547
  0
SPLINE
  5
C3
330
85
100
AcDbEntity
  8
可視
100
AcDbSpline
210
0.0
220
0.0
230
1.0
 70
     8
 71
     3
 72
     8
 73
     4
 74
     0
 42
0.000000001
 43
0.0000000001
 40
0.8479963234537606
 40
0.8479963234537606
 40
0.8479963234537606
 40
0.8479963234537606
 40
0.8491452881802075
 40
0.8491452881802075
 40
0.8491452881802075
 40
0.8491452881802075
 10
232.708567085577
 20
166.2365752810609
 30
0.0000000000004547
 10
232.7086270846005
 20
166.2365465857774
 30
0.0000000000004547
 10
232.7086866691377
 20
166.2365179260826
 30
0.0000000000004547
 10
232.7087458358092
 20
166.2364893024722
 30
0.0000000000004547
  0
SPLINE
  5
C4
330
85
100
AcDbEntity
  8
可視
100
AcDbSpline
210
0.0
220
0.0
230
1.0
 70
     8
 71
     3
 72
     8
 73
     4
 74
     0
 42
0.000000001
 43
0.0000000001
 40
0.5762357898382052
 40
0.5762357898382052
 40
0.5762357898382052
 40
0.5762357898382052
 40
0.5763763750660793
 40
0.5763763750660793
 40
0.5763763750660793
 40
0.5763763750660793
 10
198.475913948577
 20
165.6671225566765
 30
0.0000000000004547
 10
198.4759250045831
 20
165.6671154232674
 30
0.0000000000004547
 10
198.4759360555217
 20
165.6671082904562
 30
0.0000000000004547
 10
198.4759471013913
 20
165.6671011582431
 30
0.0000000000004547
  0
SPLINE
  5
C5
330
85
100
AcDbEntity
  8
可視
100
AcDbSpline
210
0.0
220
0.0
230
1.0
 70
     8
 71
     3
 72
    12
 73
     8
 74
     0
 42
0.000000001
 43
0.0000000001
 40
0.0
 40
0.0
 40
0.0
 40
0.0
 40
0.948400324283606
 40
0.948400324283606
 40
1.878844943435423
 40
1.878844943435423
 40
2.873224714501336
 40
2.873224714501336
 40
2.873224714501336
 40
2.873224714501336
 10
166.5559452766144
 20
147.121645752119
 30
0.0000000000004547
 10
166.0085646580428
 20
147.1221003019653
 30
0.0000000000004547
 10
165.5067805805677
 20
147.1412070045565
 30
0.0000000000004547
 10
164.6767276229916
 20
147.2134429832081
 30
0.0000000000004547
 10
164.3350925312011
 20
147.2658190380645
 30
0.0000000000004547
 10
163.8047837224233
 20
147.4102361538808
 30
0.0000000000004547
 10
163.5978294097633
 20
147.4829440585299
 30
0.0000000000004547
 10
163.502595970546
 20
147.6917622483382
 30
0.0000000000004547
  0
SPLINE
  5
C6
330
85
100
AcDbEntity
  8
可視
100
AcDbSpline
210
0.0
220
0.0
230
1.0
 70
     8
 71
     3
 72
    10
 73
     6
 74
     0
 42
0.000000001
 43
0.0000000001
 40
0.0
 40
0.0
 40
0.0
 40
0.0
 40
10.00002809242982
 40
10.00002809242982
 40
31.45700919131157
 40
31.45700919131157
 40
31.45700919131157
 40
31.45700919131157
 10
221.0411266048339
 20
147.121645729073
 30
0.0000000000004547
 10
215.2540680083928
 20
147.1168636843836
 30
0.0000000000004547
 10
209.4785910945081
 20
147.1161821409646
 30
0.0000000000004547
 10
191.3109080678605
 20
147.1140803800978
 30
0.0000000000004547
 10
178.9150073087864
 20
147.1113868637643
 30
0.0000000000004547
 10
166.5559452211764
 20
147.1216457271805
 30
0.0000000000004547
  0
SPLINE
  5
C7
330
85
100
AcDbEntity
  8
可視
100
AcDbSpline
210
0.0
220
0.0
230
1.0
 70
     8
 71
     3
 72
    16
 73
    12
 74
     0
 42
0.000000001
 43
0.0000000001
 40
0.0
 40
0.0
 40
0.0
 40
0.0
 40
0.9940913107155239
 40
0.9940913107155239
 40
1.938962547692123
 40
1.938962547692123
 40
2.877753092760171
 40
2.877753092760171
 40
3.818382147883236
 40
3.818382147883236
 40
4.520165551333374
 40
4.520165551333374
 40
4.520165551333374
 40
4.520165551333374
 10
228.9243876401281
 20
148.1321716902902
 30
0.0000000000004547
 10
228.5872459819354
 20
148.0141350934743
 30
0.0000000000004547
 10
228.1488006214422
 20
147.8969756162045
 30
0.0000000000004547
 10
227.1624354702678
 20
147.6852371013936
 30
0.0000000000004547
 10
226.6097418145932
 20
147.5872933819822
 30
0.0000000000004547
 10
225.4462008018925
 20
147.4170039397992
 30
0.0000000000004547
 10
224.8219380649014
 20
147.3421969355527
 30
0.0000000000004547
 10
223.5757292189457
 20
147.2240797870085
 30
0.0000000000004547
 10
222.9382604331456
 20
147.1793324459214
 30
0.0000000000004547
 10
221.8858342757667
 20
147.1323957991535
 30
0.0000000000004547
 10
221.4480431140594
 20
147.1219821733208
 30
0.0000000000004547
 10
221.0411266631054
 20
147.1216457415193
 30
0.0000000000004547
  0
SPLINE
  5
C8
330
85
100
AcDbEntity
  8
可視
100
AcDbSpline
210
0.0
220
0.0
230
1.0
 70
     8
 71
     3
 72
    10
 73
     6
 74
     0
 42
0.000000001
 43
0.0000000001
 40
0.0
 40
0.0
 40
0.0
 40
0.0
 40
10.00002740526366
 40
10.00002740526366
 40
31.45710360426687
 40
31.45710360426687
 40
31.45710360426687
 40
31.45710360426687
 10
259.9041902211918
 20
159.0573217684699
 30
0.0000000000004547
 10
256.6451401130762
 20
157.8995937708996
 30
0.0000000000004547
 10
253.3658113341624
 20
156.7419269627683
 30
0.0000000000004547
 10
243.0497929578753
 20
153.1002456216297
 30
0.0000000000004547
 10
236.0196574328609
 20
150.6163024672942
 30
0.0000000000004547
 10
228.924387896194
 20
148.1321717358147
 30
0.0000000000004547
  0
SPLINE
  5
C9
330
85
100
AcDbEntity
  8
可視
100
AcDbSpline
210
0.0
220
0.0
230
1.0
 70
     8
 71
     3
 72
    12
 73
     8
 74
     0
 42
0.000000001
 43
0.0000000001
 40
0.0
 40
0.0
 40
0.0
 40
0.0
 40
0.4811129692160139
 40
0.4811129692160139
 40
1.240937584670264
 40
1.240937584670264
 40
1.371476472402113
 40
1.371476472402113
 40
1.371476472402113
 40
1.371476472402113
 10
260.7577090789655
 20
159.6399153963986
 30
0.0000000000004547
 10
260.727137384303
 20
159.5341420947203
 30
0.0000000000004547
 10
260.6584228731206
 20
159.4578606470022
 30
0.0000000000004547
 10
260.4464994630205
 20
159.2853109594147
 30
0.0000000000004547
 10
260.2661260731208
 20
159.1950316769587
 30
0.0000000000004547
 10
259.9899860788039
 20
159.0884170090788
 30
0.0000000000004547
 10
259.9478773129085
 20
159.0728410282844
 30
0.0000000000004547
 10
259.9041903289422
 20
159.0573218292466
 30
0.0000000000004547
  0
SPLINE
  5
CA
330
85
100
AcDbEntity
  8
可視
100
AcDbSpline
210
0.0
220
0.0
230
1.0
 70
     8
 71
     3
 72
     8
 73
     4
 74
     0
 42
0.000000001
 43
0.0000000001
 40
0.0000051633464832
 40
0.0000051633464832
 40
0.0000051633464832
 40
0.0000051633464832
 40
1.087666432778827
 40
1.087666432778827
 40
1.087666432778827
 40
1.087666432778827
 10
163.5025945114241
 20
147.6917615828922
 30
0.0000000000004547
 10
163.2021205285793
 20
148.3504807108903
 30
0.0000000000004547
 10
162.901611899613
 20
149.0091291175271
 30
0.0000000000004547
 10
162.601092360177
 20
149.6677487310179
 30
0.0000000000004547
  0
SPLINE
  5
CB
330
85
100
AcDbEntity
  8
可視
100
AcDbSpline
210
0.0
220
0.0
230
1.0
 70
     8
 71
     3
 72
     8
 73
     4
 74
     0
 42
0.000000001
 43
0.0000000001
 40
0.0
 40
0.0
 40
0.0
 40
0.0
 40
1.136073026161587
 40
1.136073026161587
 40
1.136073026161587
 40
1.136073026161587
 10
261.3160100483609
 20
161.569521414881
 30
0.0000000000004547
 10
261.1299919482644
 20
160.9271690970166
 30
0.0000000000004547
 10
260.9439088662723
 20
160.2841965062218
 30
0.0000000000004547
 10
260.7577200143035
 20
159.6399300083757
 30
0.0000000000004547
  0
LINE
  5
CC
330
85
100
AcDbEntity
  8
可視
100
AcDbLine
 10
162.5820323295397
 20
149.7385671031734
 30
0.0000000000004547
 11
162.5299537217577
 21
150.3292720261827
 31
0.0000000000004547
210
0.0
220
1.0
230
0.0
  0
LINE
  5
CD
330
85
100
AcDbEntity
  8
可視
100
AcDbLine
 10
261.3243363319402
 20
161.6495671445473
 30
0.0000000000004547
 11
261.2722577245811
 21
162.2402720627601
 31
0.0000000000004547
210
0.0
220
1.0
230
0.0
  0
LINE
  5
CE
330
85
100
AcDbEntity
  8
可視
100
AcDbLine
 10
259.7758901915488
 20
165.409708584743
 30
0.0000000000004547
 11
261.2515373343074
 21
162.3145228136159
 31
0.0000000000004547
210
0.0
220
1.0
230
0.0
  0
SPLINE
  5
CF
330
85
100
AcDbEntity
  8
可視
100
AcDbSpline
210
0.0
220
0.0
230
1.0
 70
     8
 71
     3
 72
    16
 73
    12
 74
     0
 42
0.000000001
 43
0.0000000001
 40
5.766189952077874
 40
5.766189952077874
 40
5.766189952077874
 40
5.766189952077874
 40
5.871709528421467
 40
5.871709528421467
 40
5.977229104765062
 40
5.977229104765062
 40
6.082748681108657
 40
6.082748681108657
 40
6.18826825745225
 40
6.18826825745225
 40
6.293787833795843
 40
6.293787833795843
 40
6.293787833795843
 40
6.293787833795843
 10
164.524812976972
 20
148.1206544313562
 30
0.0000000000004547
 10
164.4296840358977
 20
148.0871068334409
 30
0.0000000000004547
 10
164.3438341246462
 20
148.0537070151104
 30
0.0000000000004547
 10
164.1920636744259
 20
147.9879322693945
 30
0.0000000000004547
 10
164.1261366955466
 20
147.9555345532604
 30
0.0000000000004547
 10
164.015710101592
 20
147.8930488202339
 30
0.0000000000004547
 10
163.9712309180177
 20
147.8628790178635
 30
0.0000000000004547
 10
163.9053347499234
 20
147.8080545197815
 30
0.0000000000004547
 10
163.8843016097548
 20
147.7833549850366
 30
0.0000000000004547
 10
163.863045207808
 20
147.7476918029707
 30
0.0000000000004547
 10
163.8622988699969
 20
147.7387760714247
 30
0.0000000000004547
 10
163.8627366931365
 20
147.7325568772935
 30
0.0000000000004547
  0
LINE
  5
D0
330
85
100
AcDbEntity
  8
可視
100
AcDbLine
 10
164.524812976965
 20
148.1206544313562
 30
0.0000000000004547
 11
195.546257196723
 21
159.0604896243282
 31
0.0000000000004547
210
0.0
220
1.0
230
0.0
  0
SPLINE
  5
D1
330
85
100
AcDbEntity
  8
可視
100
AcDbSpline
210
0.0
220
0.0
230
1.0
 70
     8
 71
     3
 72
    16
 73
    12
 74
     0
 42
0.000000001
 43
0.0000000001
 40
4.195393625282974
 40
4.195393625282974
 40
4.195393625282974
 40
4.195393625282974
 40
4.509552890651171
 40
4.509552890651171
 40
4.823712156019369
 40
4.823712156019369
 40
5.137871421387566
 40
5.137871421387566
 40
5.452030686755762
 40
5.452030686755762
 40
5.766189952123956
 40
5.766189952123956
 40
5.766189952123956
 40
5.766189952123956
 10
203.1178527875422
 20
160.0269264917243
 30
0.0000000000004547
 10
202.6122456370358
 20
160.0269264917243
 30
0.0000000000004547
 10
202.0606517189401
 20
160.0108656997548
 30
0.0000000000004547
 10
200.9198198458023
 20
159.9481302079951
 30
0.0000000000004547
 10
200.3307549431136
 20
159.9014677063331
 30
0.0000000000004547
 10
199.173076878882
 20
159.7821193291081
 30
0.0000000000004547
 10
198.6046426794189
 20
159.7094508699515
 30
0.0000000000004547
 10
197.5444088714332
 20
159.5453047137553
 30
0.0000000000004547
 10
197.0527567968358
 20
159.4538408471025
 30
0.0000000000004547
 10
196.1952933036268
 20
159.2614159319533
 30
0.0000000000004547
 10
195.8294808342423
 20
159.1603695620719
 30
0.0000000000004547
 10
195.5462571967316
 20
159.0604896243289
 30
0.0000000000004547
  0
LINE
  5
D2
330
85
100
AcDbEntity
  8
可視
100
AcDbLine
 10
203.1178527875422
 20
160.0269264917243
 30
0.0000000000004547
 11
257.6774532257391
 21
160.0269264917251
 31
0.0000000000004547
210
0.0
220
1.0
230
0.0
  0
SPLINE
  5
D3
330
85
100
AcDbEntity
  8
可視
100
AcDbSpline
210
0.0
220
0.0
230
1.0
 70
     8
 71
     3
 72
    16
 73
    12
 74
     0
 42
0.000000001
 43
0.0000000001
 40
3.157505283019248
 40
3.157505283019248
 40
3.157505283019248
 40
3.157505283019248
 40
3.365082951481211
 40
3.365082951481211
 40
3.572660619943174
 40
3.572660619943174
 40
3.780238288405136
 40
3.780238288405136
 40
3.9878159568671
 40
3.9878159568671
 40
4.195393625329061
 40
4.195393625329061
 40
4.195393625329061
 40
4.195393625329061
 10
260.3978231156125
 20
159.6381386257264
 30
0.0000000000004547
 10
260.3965305021102
 20
159.6503349708352
 30
0.0000000000004547
 10
260.3807843551779
 20
159.6825214475598
 30
0.0000000000004547
 10
260.2373411648064
 20
159.7657927503396
 30
0.0000000000004547
 10
260.1198696851932
 20
159.8093884347081
 30
0.0000000000004547
 10
259.8084008672479
 20
159.8851723046922
 30
0.0000000000004547
 10
259.6141748607231
 20
159.9182470317975
 30
0.0000000000004547
 10
259.159883277733
 20
159.971824905124
 30
0.0000000000004547
 10
258.8997490037477
 20
159.9923996068627
 30
0.0000000000004547
 10
258.3255720410766
 20
160.0199457466596
 30
0.0000000000004547
 10
258.0115282158228
 20
160.0269264917282
 30
0.0000000000004547
 10
257.6774532257391
 20
160.0269264917251
 30
0.0000000000004547
  0
SPLINE
  5
D4
330
85
100
AcDbEntity
  8
可視
100
AcDbSpline
210
0.0
220
0.0
230
1.0
 70
     8
 71
     3
 72
     8
 73
     4
 74
     0
 42
0.000000001
 43
0.0000000001
 40
0.0
 40
0.0
 40
0.0
 40
0.0
 40
0.0580774153615883
 40
0.0580774153615883
 40
0.0580774153615883
 40
0.0580774153615883
 10
185.2329238465969
 20
169.8326356115885
 30
0.0000000000004547
 10
185.2715742619978
 20
169.8340367715163
 30
0.0000000000004547
 10
185.3102239345626
 20
169.8354318948564
 30
0.0000000000004547
 10
185.3488727929882
 20
169.8368208311925
 30
0.0000000000004547
  0
SPLINE
  5
D5
330
85
100
AcDbEntity
  8
可視
100
AcDbSpline
210
0.0
220
0.0
230
1.0
 70
     8
 71
     3
 72
    12
 73
     8
 74
     0
 42
0.000000001
 43
0.0000000001
 40
0.0888083853149692
 40
0.0888083853149692
 40
0.0888083853149692
 40
0.0888083853149692
 40
5.43985512133961
 40
5.43985512133961
 40
10.96149996652297
 40
10.96149996652297
 40
13.13221197868558
 40
13.13221197868558
 40
13.13221197868558
 40
13.13221197868558
 10
164.0899940716153
 20
154.1874124908021
 30
0.0000000000004547
 10
165.511983899029
 20
156.4164753167833
 30
0.0000000000004547
 10
167.0130685022025
 20
158.4545266682843
 30
0.0000000000004547
 10
170.1809471920308
 20
162.1456482482205
 30
0.0000000000004547
 10
171.8619529865334
 20
163.7912950632542
 30
0.0000000000004547
 10
174.2715069574217
 20
165.6914824765516
 30
0.0000000000004547
 10
174.9606022934524
 20
166.1857420536718
 30
0.0000000000004547
 10
175.6568979779149
 20
166.6348723275921
 30
0.0000000000004547
  0
SPLINE
  5
D6
330
85
100
AcDbEntity
  8
可視
100
AcDbSpline
210
0.0
220
0.0
230
1.0
 70
     8
 71
     3
 72
    10
 73
     6
 74
     0
 42
0.000000001
 43
0.0000000001
 40
19.6322506964894
 40
19.6322506964894
 40
19.6322506964894
 40
19.6322506964894
 40
21.45877292483808
 40
21.45877292483808
 40
22.79585701442663
 40
22.79585701442663
 40
22.79585701442663
 40
22.79585701442663
 10
182.058795273045
 20
169.4128775249676
 30
0.0000000000004547
 10
182.6686374380751
 20
169.5527662863308
 30
0.0000000000004547
 10
183.2798807369017
 20
169.6583146904902
 30
0.0000000000004547
 10
184.3383312454189
 20
169.7822514472434
 30
0.0000000000004547
 10
184.786077572691
 20
169.8164610924418
 30
0.0000000000004547
 10
185.2336105325673
 20
169.8326585020442
 30
0.0000000000004547
  0
SPLINE
  5
D7
330
85
100
AcDbEntity
  8
可視
100
AcDbSpline
210
0.0
220
0.0
230
1.0
 70
     8
 71
     3
 72
     8
 73
     4
 74
     0
 42
0.000000001
 43
0.0000000001
 40
0.0
 40
0.0
 40
0.0
 40
0.0
 40
0.0617132575370578
 40
0.0617132575370578
 40
0.0617132575370578
 40
0.0617132575370578
 10
198.4528730872444
 20
165.6192333747112
 30
0.0000000000004547
 10
198.4799466660277
 20
165.6226489114367
 30
0.0000000000004547
 10
198.5070136175593
 20
165.6260589798826
 30
0.0000000000004547
 10
198.5340740246044
 20
165.629463560442
 30
0.0000000000004547
  0
SPLINE
  5
D8
330
85
100
AcDbEntity
  8
可視
100
AcDbSpline
210
0.0
220
0.0
230
1.0
 70
     8
 71
     3
 72
     8
 73
     4
 74
     0
 42
0.000000001
 43
0.0000000001
 40
0.0
 40
0.0
 40
0.0
 40
0.0
 40
1.537282838625664
 40
1.537282838625664
 40
1.537282838625664
 40
1.537282838625664
 10
201.8813021704821
 20
166.2333155373437
 30
0.0000000000004547
 10
202.3977172634811
 20
166.1648785523611
 30
0.0000000000004547
 10
202.9139319403427
 20
166.087965760218
 30
0.0000000000004547
 10
203.4298594878539
 20
166.0031709418485
 30
0.0000000000004547
  0
SPLINE
  5
D9
330
85
100
AcDbEntity
  8
可視
100
AcDbSpline
210
0.0
220
0.0
230
1.0
 70
     8
 71
     3
 72
    10
 73
     6
 74
     0
 42
0.000000001
 43
0.0000000001
 40
3.700774264536091
 40
3.700774264536091
 40
3.700774264536091
 40
3.700774264536091
 40
7.459887362212022
 40
7.459887362212022
 40
8.615232545632304
 40
8.615232545632304
 40
8.615232545632304
 40
8.615232545632304
 10
196.9204914797862
 20
166.6142796091789
 30
0.0000000000004547
 10
198.1854894088271
 20
166.5927147028593
 30
0.0000000000004547
 10
199.4508863235257
 20
166.5092578319912
 30
0.0000000000004547
 10
201.1026277712758
 20
166.331689779125
 30
0.0000000000004547
 10
201.4908485098783
 20
166.2849905393031
 30
0.0000000000004547
 10
201.8789390307199
 20
166.2336073288903
 30
0.0000000000004547
  0
SPLINE
  5
DA
330
85
100
AcDbEntity
  8
可視
100
AcDbSpline
210
0.0
220
0.0
230
1.0
 70
    24
 71
     3
 72
     8
 73
     4
 74
     0
 42
0.000000001
 43
0.0000000001
 40
0.9433965646496764
 40
0.9433965646496764
 40
0.9433965646496764
 40
0.9433965646496764
 40
0.9434611902769155
 40
0.9434611902769155
 40
0.9434611902769155
 40
0.9434611902769155
 10
197.424316561978
 20
166.2385716653579
 30
0.0000000000004547
 10
197.424338293973
 20
166.2385706066856
 30
0.0000000000004547
 10
197.4243600259779
 20
166.2385695479969
 30
0.0000000000004547
 10
197.4243817579729
 20
166.2385684892925
 30
0.0000000000004547
  0
SPLINE
  5
DB
330
85
100
AcDbEntity
  8
可視
100
AcDbSpline
210
0.0
220
0.0
230
1.0
 70
     8
 71
     3
 72
     8
 73
     4
 74
     0
 42
0.000000001
 43
0.0000000001
 40
1.090148561486397
 40
1.090148561486397
 40
1.090148561486397
 40
1.090148561486397
 40
4.722614108562028
 40
4.722614108562028
 40
4.722614108562028
 40
4.722614108562028
 10
197.5723639964508
 20
166.2311117651143
 30
0.0000000000004547
 10
198.7938752710722
 20
166.1675204031567
 30
0.0000000000004547
 10
200.0153944278936
 20
166.0533626338206
 30
0.0000000000004547
 10
201.2354539863231
 20
165.8955006510388
 30
0.0000000000004547
  0
LINE
  5
DC
330
85
100
AcDbEntity
  8
可視
100
AcDbLine
 10
196.6668085636483
 20
168.3543761849539
 30
0.0000000000004547
 11
196.8467730917004
 21
166.656347418301
 31
0.0000000000004547
210
0.0
220
1.0
230
0.0
  0
LINE
  5
DD
330
85
100
AcDbEntity
  8
可視
100
AcDbLine
 10
196.8549898822784
 20
166.5788191024584
 30
0.0000000000004547
 11
196.8550007743779
 21
166.5787163316603
 31
0.0000000000004547
210
0.0
220
1.0
230
0.0
  0
LINE
  5
DE
330
85
100
AcDbEntity
  8
可視
100
AcDbLine
 10
194.2692567043261
 20
168.1429996447306
 30
0.0000000000004547
 11
194.2823692609768
 21
167.956736429145
 31
0.0000000000004547
210
0.0
220
1.0
230
0.0
  0
LINE
  5
DF
330
85
100
AcDbEntity
  8
可視
100
AcDbLine
 10
194.2853740843401
 20
167.9140530625903
 30
0.0000000000004547
 11
194.2854053377502
 21
167.9136091094575
 31
0.0000000000004547
210
0.0
220
1.0
230
0.0
  0
SPLINE
  5
E0
330
85
100
AcDbEntity
  8
可視
100
AcDbSpline
210
0.0
220
0.0
230
1.0
 70
     8
 71
     3
 72
    36
 73
    32
 74
     0
 42
0.000000001
 43
0.0000000001
 40
6.272583302125147
 40
6.272583302125147
 40
6.272583302125147
 40
6.272583302125147
 40
6.330521592063234
 40
6.330521592063234
 40
6.395857499686262
 40
6.395857499686262
 40
6.485958027550742
 40
6.485958027550742
 40
6.667146483859235
 40
6.667146483859235
 40
6.953609050267952
 40
6.953609050267952
 40
7.331854787512593
 40
7.331854787512593
 40
7.668981272390056
 40
7.668981272390056
 40
7.999035390252577
 40
7.999035390252577
 40
8.328983276832646
 40
8.328983276832646
 40
8.66532688690374
 40
8.66532688690374
 40
9.030317307212737
 40
9.030317307212737
 40
9.219591058495419
 40
9.219591058495419
 40
9.292878433231198
 40
9.292878433231198
 40
9.379114580167897
 40
9.379114580167897
 40
9.408864809778103
 40
9.408864809778103
 40
9.408864809778103
 40
9.408864809778103
 10
251.4269333488021
 20
168.1429997199932
 30
0.0000000000004547
 10
251.4249256029659
 20
168.1715207779941
 30
0.0000000000004547
 10
251.4288024152877
 20
168.1999454167674
 30
0.0000000000004547
 10
251.4444844360257
 20
168.2514579877902
 30
0.0000000000004547
 10
251.4566599521336
 20
168.2735037315178
 30
0.0000000000004547
 10
251.4860162408925
 20
168.3153451949461
 30
0.0000000000004547
 10
251.503382923866
 20
168.3318502164454
 30
0.0000000000004547
 10
251.5526869712267
 20
168.3724350740651
 30
0.0000000000004547
 10
251.5830257003597
 20
168.3883376731712
 30
0.0000000000004547
 10
251.6666088781001
 20
168.4268867925136
 30
0.0000000000004547
 10
251.7233033289278
 20
168.4458282320598
 30
0.0000000000004547
 10
251.8764884124018
 20
168.4882984006497
 30
0.0000000000004547
 10
251.9792231573908
 20
168.5103926406137
 30
0.0000000000004547
 10
252.1950418255863
 20
168.5478028543308
 30
0.0000000000004547
 10
252.3055364336867
 20
168.5634811792033
 30
0.0000000000004547
 10
252.5309039191141
 20
168.5892882608273
 30
0.0000000000004547
 10
252.6455636260198
 20
168.5995134870519
 30
0.0000000000004547
 10
252.8699500745611
 20
168.6138786239127
 30
0.0000000000004547
 10
252.9796097946309
 20
168.6180207418117
 30
0.0000000000004547
 10
253.1855640233553
 20
168.6197154555006
 30
0.0000000000004547
 10
253.281402362494
 20
168.6171786677518
 30
0.0000000000004547
 10
253.4571355256198
 20
168.6042717455428
 30
0.0000000000004547
 10
253.5334258906932
 20
168.5943882110278
 30
0.0000000000004547
 10
253.6383138955375
 20
168.5652454285875
 30
0.0000000000004547
 10
253.672498494414
 20
168.5541292870926
 30
0.0000000000004547
 10
253.7284002714175
 20
168.5182442309317
 30
0.0000000000004547
 10
253.7451339138072
 20
168.5056761928468
 30
0.0000000000004547
 10
253.7824124852388
 20
168.4663109778439
 30
0.0000000000004547
 10
253.803608473668
 20
168.4360448752301
 30
0.0000000000004547
 10
253.8199200657491
 20
168.3833606323952
 30
0.0000000000004547
 10
253.8229378454675
 20
168.368975761108
 30
0.0000000000004547
 10
253.8244852054686
 20
168.3543762599822
 30
0.0000000000004547
  0
LINE
  5
E1
330
85
100
AcDbEntity
  8
可視
100
AcDbLine
 10
253.8244852134212
 20
168.3543761849547
 30
0.0000000000004547
 11
254.0366170885304
 21
166.3528371585774
 31
0.0000000000004547
210
0.0
220
1.0
230
0.0
  0
LINE
  5
E2
330
85
100
AcDbEntity
  8
可視
100
AcDbLine
 10
254.0372078195783
 20
166.3472634028847
 30
0.0000000000004547
 11
254.0372246382267
 21
166.3471047130059
 31
0.0000000000004547
210
0.0
220
1.0
230
0.0
  0
LINE
  5
E3
330
85
100
AcDbEntity
  8
可視
100
AcDbLine
 10
251.4269333540994
 20
168.1429996447315
 30
0.0000000000004547
 11
251.5355945439685
 21
166.5994728425996
 31
0.0000000000004547
210
0.0
220
1.0
230
0.0
  0
LINE
  5
E4
330
85
100
AcDbEntity
  8
可視
100
AcDbLine
 10
251.5362564722987
 20
166.5900701835716
 30
0.0000000000004547
 11
251.5362713779214
 21
166.5898584499355
 31
0.0000000000004547
210
0.0
220
1.0
230
0.0
  0
SPLINE
  5
E5
330
85
100
AcDbEntity
  8
可視
100
AcDbSpline
210
0.0
220
0.0
230
1.0
 70
     8
 71
     3
 72
     8
 73
     4
 74
     0
 42
0.000000001
 43
0.0000000001
 40
2.338753674078892
 40
2.338753674078892
 40
2.338753674078892
 40
2.338753674078892
 40
4.169270375972637
 40
4.169270375972637
 40
4.169270375972637
 40
4.169270375972637
 10
255.7244737098797
 20
166.1477786999756
 30
0.0000000000004547
 10
256.3321177262665
 20
166.0986175435026
 30
0.0000000000004547
 10
256.9392704983875
 20
166.0372421394296
 30
0.0000000000004547
 10
257.5457657224292
 20
165.9644541258779
 30
0.0000000000004547
  0
SPLINE
  5
E6
330
85
100
AcDbEntity
  8
可視
100
AcDbSpline
210
0.0
220
0.0
230
1.0
 70
     8
 71
     3
 72
     8
 73
     4
 74
     0
 42
0.000000001
 43
0.0000000001
 40
0.0
 40
0.0
 40
0.0
 40
0.0
 40
0.2156036741074892
 40
0.2156036741074892
 40
0.2156036741074892
 40
0.2156036741074892
 10
259.202556811837
 20
165.7883878767381
 30
0.0000000000004547
 10
259.2550394240377
 20
165.7526713767769
 30
0.0000000000004547
 10
259.3077651970718
 20
165.716639803422
 30
0.0000000000004547
 10
259.3607240831377
 20
165.6802963151349
 30
0.0000000000004547
  0
SPLINE
  5
E7
330
85
100
AcDbEntity
  8
可視
100
AcDbSpline
210
0.0
220
0.0
230
1.0
 70
     8
 71
     3
 72
     8
 73
     4
 74
     0
 42
0.000000001
 43
0.0000000001
 40
2.690407353848924
 40
2.690407353848924
 40
2.690407353848924
 40
2.690407353848924
 40
4.268546279066232
 40
4.268546279066232
 40
4.268546279066232
 40
4.268546279066232
 10
251.0293094134675
 20
169.4163813759483
 30
0.0000000000004547
 10
251.5613955900541
 20
169.2997428507036
 30
0.0000000000004547
 10
252.0923995106016
 20
169.159950629735
 30
0.0000000000004547
 10
252.6214877029409
 20
168.9975590505375
 30
0.0000000000004547
  0
SPLINE
  5
E8
330
85
100
AcDbEntity
  8
可視
100
AcDbSpline
210
0.0
220
0.0
230
1.0
 70
     8
 71
     3
 72
     8
 73
     4
 74
     0
 42
0.000000001
 43
0.0000000001
 40
5.709393870551833
 40
5.709393870551833
 40
5.709393870551833
 40
5.709393870551833
 40
10.80408599900668
 40
10.80408599900668
 40
10.80408599900668
 40
10.80408599900668
 10
254.0656603039768
 20
168.4975005032414
 30
0.0000000000004547
 10
255.7623686405725
 20
167.8429818634301
 30
0.0000000000004547
 10
257.4417954081016
 20
166.9627434323445
 30
0.0000000000004547
 10
259.082555449281
 20
165.8681667464232
 30
0.0000000000004547
  0
SPLINE
  5
E9
330
85
100
AcDbEntity
  8
可視
100
AcDbSpline
210
0.0
220
0.0
230
1.0
 70
     8
 71
     3
 72
     8
 73
     4
 74
     0
 42
0.000000001
 43
0.0000000001
 40
0.0315420260349498
 40
0.0315420260349498
 40
0.0315420260349498
 40
0.0315420260349498
 40
4.219302915533352
 40
4.219302915533352
 40
4.219302915533352
 40
4.219302915533352
 10
241.4555079876977
 20
168.8877777170673
 30
0.0000000000004547
 10
242.8418410047743
 20
169.3652590804553
 30
0.0000000000004547
 10
244.2456262522428
 20
169.6643617702005
 30
0.0000000000004547
 10
245.6483785519483
 20
169.7853698199033
 30
0.0000000000004547
  0
SPLINE
  5
EA
330
85
100
AcDbEntity
  8
可視
100
AcDbSpline
210
0.0
220
0.0
230
1.0
 70
    24
 71
     3
 72
     8
 73
     4
 74
     0
 42
0.000000001
 43
0.0000000001
 40
16.65874357726589
 40
16.65874357726589
 40
16.65874357726589
 40
16.65874357726589
 40
16.65876814162132
 40
16.65876814162132
 40
16.65876814162132
 40
16.65876814162132
 10
239.8371990076193
 20
168.246294864148
 30
0.0000000000004547
 10
239.8372070756206
 20
168.2462984839187
 30
0.0000000000004547
 10
239.8372151436221
 20
168.2463021036832
 30
0.0000000000004547
 10
239.8372232116246
 20
168.2463057234417
 30
0.0000000000004547
  0
LINE
  5
EB
330
85
100
AcDbEntity
  8
可視
100
AcDbLine
 10
239.0270441198449
 20
168.8877777170672
 30
0.0000000000004547
 11
241.4868890312089
 21
168.8877777170673
 31
0.0000000000004547
210
0.0
220
1.0
230
0.0
  0
SPLINE
  5
EC
330
85
100
AcDbEntity
  8
可視
100
AcDbSpline
210
0.0
220
0.0
230
1.0
 70
     8
 71
     3
 72
     8
 73
     4
 74
     0
 42
0.000000001
 43
0.0000000001
 40
1.078382964249294
 40
1.078382964249294
 40
1.078382964249294
 40
1.078382964249294
 40
1.078425356841127
 40
1.078425356841127
 40
1.078425356841127
 40
1.078425356841127
 10
237.9708342704712
 20
168.11717472378
 30
0.0000000000004547
 10
237.9708454682052
 20
168.1171955988966
 30
0.0000000000004547
 10
237.9708566665413
 20
168.1172164743794
 30
0.0000000000004547
 10
237.9708678647298
 20
168.1172373488297
 30
0.0000000000004547
  0
SPLINE
  5
ED
330
85
100
AcDbEntity
  8
可視
100
AcDbSpline
210
0.0
220
0.0
230
1.0
 70
     8
 71
     3
 72
    14
 73
    10
 74
     0
 42
0.000000001
 43
0.0000000001
 40
1.080575752982879
 40
1.080575752982879
 40
1.080575752982879
 40
1.080575752982879
 40
1.156359798871348
 40
1.156359798871348
 40
1.55818946807286
 40
1.55818946807286
 40
1.75098342131184
 40
1.75098342131184
 40
1.991948318122548
 40
1.991948318122548
 40
1.991948318122548
 40
1.991948318122548
 10
237.9725737463214
 20
168.1204114267663
 30
0.0000000000004547
 10
237.9926336278911
 20
168.1576676205675
 30
0.0000000000004547
 10
238.013424564964
 20
168.1938617203696
 30
0.0000000000004547
 10
238.1488285309915
 20
168.414603453625
 30
0.0000000000004547
 10
238.2855531568657
 20
168.5729738951083
 30
0.0000000000004547
 10
238.5201378543559
 20
168.7434484983735
 30
0.0000000000004547
 10
238.6019898113172
 20
168.7893297241743
 30
0.0000000000004547
 10
238.7960309635016
 20
168.8650105257366
 30
0.0000000000004547
 10
238.9119528248339
 20
168.8877495902744
 30
0.0000000000004547
 10
239.0271914275997
 20
168.8877492954545
 30
0.0000000000004547
  0
SPLINE
  5
EE
330
85
100
AcDbEntity
  8
可視
100
AcDbSpline
210
0.0
220
0.0
230
1.0
 70
     8
 71
     3
 72
     8
 73
     4
 74
     0
 42
0.000000001
 43
0.0000000001
 40
0.0
 40
0.0
 40
0.0
 40
0.0
 40
0.113249063388416
 40
0.113249063388416
 40
0.113249063388416
 40
0.113249063388416
 10
253.5989487688748
 20
166.396300057137
 30
0.0000000000004547
 10
253.6597917440156
 20
166.3904080210667
 30
0.0000000000004547
 10
253.7205844552391
 20
166.3844890671754
 30
0.0000000000004547
 10
253.7813237051691
 20
166.3785433439341
 30
0.0000000000004547
  0
SPLINE
  5
EF
330
85
100
AcDbEntity
  8
可視
100
AcDbSpline
210
0.0
220
0.0
230
1.0
 70
     8
 71
     3
 72
     8
 73
     4
 74
     0
 42
0.000000001
 43
0.0000000001
 40
18.55592383193408
 40
18.55592383193408
 40
18.55592383193408
 40
18.55592383193408
 40
18.55849795647051
 40
18.55849795647051
 40
18.55849795647051
 40
18.55849795647051
 10
251.8957420992961
 20
166.5387829639179
 30
0.0000000000004547
 10
251.8965974470114
 20
166.5387283172413
 30
0.0000000000004547
 10
251.897452793625
 20
166.5386736437179
 30
0.0000000000004547
 10
251.8983081391373
 20
166.5386189433505
 30
0.0000000000004547
  0
SPLINE
  5
F0
330
85
100
AcDbEntity
  8
可視
100
AcDbSpline
210
0.0
220
0.0
230
1.0
 70
     8
 71
     3
 72
     8
 73
     4
 74
     0
 42
0.000000001
 43
0.0000000001
 40
18.74906630530051
 40
18.74906630530051
 40
18.74906630530051
 40
18.74906630530051
 40
20.00039190010056
 40
20.00039190010056
 40
20.00039190010056
 40
20.00039190010056
 10
252.0882593160543
 20
166.5260298489502
 30
0.0000000000004547
 10
252.5039761236219
 20
166.4975139269037
 30
0.0000000000004547
 10
252.9194204674263
 20
166.4627004709111
 30
0.0000000000004547
 10
253.3345131825856
 20
166.4218914150446
 30
0.0000000000004547
  0
SPLINE
  5
F1
330
85
100
AcDbEntity
  8
可視
100
AcDbSpline
210
0.0
220
0.0
230
1.0
 70
     8
 71
     3
 72
     8
 73
     4
 74
     0
 42
0.000000001
 43
0.0000000001
 40
0.0000656660374708
 40
0.0000656660374708
 40
0.0000656660374708
 40
0.0000656660374708
 40
2.889720595801357
 40
2.889720595801357
 40
2.889720595801357
 40
2.889720595801357
 10
253.7813237022933
 20
166.378543314559
 30
0.0000000000004547
 10
254.7526577198387
 20
166.2834605272626
 30
0.0000000000004547
 10
255.7235798828811
 20
166.1571991559582
 30
0.0000000000004547
 10
256.6934846697143
 20
166.003766489879
 30
0.0000000000004547
  0
SPLINE
  5
F2
330
85
100
AcDbEntity
  8
可視
100
AcDbSpline
210
0.0
220
0.0
230
1.0
 70
     8
 71
     3
 72
     8
 73
     4
 74
     0
 42
0.000000001
 43
0.0000000001
 40
0.0
 40
0.0
 40
0.0
 40
0.0
 40
0.0596700248464582
 40
0.0596700248464582
 40
0.0596700248464582
 40
0.0596700248464582
 10
198.7621783137672
 20
167.7700190350448
 30
0.0000000000004547
 10
198.799990826544
 20
167.7757061912578
 30
0.0000000000004547
 10
198.837805111533
 20
167.781375828144
 30
0.0000000000004547
 10
198.8756211909717
 20
167.7870279605313
 30
0.0000000000004547
  0
SPLINE
  5
F3
330
85
100
AcDbEntity
  8
可視
100
AcDbSpline
210
0.0
220
0.0
230
1.0
 70
     8
 71
     3
 72
     8
 73
     4
 74
     0
 42
0.000000001
 43
0.0000000001
 40
0.0
 40
0.0
 40
0.0
 40
0.0
 40
0.0557440346297592
 40
0.0557440346297592
 40
0.0557440346297592
 40
0.0557440346297592
 10
200.9436315479486
 20
168.0785043376339
 30
0.0000000000004547
 10
200.9790291958677
 20
168.0831936680208
 30
0.0000000000004547
 10
201.0144288346128
 20
168.0878679563835
 30
0.0000000000004547
 10
201.0498304770747
 20
168.0925272130455
 30
0.0000000000004547
  0
SPLINE
  5
F4
330
85
100
AcDbEntity
  8
可視
100
AcDbSpline
210
0.0
220
0.0
230
1.0
 70
     8
 71
     3
 72
     8
 73
     4
 74
     0
 42
0.000000001
 43
0.0000000001
 40
0.0
 40
0.0
 40
0.0
 40
0.0
 40
0.052578034815618
 40
0.052578034815618
 40
0.052578034815618
 40
0.052578034815618
 10
203.1250477724163
 20
168.3482332739926
 30
0.0000000000004547
 10
203.1585188072281
 20
168.3520783125599
 30
0.0000000000004547
 10
203.191991914902
 20
168.3559101597571
 30
0.0000000000004547
 10
203.2254671024159
 20
168.3597288232584
 30
0.0000000000004547
  0
SPLINE
  5
F5
330
85
100
AcDbEntity
  8
可視
100
AcDbSpline
210
0.0
220
0.0
230
1.0
 70
     8
 71
     3
 72
     8
 73
     4
 74
     0
 42
0.000000001
 43
0.0000000001
 40
0.0
 40
0.0
 40
0.0
 40
0.0
 40
0.0501550332268976
 40
0.0501550332268976
 40
0.0501550332268976
 40
0.0501550332268976
 10
205.3092710212991
 20
168.5802090001885
 30
0.0000000000004547
 10
205.3412902932359
 20
168.5833337657916
 30
0.0000000000004547
 10
205.3733116567503
 20
168.5864466843361
 30
0.0000000000004547
 10
205.4053351150292
 20
168.5895477620261
 30
0.0000000000004547
  0
SPLINE
  5
F6
330
85
100
AcDbEntity
  8
可視
100
AcDbSpline
210
0.0
220
0.0
230
1.0
 70
     8
 71
     3
 72
     8
 73
     4
 74
     0
 42
0.000000001
 43
0.0000000001
 40
0.0003319690760012
 40
0.0003319690760012
 40
0.0003319690760012
 40
0.0003319690760012
 40
0.0484635945712042
 40
0.0484635945712042
 40
0.0484635945712042
 40
0.0484635945712042
 10
207.4993966184354
 20
168.7752761112183
 30
0.0000000000004547
 10
207.5302188637358
 20
168.7777604248823
 30
0.0000000000004547
 10
207.5610431722846
 20
168.7802339651568
 30
0.0000000000004547
 10
207.5918695446941
 20
168.7826967374475
 30
0.0000000000004547
  0
SPLINE
  5
F7
330
85
100
AcDbEntity
  8
可視
100
AcDbSpline
210
0.0
220
0.0
230
1.0
 70
     8
 71
     3
 72
     8
 73
     4
 74
     0
 42
0.000000001
 43
0.0000000001
 40
0.0
 40
0.0
 40
0.0
 40
0.0
 40
0.0475082988000835
 40
0.0475082988000835
 40
0.0475082988000835
 40
0.0475082988000835
 10
209.695680707126
 20
168.9339158326385
 30
0.0000000000004547
 10
209.7262026253804
 20
168.9358668282018
 30
0.0000000000004547
 10
209.7567266449744
 20
168.9378074616252
 30
0.0000000000004547
 10
209.7872527646014
 20
168.9397377383321
 30
0.0000000000004547
  0
SPLINE
  5
F8
330
85
100
AcDbEntity
  8
可視
100
AcDbSpline
210
0.0
220
0.0
230
1.0
 70
     8
 71
     3
 72
     8
 73
     4
 74
     0
 42
0.000000001
 43
0.0000000001
 40
0.0
 40
0.0
 40
0.0
 40
0.0
 40
0.0472898264086407
 40
0.0472898264086407
 40
0.0472898264086407
 40
0.0472898264086407
 10
211.9020970076872
 20
169.0568075073583
 30
0.0000000000004547
 10
211.9325805447422
 20
169.0582566187193
 30
0.0000000000004547
 10
211.9630662180568
 20
169.0596956035059
 30
0.0000000000004547
 10
211.993554024609
 20
169.0611244675828
 30
0.0000000000004547
  0
SPLINE
  5
F9
330
85
100
AcDbEntity
  8
可視
100
AcDbSpline
210
0.0
220
0.0
230
1.0
 70
     8
 71
     3
 72
     8
 73
     4
 74
     0
 42
0.000000001
 43
0.0000000001
 40
0.0
 40
0.0
 40
0.0
 40
0.0
 40
0.0478180523969211
 40
0.0478180523969211
 40
0.0478180523969211
 40
0.0478180523969211
 10
214.1199873096871
 20
169.1443416165568
 30
0.0000000000004547
 10
214.1509164848328
 20
169.1453148104182
 30
0.0000000000004547
 10
214.1818478662462
 20
169.1462778090526
 30
0.0000000000004547
 10
214.2127814490593
 20
169.147230619373
 30
0.0000000000004547
  0
SPLINE
  5
FA
330
85
100
AcDbEntity
  8
可視
100
AcDbSpline
210
0.0
220
0.0
230
1.0
 70
     8
 71
     3
 72
     8
 73
     4
 74
     0
 42
0.000000001
 43
0.0000000001
 40
0.0
 40
0.0
 40
0.0
 40
0.0
 40
0.0577482322699223
 40
0.0577482322699223
 40
0.0577482322699223
 40
0.0577482322699223
 10
223.1448143586174
 20
169.1485237637787
 30
0.0000000000004547
 10
223.1826500577652
 20
169.1474226014806
 30
0.0000000000004547
 10
223.2204884923592
 20
169.1463080554575
 30
0.0000000000004547
 10
223.2583296424361
 20
169.1451801525641
 30
0.0000000000004547
  0
SPLINE
  5
FB
330
85
100
AcDbEntity
  8
可視
100
AcDbSpline
210
0.0
220
0.0
230
1.0
 70
     8
 71
     3
 72
     8
 73
     4
 74
     0
 42
0.000000001
 43
0.0000000001
 40
0.0
 40
0.0
 40
0.0
 40
0.0
 40
0.0623230824316196
 40
0.0623230824316196
 40
0.0623230824316196
 40
0.0623230824316196
 10
225.448806691149
 20
169.0652984538758
 30
0.0000000000004547
 10
225.4897552318305
 20
169.0635369138773
 30
0.0000000000004547
 10
225.5307067382607
 20
169.0617604640824
 30
0.0000000000004547
 10
225.5716611799646
 20
169.0599691446978
 30
0.0000000000004547
  0
SPLINE
  5
FC
330
85
100
AcDbEntity
  8
可視
100
AcDbSpline
210
0.0
220
0.0
230
1.0
 70
     8
 71
     3
 72
     8
 73
     4
 74
     0
 42
0.000000001
 43
0.0000000001
 40
0.0
 40
0.0
 40
0.0
 40
0.0
 40
0.0678244518045671
 40
0.0678244518045671
 40
0.0678244518045671
 40
0.0678244518045671
 10
227.7768121220749
 20
168.9495416427789
 30
0.0000000000004547
 10
227.8214911787133
 20
168.9470267106705
 30
0.0000000000004547
 10
227.866173393729
 20
168.9444950831809
 30
0.0000000000004547
 10
227.9108587198484
 20
168.9419468223902
 30
0.0000000000004547
  0
SPLINE
  5
FD
330
85
100
AcDbEntity
  8
可視
100
AcDbSpline
210
0.0
220
0.0
230
1.0
 70
     8
 71
     3
 72
     8
 73
     4
 74
     0
 42
0.000000001
 43
0.0000000001
 40
0.0
 40
0.0
 40
0.0
 40
0.0
 40
0.0743165345690747
 40
0.0743165345690747
 40
0.0743165345690747
 40
0.0743165345690747
 10
230.1318823086076
 20
168.8020501304154
 30
0.0000000000004547
 10
230.1809504100643
 20
168.7986740888785
 30
0.0000000000004547
 10
230.2300217469619
 20
168.795279397693
 30
0.0000000000004547
 10
230.2790962449969
 20
168.7918661550302
 30
0.0000000000004547
  0
SPLINE
  5
FE
330
85
100
AcDbEntity
  8
可視
100
AcDbSpline
210
0.0
220
0.0
230
1.0
 70
     8
 71
     3
 72
     8
 73
     4
 74
     0
 42
0.000000001
 43
0.0000000001
 40
0.0
 40
0.0
 40
0.0
 40
0.0
 40
0.0818692952083285
 40
0.0818692952083285
 40
0.0818692952083285
 40
0.0818692952083285
 10
232.5174345297698
 20
168.6238381602388
 30
0.0000000000004547
 10
232.5715919160245
 20
168.6194830786724
 30
0.0000000000004547
 10
232.6257523660104
 20
168.6151074167637
 30
0.0000000000004547
 10
232.679915761857
 20
168.6107113325189
 30
0.0000000000004547
  0
SPLINE
  5
FF
330
85
100
AcDbEntity
  8
可視
100
AcDbSpline
210
0.0
220
0.0
230
1.0
 70
     8
 71
     3
 72
     8
 73
     4
 74
     0
 42
0.000000001
 43
0.0000000001
 40
0.0
 40
0.0
 40
0.0
 40
0.0
 40
0.0905956889255131
 40
0.0905956889255131
 40
0.0905956889255131
 40
0.0905956889255131
 10
234.9373968176994
 20
168.4162328377981
 30
0.0000000000004547
 10
234.9974095676066
 20
168.4107755938955
 30
0.0000000000004547
 10
235.057424744971
 20
168.4052962065445
 30
0.0000000000004547
 10
235.1174421617147
 20
168.3997949334486
 30
0.0000000000004547
  0
SPLINE
  5
100
330
85
100
AcDbEntity
  8
可視
100
AcDbSpline
210
0.0
220
0.0
230
1.0
 70
     8
 71
     3
 72
     8
 73
     4
 74
     0
 42
0.000000001
 43
0.0000000001
 40
0.0
 40
0.0
 40
0.0
 40
0.0
 40
0.1006177188454817
 40
0.1006177188454817
 40
0.1006177188454817
 40
0.1006177188454817
 10
237.3962548331736
 20
168.1810172711049
 30
0.0000000000004547
 10
237.4629547131935
 20
168.1743397918909
 30
0.0000000000004547
 10
237.5296555737421
 20
168.1676395967967
 30
0.0000000000004547
 10
237.5963571140903
 20
168.1609171099939
 30
0.0000000000004547
  0
SPLINE
  5
101
330
85
100
AcDbEntity
  8
可視
100
AcDbSpline
210
0.0
220
0.0
230
1.0
 70
     8
 71
     3
 72
     8
 73
     4
 74
     0
 42
0.000000001
 43
0.0000000001
 40
0.0
 40
0.0
 40
0.0
 40
0.0
 40
0.1120913646066761
 40
0.1120913646066761
 40
0.1120913646066761
 40
0.1120913646066761
 10
239.8992076290026
 20
167.9206267613197
 30
0.0000000000004547
 10
239.9735057888099
 20
167.9126307831982
 30
0.0000000000004547
 10
240.0478021320466
 20
167.9046135734431
 30
0.0000000000004547
 10
240.1220961783408
 20
167.8965758344407
 30
0.0000000000004547
  0
SPLINE
  5
102
330
85
100
AcDbEntity
  8
可視
100
AcDbSpline
210
0.0
220
0.0
230
1.0
 70
     8
 71
     3
 72
     8
 73
     4
 74
     0
 42
0.000000001
 43
0.0000000001
 40
0.0
 40
0.0
 40
0.0
 40
0.0
 40
0.1252113664328174
 40
0.1252113664328174
 40
0.1252113664328174
 40
0.1252113664328174
 10
242.4523227200607
 20
167.6384353422987
 30
0.0000000000004547
 10
242.5352228689085
 20
167.6290656718486
 30
0.0000000000004547
 10
242.6181162256276
 20
167.6196801005339
 30
0.0000000000004547
 10
242.701002025314
 20
167.610279795694
 30
0.0000000000004547
  0
SPLINE
  5
103
330
85
100
AcDbEntity
  8
可視
100
AcDbSpline
210
0.0
220
0.0
230
1.0
 70
     8
 71
     3
 72
     8
 73
     4
 74
     0
 42
0.000000001
 43
0.0000000001
 40
0.0
 40
0.0
 40
0.0
 40
0.0
 40
0.1402246017720659
 40
0.1402246017720659
 40
0.1402246017720659
 40
0.1402246017720659
 10
245.0627368870119
 20
167.3391763180883
 30
0.0000000000004547
 10
245.1553520311063
 20
167.3284569798336
 30
0.0000000000004547
 10
245.2479519681781
 20
167.3177338851879
 30
0.0000000000004547
 10
245.3405354848678
 20
167.30700897825
 30
0.0000000000004547
  0
SPLINE
  5
104
330
85
100
AcDbEntity
  8
可視
100
AcDbSpline
210
0.0
220
0.0
230
1.0
 70
     8
 71
     3
 72
     8
 73
     4
 74
     0
 42
0.000000001
 43
0.0000000001
 40
0.0
 40
0.0
 40
0.0
 40
0.0
 40
0.157391291938516
 40
0.157391291938516
 40
0.157391291938516
 40
0.157391291938516
 10
247.7389410613364
 20
167.0295676757529
 30
0.0000000000004547
 10
247.8424769066478
 20
167.0176628366781
 30
0.0000000000004547
 10
247.9459837863112
 20
167.0057780795412
 30
0.0000000000004547
 10
248.0494597814218
 20
166.9939166425784
 30
0.0000000000004547
  0
SPLINE
  5
105
330
85
100
AcDbEntity
  8
可視
100
AcDbSpline
210
0.0
220
0.0
230
1.0
 70
     8
 71
     3
 72
     8
 73
     4
 74
     0
 42
0.000000001
 43
0.0000000001
 40
0.0
 40
0.0
 40
0.0
 40
0.0
 40
0.1763609207961828
 40
0.1763609207961828
 40
0.1763609207961828
 40
0.1763609207961828
 10
250.4909170026128
 20
166.7192924412168
 30
0.0000000000004547
 10
250.6062362230039
 20
166.706645873873
 30
0.0000000000004547
 10
250.7215048506791
 20
166.6940623757169
 30
0.0000000000004547
 10
250.8367198812205
 20
166.6815472724578
 30
0.0000000000004547
  0
SPLINE
  5
106
330
85
100
AcDbEntity
  8
可視
100
AcDbSpline
210
0.0
220
0.0
230
1.0
 70
     8
 71
     3
 72
     8
 73
     4
 74
     0
 42
0.000000001
 43
0.0000000001
 40
0.0
 40
0.0
 40
0.0
 40
0.0
 40
0.0491087692119951
 40
0.0491087692119951
 40
0.0491087692119951
 40
0.0491087692119951
 10
216.3513318379489
 20
169.1969050814956
 30
0.0000000000004547
 10
216.3832044054234
 20
169.1974061932852
 30
0.0000000000004547
 10
216.4150792894368
 20
169.1978967439153
 30
0.0000000000004547
 10
216.4469564827923
 20
169.198376742169
 30
0.0000000000004547
  0
SPLINE
  5
107
330
85
100
AcDbEntity
  8
可視
100
AcDbSpline
210
0.0
220
0.0
230
1.0
 70
     8
 71
     3
 72
     8
 73
     4
 74
     0
 42
0.000000001
 43
0.0000000001
 40
0.0
 40
0.0
 40
0.0
 40
0.0
 40
0.0540485289242718
 40
0.0540485289242718
 40
0.0540485289242718
 40
0.0540485289242718
 10
220.8620972577589
 20
169.1985639549772
 30
0.0000000000004547
 10
220.897403415476
 20
169.1980474047008
 30
0.0000000000004547
 10
220.9327120841376
 20
169.1975187007647
 30
0.0000000000004547
 10
220.9680232504525
 20
169.1969778618127
 30
0.0000000000004547
  0
SPLINE
  5
108
330
85
100
AcDbEntity
  8
可視
100
AcDbSpline
210
0.0
220
0.0
230
1.0
 70
     8
 71
     3
 72
     8
 73
     4
 74
     0
 42
0.000000001
 43
0.0000000001
 40
0.0
 40
0.0
 40
0.0
 40
0.0
 40
0.0511783115884267
 40
0.0511783115884267
 40
0.0511783115884267
 40
0.0511783115884267
 10
218.5981731714653
 20
169.2148545318744
 30
0.0000000000004547
 10
218.6315010748058
 20
169.2148657426009
 30
0.0000000000004547
 10
218.6648314835468
 20
169.2148657280216
 30
0.0000000000004547
 10
218.6981641589639
 20
169.2148545008625
 30
0.0000000000004547
  0
SPLINE
  5
109
330
85
100
AcDbEntity
  8
可視
100
AcDbSpline
210
0.0
220
0.0
230
1.0
 70
     8
 71
     3
 72
     8
 73
     4
 74
     0
 42
0.000000001
 43
0.0000000001
 40
0.0
 40
0.0
 40
0.0
 40
0.0
 40
0.1377389031097961
 40
0.1377389031097961
 40
0.1377389031097961
 40
0.1377389031097961
 10
253.3311685453552
 20
166.4224250260332
 30
0.0000000000004547
 10
253.420470172999
 20
166.4136492303776
 30
0.0000000000004547
 10
253.50973077133
 20
166.4049399313981
 30
0.0000000000004547
 10
253.5989487440472
 20
166.3963000595403
 30
0.0000000000004547
  0
SPLINE
  5
10A
330
85
100
AcDbEntity
  8
可視
100
AcDbSpline
210
0.0
220
0.0
230
1.0
 70
     8
 71
     3
 72
    12
 73
     8
 74
     0
 42
0.000000001
 43
0.0000000001
 40
4.457968427050511
 40
4.457968427050511
 40
4.457968427050511
 40
4.457968427050511
 40
6.779601523675192
 40
6.779601523675192
 40
13.7576456729761
 40
13.7576456729761
 40
15.0224902399317
 40
15.0224902399317
 40
15.0224902399317
 40
15.0224902399317
 10
196.789069522559
 20
167.2008009358981
 30
0.0000000000004547
 10
197.5700930857708
 20
167.2428125347572
 30
0.0000000000004547
 10
198.351775590979
 20
167.255001303112
 30
0.0000000000004547
 10
201.4817370525586
 20
167.1901944061725
 30
0.0000000000004547
 10
203.8342672106498
 20
166.8821973526604
 30
0.0000000000004547
 10
206.5970887591536
 20
166.2727880024408
 30
0.0000000000004547
 10
207.0207241185058
 20
166.1724755466219
 30
0.0000000000004547
 10
207.4439842957708
 20
166.0656916453321
 30
0.0000000000004547
  0
SPLINE
  5
10B
330
85
100
AcDbEntity
  8
可視
100
AcDbSpline
210
0.0
220
0.0
230
1.0
 70
     8
 71
     3
 72
    12
 73
     8
 74
     0
 42
0.000000001
 43
0.0000000001
 40
2.238937487018203
 40
2.238937487018203
 40
2.238937487018203
 40
2.238937487018203
 40
6.615465406250348
 40
6.615465406250348
 40
13.42821282042883
 40
13.42821282042883
 40
14.79934095932954
 40
14.79934095932954
 40
14.79934095932954
 40
14.79934095932954
 10
196.7697046159026
 20
167.3835156570847
 30
0.0000000000004547
 10
198.2397999631499
 20
167.5380783931118
 30
0.0000000000004547
 10
199.715184124029
 20
167.5782649350848
 30
0.0000000000004547
 10
203.4825130942524
 20
167.4077019992007
 30
0.0000000000004547
 10
205.7788158627864
 20
167.0440833043221
 30
0.0000000000004547
 10
208.5183594204882
 20
166.3504775173306
 30
0.0000000000004547
 10
208.9768819908136
 20
166.2256441985212
 30
0.0000000000004547
 10
209.434846840895
 20
166.0925946909148
 30
0.0000000000004547
  0
SPLINE
  5
10C
330
85
100
AcDbEntity
  8
可視
100
AcDbSpline
210
0.0
220
0.0
230
1.0
 70
     8
 71
     3
 72
    12
 73
     8
 74
     0
 42
0.000000001
 43
0.0000000001
 40
0.4559875770436021
 40
0.4559875770436021
 40
0.4559875770436021
 40
0.4559875770436021
 40
6.487904480047383
 40
6.487904480047383
 40
13.16607220625128
 40
13.16607220625128
 40
14.60382816795698
 40
14.60382816795698
 40
14.60382816795698
 40
14.60382816795698
 10
197.1567970463427
 20
167.5147405119158
 30
0.0000000000004547
 10
199.1780598422349
 20
167.8185946570251
 30
0.0000000000004547
 10
201.214234338672
 20
167.8924621413813
 30
0.0000000000004547
 10
205.4943846236436
 20
167.6003230215784
 30
0.0000000000004547
 10
207.7443976892112
 20
167.1864288695893
 30
0.0000000000004547
 10
210.4573266505538
 20
166.418819089074
 30
0.0000000000004547
 10
210.9373181358337
 20
166.2727644714483
 30
0.0000000000004547
 10
211.4165718390789
 20
166.117099663019
 30
0.0000000000004547
  0
SPLINE
  5
10D
330
85
100
AcDbEntity
  8
可視
100
AcDbSpline
210
0.0
220
0.0
230
1.0
 70
     8
 71
     3
 72
    12
 73
     8
 74
     0
 42
0.000000001
 43
0.0000000001
 40
0.8085924458325076
 40
0.8085924458325076
 40
0.8085924458325076
 40
0.8085924458325076
 40
6.386094578853072
 40
6.386094578853072
 40
12.95345186662383
 40
12.95345186662383
 40
14.40741716198562
 40
14.40741716198562
 40
14.40741716198562
 40
14.40741716198562
 10
199.6870125763505
 20
167.8954506284383
 30
0.0000000000004547
 10
201.5595941142376
 20
168.1162591292087
 30
0.0000000000004547
 10
203.4433762214376
 20
168.1344645485085
 30
0.0000000000004547
 10
207.5332715134305
 20
167.7648980409627
 30
0.0000000000004547
 10
209.7446309258023
 20
167.3042790427698
 30
0.0000000000004547
 10
212.4217755208531
 20
166.4726227722035
 30
0.0000000000004547
 10
212.9063134300552
 20
166.3110850612548
 30
0.0000000000004547
 10
213.3899773731537
 20
166.1392269131013
 30
0.0000000000004547
  0
SPLINE
  5
10E
330
85
100
AcDbEntity
  8
可視
100
AcDbSpline
210
0.0
220
0.0
230
1.0
 70
     8
 71
     3
 72
     8
 73
     4
 74
     0
 42
0.000000001
 43
0.0000000001
 40
23.21565536415962
 40
23.21565536415962
 40
23.21565536415962
 40
23.21565536415962
 40
23.21653132136484
 40
23.21653132136484
 40
23.21653132136484
 40
23.21653132136484
 10
197.6825194982209
 20
167.5845475404417
 30
0.0000000000004547
 10
197.6828109828934
 20
167.5846038753305
 30
0.0000000000004547
 10
197.6831024678708
 20
167.5846602051914
 30
0.0000000000004547
 10
197.6833939528774
 20
167.5847165299711
 30
0.0000000000004547
  0
SPLINE
  5
10F
330
85
100
AcDbEntity
  8
可視
100
AcDbSpline
210
0.0
220
0.0
230
1.0
 70
     8
 71
     3
 72
     8
 73
     4
 74
     0
 42
0.000000001
 43
0.0000000001
 40
23.28016752122446
 40
23.28016752122446
 40
23.28016752122446
 40
23.28016752122446
 40
24.29350911490198
 40
24.29350911490198
 40
24.29350911490198
 40
24.29350911490198
 10
197.7469236482186
 20
167.5969120855869
 30
0.0000000000004547
 10
198.0841525476469
 20
167.6612212190043
 30
0.0000000000004547
 10
198.4216011737881
 20
167.7187602623776
 30
0.0000000000004547
 10
198.7591508586854
 20
167.7695558002667
 30
0.0000000000004547
  0
SPLINE
  5
110
330
85
100
AcDbEntity
  8
可視
100
AcDbSpline
210
0.0
220
0.0
230
1.0
 70
     8
 71
     3
 72
     8
 73
     4
 74
     0
 42
0.000000001
 43
0.0000000001
 40
0.0
 40
0.0
 40
0.0
 40
0.0
 40
0.0008960999176454
 40
0.0008960999176454
 40
0.0008960999176454
 40
0.0008960999176454
 10
215.354386537854
 20
166.1594495097619
 30
0.0000000000004547
 10
215.3548020221267
 20
166.1592943788976
 30
0.0000000000004547
 10
215.3552167679797
 20
166.1591413593238
 30
0.0000000000004547
 10
215.3556308032225
 20
166.1589904120382
 30
0.0000000000004547
  0
SPLINE
  5
111
330
85
100
AcDbEntity
  8
可視
100
AcDbSpline
210
0.0
220
0.0
230
1.0
 70
     8
 71
     3
 72
    12
 73
     8
 74
     0
 42
0.000000001
 43
0.0000000001
 40
0.9469162711058643
 40
0.9469162711058643
 40
0.9469162711058643
 40
0.9469162711058643
 40
6.301656514214182
 40
6.301656514214182
 40
12.77819625281175
 40
12.77819625281175
 40
14.20415513822089
 40
14.20415513822089
 40
14.20415513822089
 40
14.20415513822089
 10
202.0006783706715
 20
168.1995897164551
 30
0.0000000000004547
 10
203.8006849700983
 20
168.368392140786
 30
0.0000000000004547
 10
205.6099946012769
 20
168.3453916590059
 30
0.0000000000004547
 10
209.5938071527926
 20
167.901148210859
 30
0.0000000000004547
 10
211.7729590329986
 20
167.3970024573167
 30
0.0000000000004547
 10
214.4061265757689
 20
166.5111564486159
 30
0.0000000000004547
 10
214.8804698458932
 20
166.3405512154398
 30
0.0000000000004547
 10
215.3538679042929
 20
166.1596264072263
 30
0.0000000000004547
  0
SPLINE
  5
112
330
85
100
AcDbEntity
  8
可視
100
AcDbSpline
210
0.0
220
0.0
230
1.0
 70
     8
 71
     3
 72
     8
 73
     4
 74
     0
 42
0.000000001
 43
0.0000000001
 40
23.60686984695737
 40
23.60686984695737
 40
23.60686984695737
 40
23.60686984695737
 40
23.60795492081424
 40
23.60795492081424
 40
23.60795492081424
 40
23.60795492081424
 10
199.8632175850082
 20
167.9116671546496
 30
0.0000000000004547
 10
199.8635789488835
 20
167.9117309276365
 30
0.0000000000004547
 10
199.8639403134541
 20
167.9117946927163
 30
0.0000000000004547
 10
199.8643016777556
 20
167.9118584497189
 30
0.0000000000004547
  0
SPLINE
  5
113
330
85
100
AcDbEntity
  8
可視
100
AcDbSpline
210
0.0
220
0.0
230
1.0
 70
     8
 71
     3
 72
     8
 73
     4
 74
     0
 42
0.000000001
 43
0.0000000001
 40
23.66763847255921
 40
23.66763847255921
 40
23.66763847255921
 40
23.66763847255921
 40
24.68365078748118
 40
24.68365078748118
 40
24.68365078748118
 40
24.68365078748118
 10
199.9239332112029
 20
167.9223066127644
 30
0.0000000000004547
 10
200.2623193807956
 20
167.9811824598601
 30
0.0000000000004547
 10
200.6008868046808
 20
168.0330409735705
 30
0.0000000000004547
 10
200.9395082461135
 20
168.0779367812379
 30
0.0000000000004547
  0
SPLINE
  5
114
330
85
100
AcDbEntity
  8
可視
100
AcDbSpline
210
0.0
220
0.0
230
1.0
 70
     8
 71
     3
 72
     8
 73
     4
 74
     0
 42
0.000000001
 43
0.0000000001
 40
0.0
 40
0.0
 40
0.0
 40
0.0
 40
0.0032371473727148
 40
0.0032371473727148
 40
0.0032371473727148
 40
0.0032371473727148
 10
217.3088349356699
 20
166.1783106792344
 30
0.0000000000004547
 10
217.3104922023722
 20
166.177638337083
 30
0.0000000000004547
 10
217.3121352302296
 20
166.1770002576455
 30
0.0000000000004547
 10
217.3137526967603
 20
166.1763983730463
 30
0.0000000000004547
  0
SPLINE
  5
115
330
85
100
AcDbEntity
  8
可視
100
AcDbSpline
210
0.0
220
0.0
230
1.0
 70
     8
 71
     3
 72
    12
 73
     8
 74
     0
 42
0.000000001
 43
0.0000000001
 40
1.013901810253619
 40
1.013901810253619
 40
1.013901810253619
 40
1.013901810253619
 40
6.232410891378608
 40
6.232410891378608
 40
12.63538663407922
 40
12.63538663407922
 40
13.99094537865738
 40
13.99094537865738
 40
13.99094537865738
 40
13.99094537865738
 10
204.2443881631495
 20
168.4547769810031
 30
0.0000000000004547
 10
206.0002294825576
 20
168.5824978571957
 30
0.0000000000004547
 10
207.7640318260444
 20
168.523864012282
 30
0.0000000000004547
 10
211.6762380348516
 20
168.0082990451394
 30
0.0000000000004547
 10
213.8287586664912
 20
167.4632461376329
 30
0.0000000000004547
 10
216.4095737848334
 20
166.5329716921068
 30
0.0000000000004547
 10
216.859688038785
 20
166.3604399243635
 30
0.0000000000004547
 10
217.3088645004561
 20
166.1782906997402
 30
0.0000000000004547
  0
SPLINE
  5
116
330
85
100
AcDbEntity
  8
可視
100
AcDbSpline
210
0.0
220
0.0
230
1.0
 70
     8
 71
     3
 72
     8
 73
     4
 74
     0
 42
0.000000001
 43
0.0000000001
 40
23.98304183414377
 40
23.98304183414377
 40
23.98304183414377
 40
23.98304183414377
 40
23.98430520768146
 40
23.98430520768146
 40
23.98430520768146
 40
23.98430520768146
 10
202.0425420202446
 20
168.1995727124339
 30
0.0000000000004547
 10
202.0429630642318
 20
168.1996400349282
 30
0.0000000000004547
 10
202.0433841095266
 20
168.1997073464829
 30
0.0000000000004547
 10
202.0438051539695
 20
168.1997746467527
 30
0.0000000000004547
  0
SPLINE
  5
117
330
85
100
AcDbEntity
  8
可視
100
AcDbSpline
210
0.0
220
0.0
230
1.0
 70
     8
 71
     3
 72
     8
 73
     4
 74
     0
 42
0.000000001
 43
0.0000000001
 40
24.04078919175251
 40
24.04078919175251
 40
24.04078919175251
 40
24.04078919175251
 40
25.06077404524783
 40
25.06077404524783
 40
25.06077404524783
 40
25.06077404524783
 10
202.1002797914734
 20
168.2087347731684
 30
0.0000000000004547
 10
202.4402261779401
 20
168.2622674710524
 30
0.0000000000004547
 10
202.7803094022504
 20
168.3085499677929
 30
0.0000000000004547
 10
203.1204013039169
 20
168.3476606146455
 30
0.0000000000004547
  0
SPLINE
  5
118
330
85
100
AcDbEntity
  8
可視
100
AcDbSpline
210
0.0
220
0.0
230
1.0
 70
     8
 71
     3
 72
     8
 73
     4
 74
     0
 42
0.000000001
 43
0.0000000001
 40
0.0008087745854848
 40
0.0008087745854848
 40
0.0008087745854848
 40
0.0008087745854848
 40
0.0049828269671726
 40
0.0049828269671726
 40
0.0049828269671726
 40
0.0049828269671726
 10
219.2583936310018
 20
166.1938898376427
 30
0.0000000000004547
 10
219.2604801590367
 20
166.1930157537226
 30
0.0000000000004547
 10
219.2625313083777
 20
166.192203015299
 30
0.0000000000004547
 10
219.264514337038
 20
166.1914573763187
 30
0.0000000000004547
  0
SPLINE
  5
119
330
85
100
AcDbEntity
  8
可視
100
AcDbSpline
210
0.0
220
0.0
230
1.0
 70
     8
 71
     3
 72
    12
 73
     8
 74
     0
 42
0.000000001
 43
0.0000000001
 40
1.041368205190387
 40
1.041368205190387
 40
1.041368205190387
 40
1.041368205190387
 40
6.176657800324035
 40
6.176657800324035
 40
12.52124614844381
 40
12.52124614844381
 40
13.7668268072878
 40
13.7668268072878
 40
13.7668268072878
 40
13.7668268072878
 10
206.4528039753573
 20
168.6682227137968
 30
0.0000000000004547
 10
208.1818880982926
 20
168.7610245637328
 30
0.0000000000004547
 10
209.9178771300485
 20
168.6699417416092
 30
0.0000000000004547
 10
213.7810322808987
 20
168.0856961808063
 30
0.0000000000004547
 10
215.9118396391921
 20
167.5018973964624
 30
0.0000000000004547
 10
218.4322815175121
 20
166.5367493173611
 30
0.0000000000004547
 10
218.8451554258081
 20
166.3697498662927
 30
0.0000000000004547
 10
219.2571768734667
 20
166.1944308792688
 30
0.0000000000004547
  0
SPLINE
  5
11A
330
85
100
AcDbEntity
  8
可視
100
AcDbSpline
210
0.0
220
0.0
230
1.0
 70
     8
 71
     3
 72
     8
 73
     4
 74
     0
 42
0.000000001
 43
0.0000000001
 40
24.34725761488961
 40
24.34725761488961
 40
24.34725761488961
 40
24.34725761488961
 40
24.34865743457237
 40
24.34865743457237
 40
24.34865743457237
 40
24.34865743457237
 10
204.2236284486924
 20
168.4493847236526
 30
0.0000000000004547
 10
204.2240952523655
 20
168.4494517079962
 30
0.0000000000004547
 10
204.224562058085
 20
168.4495186786845
 30
0.0000000000004547
 10
204.2250288621276
 20
168.4495856351835
 30
0.0000000000004547
  0
SPLINE
  5
11B
330
85
100
AcDbEntity
  8
可視
100
AcDbSpline
210
0.0
220
0.0
230
1.0
 70
     8
 71
     3
 72
     8
 73
     4
 74
     0
 42
0.000000001
 43
0.0000000001
 40
24.4026864944874
 40
24.4026864944874
 40
24.4026864944874
 40
24.4026864944874
 40
25.42754540862404
 40
25.42754540862404
 40
25.42754540862404
 40
25.42754540862404
 10
204.2790816639274
 20
168.4572764272072
 30
0.0000000000004547
 10
204.6208559537038
 20
168.5055111061357
 30
0.0000000000004547
 10
204.962722597272
 20
168.546286811434
 30
0.0000000000004547
 10
205.3045516842401
 20
168.5796896964269
 30
0.0000000000004547
  0
SPLINE
  5
11C
330
85
100
AcDbEntity
  8
可視
100
AcDbSpline
210
0.0
220
0.0
230
1.0
 70
     8
 71
     3
 72
     8
 73
     4
 74
     0
 42
0.000000001
 43
0.0000000001
 40
0.0007169519068154
 40
0.0007169519068154
 40
0.0007169519068154
 40
0.0007169519068154
 40
0.0063761266546949
 40
0.0063761266546949
 40
0.0063761266546949
 40
0.0063761266546949
 10
221.2001197168556
 20
166.2074428989754
 30
0.0000000000004547
 10
221.2028996005495
 20
166.206233716643
 30
0.0000000000004547
 10
221.2056072587668
 20
166.2051407092653
 30
0.0000000000004547
 10
221.2081701283762
 20
166.204173434976
 30
0.0000000000004547
  0
SPLINE
  5
11D
330
85
100
AcDbEntity
  8
可視
100
AcDbSpline
210
0.0
220
0.0
230
1.0
 70
     8
 71
     3
 72
    12
 73
     8
 74
     0
 42
0.000000001
 43
0.0000000001
 40
0.0705897223508548
 40
0.0705897223508548
 40
0.0705897223508548
 40
0.0705897223508548
 40
6.123879281223532
 40
6.123879281223532
 40
12.42234181732769
 40
12.42234181732769
 40
13.52562571376723
 40
13.52562571376723
 40
13.52562571376723
 40
13.52562571376723
 10
207.6636573089816
 20
168.7883232051255
 30
0.0000000000004547
 10
209.6996707393707
 20
168.9448694196698
 30
0.0000000000004547
 10
211.7480540415854
 20
168.8394031854169
 30
0.0000000000004547
 10
215.9027543606055
 20
168.1342735612856
 30
0.0000000000004547
 10
218.0158455230217
 20
167.5142072937208
 30
0.0000000000004547
 10
220.4694817395284
 20
166.5236361924996
 30
0.0000000000004547
 10
220.8345849081329
 20
166.3691271162957
 30
0.0000000000004547
 10
221.1989797811027
 20
166.2079689612157
 30
0.0000000000004547
  0
SPLINE
  5
11E
330
85
100
AcDbEntity
  8
可視
100
AcDbSpline
210
0.0
220
0.0
230
1.0
 70
     8
 71
     3
 72
     8
 73
     4
 74
     0
 42
0.000000001
 43
0.0000000001
 40
24.70272156088398
 40
24.70272156088398
 40
24.70272156088398
 40
24.70272156088398
 40
24.70420227142563
 40
24.70420227142563
 40
24.70420227142563
 40
24.70420227142563
 10
206.4096684611466
 20
168.6620029430292
 30
0.0000000000004547
 10
206.4101624843988
 20
168.6620658594132
 30
0.0000000000004547
 10
206.4106565095667
 20
168.6621287602658
 30
0.0000000000004547
 10
206.4111505330745
 20
168.6621916451318
 30
0.0000000000004547
  0
SPLINE
  5
11F
330
85
100
AcDbEntity
  8
可視
100
AcDbSpline
210
0.0
220
0.0
230
1.0
 70
     8
 71
     3
 72
     8
 73
     4
 74
     0
 42
0.000000001
 43
0.0000000001
 40
24.75647824569512
 40
24.75647824569512
 40
24.75647824569512
 40
24.75647824569512
 40
25.79140183283481
 40
25.79140183283481
 40
25.79140183283481
 40
25.79140183283481
 10
206.4634750399007
 20
168.6687931172009
 30
0.0000000000004547
 10
206.8087723490541
 20
168.7119680704634
 30
0.0000000000004547
 10
207.1541252729851
 20
168.7474461318411
 30
0.0000000000004547
 10
207.4993967505307
 20
168.7752744722873
 30
0.0000000000004547
  0
SPLINE
  5
120
330
85
100
AcDbEntity
  8
可視
100
AcDbSpline
210
0.0
220
0.0
230
1.0
 70
     8
 71
     3
 72
     8
 73
     4
 74
     0
 42
0.000000001
 43
0.0000000001
 40
0.0004487125455611
 40
0.0004487125455611
 40
0.0004487125455611
 40
0.0004487125455611
 40
0.0074720890656983
 40
0.0074720890656983
 40
0.0074720890656983
 40
0.0074720890656983
 10
223.1348596377174
 20
166.2186200849163
 30
0.0000000000004547
 10
223.1382842584444
 20
166.2170815796114
 30
0.0000000000004547
 10
223.1415947511257
 20
166.2157246441195
 30
0.0000000000004547
 10
223.1447015867245
 20
166.2145497945021
 30
0.0000000000004547
  0
SPLINE
  5
121
330
85
100
AcDbEntity
  8
可視
100
AcDbSpline
210
0.0
220
0.0
230
1.0
 70
     8
 71
     3
 72
    12
 73
     8
 74
     0
 42
0.000000001
 43
0.0000000001
 40
0.1960197673315648
 40
0.1960197673315648
 40
0.1960197673315648
 40
0.1960197673315648
 40
6.089843924833214
 40
6.089843924833214
 40
12.35637045205706
 40
12.35637045205706
 40
13.27352792079864
 40
13.27352792079864
 40
13.27352792079864
 40
13.27352792079864
 10
209.9848257876013
 20
168.9513996602613
 30
0.0000000000004547
 10
211.9688525420231
 20
169.0602003676221
 30
0.0000000000004547
 10
213.9631290881575
 20
168.9181959538017
 30
0.0000000000004547
 10
218.0512560762243
 20
168.1516009305559
 30
0.0000000000004547
 10
220.1512734067855
 20
167.4963181913049
 30
0.0000000000004547
 10
222.5285031147651
 20
166.4901349019902
 30
0.0000000000004547
 10
222.8315451017704
 20
166.3568916126842
 30
0.0000000000004547
 10
223.1340761739994
 20
166.2189872006162
 30
0.0000000000004547
  0
SPLINE
  5
122
330
85
100
AcDbEntity
  8
可視
100
AcDbSpline
210
0.0
220
0.0
230
1.0
 70
     8
 71
     3
 72
     8
 73
     4
 74
     0
 42
0.000000001
 43
0.0000000001
 40
25.05120273140715
 40
25.05120273140715
 40
25.05120273140715
 40
25.05120273140715
 40
25.05159740017356
 40
25.05159740017356
 40
25.05159740017356
 40
25.05159740017356
 10
208.6025163668496
 20
168.8381584388954
 30
0.0000000000004547
 10
208.6026480995376
 20
168.838173106575
 30
0.0000000000004547
 10
208.6027798328309
 20
168.8381877731879
 30
0.0000000000004547
 10
208.6029115655244
 20
168.8382024386
 30
0.0000000000004547
  0
SPLINE
  5
123
330
85
100
AcDbEntity
  8
可視
100
AcDbSpline
210
0.0
220
0.0
230
1.0
 70
     8
 71
     3
 72
     8
 73
     4
 74
     0
 42
0.000000001
 43
0.0000000001
 40
25.10403087863987
 40
25.10403087863987
 40
25.10403087863987
 40
25.10403087863987
 40
26.14256442059462
 40
26.14256442059462
 40
26.14256442059462
 40
26.14256442059462
 10
208.6554155667575
 20
168.8439875156385
 30
0.0000000000004547
 10
209.0020592139097
 20
168.8817856077528
 30
0.0000000000004547
 10
209.3487166262591
 20
168.9117342655654
 30
0.0000000000004547
 10
209.6952396108852
 20
168.933887166672
 30
0.0000000000004547
  0
SPLINE
  5
124
330
85
100
AcDbEntity
  8
可視
100
AcDbSpline
210
0.0
220
0.0
230
1.0
 70
     8
 71
     3
 72
     8
 73
     4
 74
     0
 42
0.000000001
 43
0.0000000001
 40
0.0
 40
0.0
 40
0.0
 40
0.0
 40
0.0079872262224019
 40
0.0079872262224019
 40
0.0079872262224019
 40
0.0079872262224019
 10
225.0624240344391
 20
166.2275107711515
 30
0.0000000000004547
 10
225.0663757132429
 20
166.2256763359151
 30
0.0000000000004547
 10
225.0702883994484
 20
166.2240343866582
 30
0.0000000000004547
 10
225.0740846553433
 20
166.2225894985188
 30
0.0000000000004547
  0
SPLINE
  5
125
330
85
100
AcDbEntity
  8
可視
100
AcDbSpline
210
0.0
220
0.0
230
1.0
 70
     8
 71
     3
 72
    12
 73
     8
 74
     0
 42
0.000000001
 43
0.0000000001
 40
0.503841124363047
 40
0.503841124363047
 40
0.503841124363047
 40
0.503841124363047
 40
6.069603916697584
 40
6.069603916697584
 40
12.31586099842902
 40
12.31586099842902
 40
13.00285076162273
 40
13.00285076162273
 40
13.00285076162273
 40
13.00285076162273
 10
212.5017117827135
 20
169.0794139530987
 30
0.0000000000004547
 10
214.3770529106296
 20
169.1266882204347
 30
0.0000000000004547
 10
216.2595350253584
 20
168.9493862884466
 30
0.0000000000004547
 10
220.2281185837987
 20
168.1369696149623
 30
0.0000000000004547
 10
222.3188638578729
 20
167.4474815667654
 30
0.0000000000004547
 10
224.6092711762103
 20
166.436028884817
 30
0.0000000000004547
 10
224.8359435727762
 20
166.3331143277777
 30
0.0000000000004547
 10
225.0623206030145
 20
166.2275572432066
 30
0.0000000000004547
  0
SPLINE
  5
126
330
85
100
AcDbEntity
  8
可視
100
AcDbSpline
210
0.0
220
0.0
230
1.0
 70
     8
 71
     3
 72
     8
 73
     4
 74
     0
 42
0.000000001
 43
0.0000000001
 40
25.39451682503303
 40
25.39451682503303
 40
25.39451682503303
 40
25.39451682503303
 40
25.39507794578899
 40
25.39507794578899
 40
25.39507794578899
 40
25.39507794578899
 10
210.8026645378545
 20
168.9781886568478
 30
0.0000000000004547
 10
210.8028517982825
 20
168.978206554839
 30
0.0000000000004547
 10
210.8030390588483
 20
168.9782244505336
 30
0.0000000000004547
 10
210.8032263192519
 20
168.978242343903
 30
0.0000000000004547
  0
SPLINE
  5
127
330
85
100
AcDbEntity
  8
可視
100
AcDbSpline
210
0.0
220
0.0
230
1.0
 70
     8
 71
     3
 72
    10
 73
     6
 74
     0
 42
0.000000001
 43
0.0000000001
 40
25.44708499154838
 40
25.44708499154838
 40
25.44708499154838
 40
25.44708499154838
 40
25.79774783602561
 40
25.79774783602561
 40
26.49158858899105
 40
26.49158858899105
 40
26.49158858899105
 40
26.49158858899105
 10
210.8552942553965
 20
168.9831580966089
 30
0.0000000000004547
 10
210.97231790093
 20
168.9940725946025
 30
0.0000000000004547
 10
211.0893359348513
 20
169.0040848749751
 30
0.0000000000004547
 10
211.4378589046089
 20
169.0312266250125
 30
0.0000000000004547
 10
211.6694001539349
 20
169.0457343652927
 30
0.0000000000004547
 10
211.9009200235257
 20
169.0567441794791
 30
0.0000000000004547
  0
SPLINE
  5
128
330
85
100
AcDbEntity
  8
可視
100
AcDbSpline
210
0.0
220
0.0
230
1.0
 70
     8
 71
     3
 72
     8
 73
     4
 74
     0
 42
0.000000001
 43
0.0000000001
 40
0.0006163045442275
 40
0.0006163045442275
 40
0.0006163045442275
 40
0.0006163045442275
 40
0.0084310056868959
 40
0.0084310056868959
 40
0.0084310056868959
 40
0.0084310056868959
 10
226.9846332456568
 20
166.2332361202988
 30
0.0000000000004547
 10
226.988613294016
 20
166.2313703051895
 30
0.0000000000004547
 10
226.9925170735132
 20
166.2297172934955
 30
0.0000000000004547
 10
226.9961995796462
 20
166.2282952092551
 30
0.0000000000004547
  0
SPLINE
  5
129
330
85
100
AcDbEntity
  8
可視
100
AcDbSpline
210
0.0
220
0.0
230
1.0
 70
     8
 71
     3
 72
    10
 73
     6
 74
     0
 42
0.000000001
 43
0.0000000001
 40
0.6563349015204892
 40
0.6563349015204892
 40
0.6563349015204892
 40
0.6563349015204892
 40
6.059347674091704
 40
6.059347674091704
 40
12.71065436260744
 40
12.71065436260744
 40
12.71065436260744
 40
12.71065436260744
 10
214.8751026882521
 20
169.1582202255258
 30
0.0000000000004547
 10
216.6965185641789
 20
169.1628422600795
 30
0.0000000000004547
 10
218.5232586411662
 20
168.9553228178347
 30
0.0000000000004547
 10
222.5705067011543
 20
168.06017876925
 30
0.0000000000004547
 10
224.793613566105
 20
167.2710637318448
 30
0.0000000000004547
 10
226.9837360113233
 20
166.2336745397564
 30
0.0000000000004547
  0
SPLINE
  5
12A
330
85
100
AcDbEntity
  8
可視
100
AcDbSpline
210
0.0
220
0.0
230
1.0
 70
     8
 71
     3
 72
     8
 73
     4
 74
     0
 42
0.000000001
 43
0.0000000001
 40
25.73453904321182
 40
25.73453904321182
 40
25.73453904321182
 40
25.73453904321182
 40
25.73524876095511
 40
25.73524876095511
 40
25.73524876095511
 40
25.73524876095511
 10
213.0134137833786
 20
169.082726775439
 30
0.0000000000004547
 10
213.013650606176
 20
169.0827457223941
 30
0.0000000000004547
 10
213.013887429006
 20
169.0827646656344
 30
0.0000000000004547
 10
213.0141242518675
 20
169.0827836051599
 30
0.0000000000004547
  0
SPLINE
  5
12B
330
85
100
AcDbEntity
  8
可視
100
AcDbSpline
210
0.0
220
0.0
230
1.0
 70
     8
 71
     3
 72
     8
 73
     4
 74
     0
 42
0.000000001
 43
0.0000000001
 40
25.78754969947707
 40
25.78754969947707
 40
25.78754969947707
 40
25.78754969947707
 40
26.83836143391288
 40
26.83836143391288
 40
26.83836143391288
 40
26.83836143391288
 10
213.0664810240776
 20
169.0869102034528
 30
0.0000000000004547
 10
213.4171287669214
 20
169.1141417396309
 30
0.0000000000004547
 10
213.7678389095024
 20
169.1332340594434
 30
0.0000000000004547
 10
214.1184554895674
 20
169.1442733029416
 30
0.0000000000004547
  0
SPLINE
  5
12C
330
85
100
AcDbEntity
  8
可視
100
AcDbSpline
210
0.0
220
0.0
230
1.0
 70
     8
 71
     3
 72
     8
 73
     4
 74
     0
 42
0.000000001
 43
0.0000000001
 40
0.0002505011039781
 40
0.0002505011039781
 40
0.0002505011039781
 40
0.0002505011039781
 40
0.0077049012427171
 40
0.0077049012427171
 40
0.0077049012427171
 40
0.0077049012427171
 10
234.6040034792547
 20
166.2322502941937
 30
0.0000000000004547
 10
234.6075617932772
 20
166.2305887557025
 30
0.0000000000004547
 10
234.6109621068031
 20
166.2291409646778
 30
0.0000000000004547
 10
234.6143159801668
 20
166.2278303824411
 30
0.0000000000004547
  0
SPLINE
  5
12D
330
85
100
AcDbEntity
  8
可視
100
AcDbSpline
210
0.0
220
0.0
230
1.0
 70
     8
 71
     3
 72
     8
 73
     4
 74
     0
 42
0.000000001
 43
0.0000000001
 40
0.6900788323347596
 40
0.6900788323347596
 40
0.6900788323347596
 40
0.6900788323347596
 40
4.340633849772656
 40
4.340633849772656
 40
4.340633849772656
 40
4.340633849772656
 10
223.9570986353826
 20
169.1140688614342
 30
0.0000000000004547
 10
225.1881414848647
 20
169.0414529661018
 30
0.0000000000004547
 10
226.4199823097258
 20
168.8739181568081
 30
0.0000000000004547
 10
227.6473534386714
 20
168.6174739707071
 30
0.0000000000004547
  0
SPLINE
  5
12E
330
85
100
AcDbEntity
  8
可視
100
AcDbSpline
210
0.0
220
0.0
230
1.0
 70
     8
 71
     3
 72
     8
 73
     4
 74
     0
 42
0.000000001
 43
0.0000000001
 40
6.989665049268996
 40
6.989665049268996
 40
6.989665049268996
 40
6.989665049268996
 40
11.30065532022595
 40
11.30065532022595
 40
11.30065532022595
 40
11.30065532022595
 10
230.3108322886266
 20
167.9219495403421
 30
0.0000000000004547
 10
231.7510366095864
 20
167.4714720363598
 30
0.0000000000004547
 10
233.1838184362321
 20
166.9038513579986
 30
0.0000000000004547
 10
234.6034196173278
 20
166.2325321857383
 30
0.0000000000004547
  0
SPLINE
  5
12F
330
85
100
AcDbEntity
  8
可視
100
AcDbSpline
210
0.0
220
0.0
230
1.0
 70
     8
 71
     3
 72
     8
 73
     4
 74
     0
 42
0.000000001
 43
0.0000000001
 40
27.10260097987236
 40
27.10260097987236
 40
27.10260097987236
 40
27.10260097987236
 40
27.10330954732172
 40
27.10330954732172
 40
27.10330954732172
 40
27.10330954732172
 10
222.0024402572997
 20
169.1535608814885
 30
0.0000000000004547
 10
222.0026767010895
 20
169.1535656708119
 30
0.0000000000004547
 10
222.0029131448373
 20
169.1535704564904
 30
0.0000000000004547
 10
222.003149588543
 20
169.153575238524
 30
0.0000000000004547
  0
SPLINE
  5
130
330
85
100
AcDbEntity
  8
可視
100
AcDbSpline
210
0.0
220
0.0
230
1.0
 70
     8
 71
     3
 72
     8
 73
     4
 74
     0
 42
0.000000001
 43
0.0000000001
 40
27.1648890959502
 40
27.1648890959502
 40
27.1648890959502
 40
27.1648890959502
 40
28.24423210766104
 40
28.24423210766104
 40
28.24423210766104
 40
28.24423210766104
 10
222.0647945221274
 20
169.1547394504219
 30
0.0000000000004547
 10
222.4249516256004
 20
169.1610591273471
 30
0.0000000000004547
 10
222.7850020745584
 20
169.158927692726
 30
0.0000000000004547
 10
223.1447889488813
 20
169.1484544053838
 30
0.0000000000004547
  0
SPLINE
  5
131
330
85
100
AcDbEntity
  8
可視
100
AcDbSpline
210
0.0
220
0.0
230
1.0
 70
     8
 71
     3
 72
     8
 73
     4
 74
     0
 42
0.000000001
 43
0.0000000001
 40
0.0006683550783972
 40
0.0006683550783972
 40
0.0006683550783972
 40
0.0006683550783972
 40
0.0066341744683188
 40
0.0066341744683188
 40
0.0066341744683188
 40
0.0066341744683188
 10
236.4925205687559
 20
166.2255188152054
 30
0.0000000000004547
 10
236.4954383506738
 20
166.2241818004275
 30
0.0000000000004547
 10
236.4982871570489
 20
166.2229721660459
 30
0.0000000000004547
 10
236.5009894413258
 20
166.2219010899775
 30
0.0000000000004547
  0
SPLINE
  5
132
330
85
100
AcDbEntity
  8
可視
100
AcDbSpline
210
0.0
220
0.0
230
1.0
 70
     8
 71
     3
 72
     8
 73
     4
 74
     0
 42
0.000000001
 43
0.0000000001
 40
0.6072256988017286
 40
0.6072256988017286
 40
0.6072256988017286
 40
0.6072256988017286
 40
3.083681596992315
 40
3.083681596992315
 40
3.083681596992315
 40
3.083681596992315
 10
226.1874053037106
 20
169.0251501488722
 30
0.0000000000004547
 10
227.0224019495588
 20
168.9674339384975
 30
0.0000000000004547
 10
227.8576585952203
 20
168.866620327719
 30
0.0000000000004547
 10
228.6915597934255
 20
168.7244710341384
 30
0.0000000000004547
  0
SPLINE
  5
133
330
85
100
AcDbEntity
  8
可視
100
AcDbSpline
210
0.0
220
0.0
230
1.0
 70
     8
 71
     3
 72
    10
 73
     6
 74
     0
 42
0.000000001
 43
0.0000000001
 40
4.637475592870472
 40
4.637475592870472
 40
4.637475592870472
 40
4.637475592870472
 40
6.154070691902613
 40
6.154070691902613
 40
10.87657241284086
 40
10.87657241284086
 40
10.87657241284086
 40
10.87657241284086
 10
230.2592402747912
 20
168.4087383790645
 30
0.0000000000004547
 10
230.7685290323091
 20
168.2905219733026
 30
0.0000000000004547
 10
231.276957479668
 20
168.1573595866767
 30
0.0000000000004547
 10
233.3636159083251
 20
167.5502921743281
 30
0.0000000000004547
 10
234.9351567384081
 20
166.9498756796939
 30
0.0000000000004547
 10
236.4914666505972
 20
166.2260287729853
 30
0.0000000000004547
  0
SPLINE
  5
134
330
85
100
AcDbEntity
  8
可視
100
AcDbSpline
210
0.0
220
0.0
230
1.0
 70
     8
 71
     3
 72
     8
 73
     4
 74
     0
 42
0.000000001
 43
0.0000000001
 40
27.45584678381995
 40
27.45584678381995
 40
27.45584678381995
 40
27.45584678381995
 40
27.45635538126633
 40
27.45635538126633
 40
27.45635538126633
 40
27.45635538126633
 10
224.2952415116645
 20
169.0864644910361
 30
0.0000000000004547
 10
224.2954111940997
 20
169.0864655554914
 30
0.0000000000004547
 10
224.2955808765052
 20
169.0864666180916
 30
0.0000000000004547
 10
224.2957505588813
 20
169.0864676788367
 30
0.0000000000004547
  0
SPLINE
  5
135
330
85
100
AcDbEntity
  8
可視
100
AcDbSpline
210
0.0
220
0.0
230
1.0
 70
     8
 71
     3
 72
     8
 73
     4
 74
     0
 42
0.000000001
 43
0.0000000001
 40
27.52248861487081
 40
27.52248861487081
 40
27.52248861487081
 40
27.52248861487081
 40
28.60976051235212
 40
28.60976051235212
 40
28.60976051235212
 40
28.60976051235212
 10
224.3619407291553
 20
169.0867873993898
 30
0.0000000000004547
 10
224.7246681119662
 20
169.0880241664775
 30
0.0000000000004547
 10
225.0872508234575
 20
169.0807902687244
 30
0.0000000000004547
 10
225.4495333865693
 20
169.0651999679586
 30
0.0000000000004547
  0
SPLINE
  5
136
330
85
100
AcDbEntity
  8
可視
100
AcDbSpline
210
0.0
220
0.0
230
1.0
 70
     8
 71
     3
 72
     8
 73
     4
 74
     0
 42
0.000000001
 43
0.0000000001
 40
0.0005854735246992
 40
0.0005854735246992
 40
0.0005854735246992
 40
0.0005854735246992
 40
0.0054274972555318
 40
0.0054274972555318
 40
0.0054274972555318
 40
0.0054274972555318
 10
238.3739350203666
 20
166.2164884995809
 30
0.0000000000004547
 10
238.3762493950351
 20
166.2154537098077
 30
0.0000000000004547
 10
238.3785015722224
 20
166.2145066194615
 30
0.0000000000004547
 10
238.3806583428793
 20
166.2136488041458
 30
0.0000000000004547
  0
SPLINE
  5
137
330
85
100
AcDbEntity
  8
可視
100
AcDbSpline
210
0.0
220
0.0
230
1.0
 70
     8
 71
     3
 72
    10
 73
     6
 74
     0
 42
0.000000001
 43
0.0000000001
 40
0.4928761521923219
 40
0.4928761521923219
 40
0.4928761521923219
 40
0.4928761521923219
 40
6.2043114853686
 40
6.2043114853686
 40
10.41933050965267
 40
10.41933050965267
 40
10.41933050965267
 40
10.41933050965267
 10
228.4115266528702
 20
168.9082634285432
 30
0.0000000000004547
 10
230.3369178215184
 20
168.7593772000876
 30
0.0000000000004547
 10
232.263024173219
 20
168.3838714026005
 30
0.0000000000004547
 10
235.5803439583913
 20
167.3830810705531
 30
0.0000000000004547
 10
236.9824071305327
 20
166.8485930650223
 30
0.0000000000004547
 10
238.3729369093842
 20
166.2169596620443
 30
0.0000000000004547
  0
SPLINE
  5
138
330
85
100
AcDbEntity
  8
可視
100
AcDbSpline
210
0.0
220
0.0
230
1.0
 70
     8
 71
     3
 72
     8
 73
     4
 74
     0
 42
0.000000001
 43
0.0000000001
 40
27.81821344240694
 40
27.81821344240694
 40
27.81821344240694
 40
27.81821344240694
 40
27.81847679910079
 40
27.81847679910079
 40
27.81847679910079
 40
27.81847679910079
 10
226.6106666184817
 20
168.9865173558336
 30
0.0000000000004547
 10
226.6107544585981
 20
168.986516725613
 30
0.0000000000004547
 10
226.6108422987047
 20
168.9865160949028
 30
0.0000000000004547
 10
226.6109301388012
 20
168.986515463703
 30
0.0000000000004547
  0
SPLINE
  5
139
330
85
100
AcDbEntity
  8
可視
100
AcDbSpline
210
0.0
220
0.0
230
1.0
 70
     8
 71
     3
 72
     8
 73
     4
 74
     0
 42
0.000000001
 43
0.0000000001
 40
27.8901154474854
 40
27.8901154474854
 40
27.8901154474854
 40
27.8901154474854
 40
28.9857690859259
 40
28.9857690859259
 40
28.9857690859259
 40
28.9857690859259
 10
226.6826110651564
 20
168.9858917147588
 30
0.0000000000004547
 10
227.0480329253817
 20
168.982158074697
 30
0.0000000000004547
 10
227.4132747320727
 20
168.9699581259151
 30
0.0000000000004547
 10
227.7781835406295
 20
168.9494099159614
 30
0.0000000000004547
  0
SPLINE
  5
13A
330
85
100
AcDbEntity
  8
可視
100
AcDbSpline
210
0.0
220
0.0
230
1.0
 70
     8
 71
     3
 72
     8
 73
     4
 74
     0
 42
0.000000001
 43
0.0000000001
 40
0.0003445518588159
 40
0.0003445518588159
 40
0.0003445518588159
 40
0.0003445518588159
 40
0.0038161310257977
 40
0.0038161310257977
 40
0.0038161310257977
 40
0.0038161310257977
 10
240.2484867968539
 20
166.2050301373598
 30
0.0000000000004547
 10
240.2500964433541
 20
166.2043323961755
 30
0.0000000000004547
 10
240.2516654630422
 20
166.203681173484
 30
0.0000000000004547
 10
240.2531862415017
 20
166.203074822825
 30
0.0000000000004547
  0
SPLINE
  5
13B
330
85
100
AcDbEntity
  8
可視
100
AcDbSpline
210
0.0
220
0.0
230
1.0
 70
     8
 71
     3
 72
    10
 73
     6
 74
     0
 42
0.000000001
 43
0.0000000001
 40
0.346060384531981
 40
0.346060384531981
 40
0.346060384531981
 40
0.346060384531981
 40
6.266943551058369
 40
6.266943551058369
 40
9.926073633481296
 40
9.926073633481296
 40
9.926073633481296
 40
9.926073633481296
 10
230.6313785642997
 20
168.7648732919941
 30
0.0000000000004547
 10
232.6269406117569
 20
168.5981475389739
 30
0.0000000000004547
 10
234.6228829294676
 20
168.1924932553713
 30
0.0000000000004547
 10
237.822101552704
 20
167.1976171596897
 30
0.0000000000004547
 10
239.0389845101568
 20
166.7375173895607
 30
0.0000000000004547
 10
240.2477136875561
 20
166.2053809184221
 30
0.0000000000004547
  0
SPLINE
  5
13C
330
85
100
AcDbEntity
  8
可視
100
AcDbSpline
210
0.0
220
0.0
230
1.0
 70
    24
 71
     3
 72
     8
 73
     4
 74
     0
 42
0.000000001
 43
0.0000000001
 40
28.19255730419556
 40
28.19255730419556
 40
28.19255730419556
 40
28.19255730419556
 40
28.19260528872606
 40
28.19260528872606
 40
28.19260528872606
 40
28.19260528872606
 10
228.9514975048939
 20
168.8544355665667
 30
0.0000000000004547
 10
228.9515135044942
 20
168.8544352468529
 30
0.0000000000004547
 10
228.9515295040935
 20
168.8544349271231
 30
0.0000000000004547
 10
228.951545503693
 20
168.8544346073775
 30
0.0000000000004547
  0
SPLINE
  5
13D
330
85
100
AcDbEntity
  8
可視
100
AcDbSpline
210
0.0
220
0.0
230
1.0
 70
     8
 71
     3
 72
     8
 73
     4
 74
     0
 42
0.000000001
 43
0.0000000001
 40
28.27067926377262
 40
28.27067926377262
 40
28.27067926377262
 40
28.27067926377262
 40
29.37513759374629
 40
29.37513759374629
 40
29.37513759374629
 40
29.37513759374629
 10
229.0296396180606
 20
168.8527473191724
 30
0.0000000000004547
 10
229.397872613253
 20
168.8441944977951
 30
0.0000000000004547
 10
229.7658934592071
 20
168.827205907183
 30
0.0000000000004547
 10
230.133552269705
 20
168.8019015713581
 30
0.0000000000004547
  0
SPLINE
  5
13E
330
85
100
AcDbEntity
  8
可視
100
AcDbSpline
210
0.0
220
0.0
230
1.0
 70
     8
 71
     3
 72
     8
 73
     4
 74
     0
 42
0.000000001
 43
0.0000000001
 40
0.0007260459316325
 40
0.0007260459316325
 40
0.0007260459316325
 40
0.0007260459316325
 40
0.0018599900295499
 40
0.0018599900295499
 40
0.0018599900295499
 40
0.0018599900295499
 10
242.1168104451147
 20
166.1908406857902
 30
0.0000000000004547
 10
242.1173509013722
 20
166.190616021834
 30
0.0000000000004547
 10
242.117887661879
 20
166.1903960636453
 30
0.0000000000004547
 10
242.1184199907591
 20
166.1901809605496
 30
0.0000000000004547
  0
SPLINE
  5
13F
330
85
100
AcDbEntity
  8
可視
100
AcDbSpline
210
0.0
220
0.0
230
1.0
 70
     8
 71
     3
 72
    10
 73
     6
 74
     0
 42
0.000000001
 43
0.0000000001
 40
0.4963513837980196
 40
0.4963513837980196
 40
0.4963513837980196
 40
0.4963513837980196
 40
6.344424369769733
 40
6.344424369769733
 40
9.398736989588226
 40
9.398736989588226
 40
9.398736989588226
 40
9.398736989588226
 10
233.1782053614861
 20
168.5654120723342
 30
0.0000000000004547
 10
235.1487075805287
 20
168.3672827363035
 30
0.0000000000004547
 10
237.1183785122557
 20
167.9430380900076
 30
0.0000000000004547
 10
240.0894035112062
 20
166.9971613849098
 30
0.0000000000004547
 10
241.1051562454534
 20
166.6188406782034
 30
0.0000000000004547
 10
242.115659963845
 20
166.1913511197444
 30
0.0000000000004547
  0
SPLINE
  5
140
330
85
100
AcDbEntity
  8
可視
100
AcDbSpline
210
0.0
220
0.0
230
1.0
 70
    24
 71
     3
 72
     8
 73
     4
 74
     0
 42
0.000000001
 43
0.0000000001
 40
28.66527187679717
 40
28.66527187679717
 40
28.66527187679717
 40
28.66527187679717
 40
28.66528547701602
 40
28.66528547701602
 40
28.66528547701602
 40
28.66528547701602
 10
231.4038663476099
 20
168.6883369506586
 30
0.0000000000004547
 10
231.4038708802768
 20
168.6883367903978
 30
0.0000000000004547
 10
231.4038754129433
 20
168.6883366301357
 30
0.0000000000004547
 10
231.40387994561
 20
168.6883364698724
 30
0.0000000000004547
  0
SPLINE
  5
141
330
85
100
AcDbEntity
  8
可視
100
AcDbSpline
210
0.0
220
0.0
230
1.0
 70
     8
 71
     3
 72
     8
 73
     4
 74
     0
 42
0.000000001
 43
0.0000000001
 40
28.66733100475936
 40
28.66733100475936
 40
28.66733100475936
 40
28.66733100475936
 40
29.77793071189455
 40
29.77793071189455
 40
29.77793071189455
 40
29.77793071189455
 10
231.40592513714
 20
168.6882640722223
 30
0.0000000000004547
 10
231.7760637498229
 20
168.675146169127
 30
0.0000000000004547
 10
232.1459624052514
 20
168.6536854683023
 30
0.0000000000004547
 10
232.5154731089715
 20
168.6239879255583
 30
0.0000000000004547
  0
SPLINE
  5
142
330
85
100
AcDbEntity
  8
可視
100
AcDbSpline
210
0.0
220
0.0
230
1.0
 70
     8
 71
     3
 72
    10
 73
     6
 74
     0
 42
0.000000001
 43
0.0000000001
 40
0.6936786465988694
 40
0.6936786465988694
 40
0.6936786465988694
 40
0.6936786465988694
 40
6.447618674435901
 40
6.447618674435901
 40
8.823603013235031
 40
8.823603013235031
 40
8.823603013235031
 40
8.823603013235031
 10
235.8128122386795
 20
168.3268935931081
 30
0.0000000000004547
 10
237.7508829532035
 20
168.0985614225278
 30
0.0000000000004547
 10
239.6870221241822
 20
167.6589855715455
 30
0.0000000000004547
 10
242.3987221954963
 20
166.7800037735581
 30
0.0000000000004547
 10
243.1890629259269
 20
166.4919714518712
 30
0.0000000000004547
 10
243.9765215874188
 20
166.1749667329104
 30
0.0000000000004547
  0
SPLINE
  5
143
330
85
100
AcDbEntity
  8
可視
100
AcDbSpline
210
0.0
220
0.0
230
1.0
 70
     8
 71
     3
 72
     8
 73
     4
 74
     0
 42
0.000000001
 43
0.0000000001
 40
28.9903963558509
 40
28.9903963558509
 40
28.9903963558509
 40
28.9903963558509
 40
28.99104122796512
 40
28.99104122796512
 40
28.99104122796512
 40
28.99104122796512
 10
233.7217497207782
 20
168.4977400990367
 30
0.0000000000004547
 10
233.7219645733342
 20
168.4977308386834
 30
0.0000000000004547
 10
233.7221794258062
 20
168.4977215755941
 30
0.0000000000004547
 10
233.7223942781941
 20
168.4977123097687
 30
0.0000000000004547
  0
SPLINE
  5
144
330
85
100
AcDbEntity
  8
可視
100
AcDbSpline
210
0.0
220
0.0
230
1.0
 70
     8
 71
     3
 72
     8
 73
     4
 74
     0
 42
0.000000001
 43
0.0000000001
 40
29.08398810148318
 40
29.08398810148318
 40
29.08398810148318
 40
29.08398810148318
 40
30.20445669848855
 40
30.20445669848855
 40
30.20445669848855
 40
30.20445669848855
 10
233.8152904436972
 20
168.4935353499578
 30
0.0000000000004547
 10
234.1885545328739
 20
168.476066386828
 30
0.0000000000004547
 10
234.5615532517349
 20
168.4503474751434
 30
0.0000000000004547
 10
234.9341423483414
 20
168.4164975932113
 30
0.0000000000004547
  0
SPLINE
  5
145
330
85
100
AcDbEntity
  8
可視
100
AcDbSpline
210
0.0
220
0.0
230
1.0
 70
     8
 71
     3
 72
    10
 73
     6
 74
     0
 42
0.000000001
 43
0.0000000001
 40
0.746312337824257
 40
0.746312337824257
 40
0.746312337824257
 40
0.746312337824257
 40
6.572898808999713
 40
6.572898808999713
 40
8.196123696749344
 40
8.196123696749344
 40
8.196123696749344
 40
8.196123696749344
 10
238.3430143503094
 20
168.0754902444391
 30
0.0000000000004547
 10
240.304817385472
 20
167.8247990469098
 30
0.0000000000004547
 10
242.2640370942747
 20
167.3658588639629
 30
0.0000000000004547
 10
244.7478275484991
 20
166.5525000635221
 30
0.0000000000004547
 10
245.2880288872991
 20
166.3615068225611
 30
0.0000000000004547
 10
245.8270359106239
 20
166.1574367670117
 30
0.0000000000004547
  0
SPLINE
  5
146
330
85
100
AcDbEntity
  8
可視
100
AcDbSpline
210
0.0
220
0.0
230
1.0
 70
     8
 71
     3
 72
     8
 73
     4
 74
     0
 42
0.000000001
 43
0.0000000001
 40
29.42318212549569
 40
29.42318212549569
 40
29.42318212549569
 40
29.42318212549569
 40
29.42395168577639
 40
29.42395168577639
 40
29.42395168577639
 40
29.42395168577639
 10
236.1600848936214
 20
168.2757392514248
 30
0.0000000000004547
 10
236.1603411718986
 20
168.2757256399953
 30
0.0000000000004547
 10
236.1605974500494
 20
168.2757120248027
 30
0.0000000000004547
 10
236.160853728074
 20
168.275698405847
 30
0.0000000000004547
  0
SPLINE
  5
147
330
85
100
AcDbEntity
  8
可視
100
AcDbSpline
210
0.0
220
0.0
230
1.0
 70
     8
 71
     3
 72
     8
 73
     4
 74
     0
 42
0.000000001
 43
0.0000000001
 40
29.52634828280947
 40
29.52634828280947
 40
29.52634828280947
 40
29.52634828280947
 40
30.65753475090096
 40
30.65753475090096
 40
30.65753475090096
 40
30.65753475090096
 10
236.2631468951415
 20
168.2700622789812
 30
0.0000000000004547
 10
236.6398027582052
 20
168.2485727197801
 30
0.0000000000004547
 10
237.0161735629924
 20
168.2189648414531
 30
0.0000000000004547
 10
237.3921208035815
 20
168.1813752247143
 30
0.0000000000004547
  0
SPLINE
  5
148
330
85
100
AcDbEntity
  8
可視
100
AcDbSpline
210
0.0
220
0.0
230
1.0
 70
     8
 71
     3
 72
    10
 73
     6
 74
     0
 42
0.000000001
 43
0.0000000001
 40
0.6928339203401407
 40
0.6928339203401407
 40
0.6928339203401407
 40
0.6928339203401407
 40
6.725792669247169
 40
6.725792669247169
 40
7.51347306963736
 40
7.51347306963736
 40
7.51347306963736
 40
7.51347306963736
 10
240.813608400096
 20
167.8134181424111
 30
0.0000000000004547
 10
242.8442087944495
 20
167.5452573025363
 30
0.0000000000004547
 10
244.8717958925661
 20
167.0637397950534
 30
0.0000000000004547
 10
247.145255145838
 20
166.3186952783934
 30
0.0000000000004547
 10
247.4075826349672
 20
166.2296216763296
 30
0.0000000000004547
 10
247.6696668415213
 20
166.1375959275625
 30
0.0000000000004547
  0
SPLINE
  5
149
330
85
100
AcDbEntity
  8
可視
100
AcDbSpline
210
0.0
220
0.0
230
1.0
 70
     8
 71
     3
 72
     8
 73
     4
 74
     0
 42
0.000000001
 43
0.0000000001
 40
29.88475727970795
 40
29.88475727970795
 40
29.88475727970795
 40
29.88475727970795
 40
29.88546875449961
 40
29.88546875449961
 40
29.88546875449961
 40
29.88546875449961
 10
238.6399698059606
 20
168.0272287856721
 30
0.0000000000004547
 10
238.6402066277642
 20
168.0272141758431
 30
0.0000000000004547
 10
238.6404434494577
 20
168.0271995629297
 30
0.0000000000004547
 10
238.6406802710407
 20
168.027184946932
 30
0.0000000000004547
  0
SPLINE
  5
14A
330
85
100
AcDbEntity
  8
可視
100
AcDbSpline
210
0.0
220
0.0
230
1.0
 70
     8
 71
     3
 72
     8
 73
     4
 74
     0
 42
0.000000001
 43
0.0000000001
 40
29.99886035327183
 40
29.99886035327183
 40
29.99886035327183
 40
29.99886035327183
 40
31.14255171130199
 40
31.14255171130199
 40
31.14255171130199
 40
31.14255171130199
 10
238.7539023529787
 20
168.0199617751112
 30
0.0000000000004547
 10
239.1345337347889
 20
167.9948878062686
 30
0.0000000000004547
 10
239.5148668476293
 20
167.9618594088812
 30
0.0000000000004547
 10
239.8947709164227
 20
167.9210346913787
 30
0.0000000000004547
  0
SPLINE
  5
14B
330
85
100
AcDbEntity
  8
可視
100
AcDbSpline
210
0.0
220
0.0
230
1.0
 70
     8
 71
     3
 72
     8
 73
     4
 74
     0
 42
0.000000001
 43
0.0000000001
 40
0.5431749448764353
 40
0.5431749448764353
 40
0.5431749448764353
 40
0.5431749448764353
 40
6.768910809383413
 40
6.768910809383413
 40
6.768910809383413
 40
6.768910809383413
 10
243.2415854737396
 20
167.5441414213243
 30
0.0000000000004547
 10
245.3364729626744
 20
167.2695824077488
 30
0.0000000000004547
 10
247.428186763698
 20
166.7797048326309
 30
0.0000000000004547
 10
249.5039308702155
 20
166.1154527236481
 30
0.0000000000004547
  0
SPLINE
  5
14C
330
85
100
AcDbEntity
  8
可視
100
AcDbSpline
210
0.0
220
0.0
230
1.0
 70
     8
 71
     3
 72
     8
 73
     4
 74
     0
 42
0.000000001
 43
0.0000000001
 40
30.38089551286165
 40
30.38089551286165
 40
30.38089551286165
 40
30.38089551286165
 40
30.38134049017341
 40
30.38134049017341
 40
30.38134049017341
 40
30.38134049017341
 10
241.1669403904495
 20
167.7550682697831
 30
0.0000000000004547
 10
241.1670884345335
 20
167.7550581370873
 30
0.0000000000004547
 10
241.1672364785743
 20
167.7550480032444
 30
0.0000000000004547
 10
241.1673845225728
 20
167.7550378682543
 30
0.0000000000004547
  0
SPLINE
  5
14D
330
85
100
AcDbEntity
  8
可視
100
AcDbSpline
210
0.0
220
0.0
230
1.0
 70
     8
 71
     3
 72
     8
 73
     4
 74
     0
 42
0.000000001
 43
0.0000000001
 40
30.50741896385627
 40
30.50741896385627
 40
30.50741896385627
 40
30.50741896385627
 40
31.66588063079336
 40
31.66588063079336
 40
31.66588063079336
 40
31.66588063079336
 10
241.2932129974749
 20
167.7461469807179
 30
0.0000000000004547
 10
241.6785685866435
 20
167.718071179346
 30
0.0000000000004547
 10
242.063620242905
 20
167.6822401288466
 30
0.0000000000004547
 10
242.4482474678127
 20
167.6388347745239
 30
0.0000000000004547
  0
SPLINE
  5
14E
330
85
100
AcDbEntity
  8
可視
100
AcDbSpline
210
0.0
220
0.0
230
1.0
 70
     8
 71
     3
 72
     8
 73
     4
 74
     0
 42
0.000000001
 43
0.0000000001
 40
0.2956525129144227
 40
0.2956525129144227
 40
0.2956525129144227
 40
0.2956525129144227
 40
5.952919974149482
 40
5.952919974149482
 40
5.952919974149482
 40
5.952919974149482
 10
245.6351769966023
 20
167.2715354432626
 30
0.0000000000004547
 10
247.538340972719
 20
167.0339668123853
 30
0.0000000000004547
 10
249.4390183586765
 20
166.6297950424669
 30
0.0000000000004547
 10
251.3289989844614
 20
166.0910227891548
 30
0.0000000000004547
  0
SPLINE
  5
14F
330
85
100
AcDbEntity
  8
可視
100
AcDbSpline
210
0.0
220
0.0
230
1.0
 70
    24
 71
     3
 72
     8
 73
     4
 74
     0
 42
0.000000001
 43
0.0000000001
 40
30.9180873531174
 40
30.9180873531174
 40
30.9180873531174
 40
30.9180873531174
 40
30.91817548667001
 40
30.91817548667001
 40
30.91817548667001
 40
30.91817548667001
 10
243.7475583560336
 20
167.4632235883525
 30
0.0000000000004547
 10
243.7475876645287
 20
167.46322145369
 30
0.0000000000004547
 10
243.7476169730221
 20
167.463219318985
 30
0.0000000000004547
 10
243.7476462815139
 20
167.4632171842378
 30
0.0000000000004547
  0
SPLINE
  5
150
330
85
100
AcDbEntity
  8
可視
100
AcDbSpline
210
0.0
220
0.0
230
1.0
 70
     8
 71
     3
 72
     8
 73
     4
 74
     0
 42
0.000000001
 43
0.0000000001
 40
31.0586011329741
 40
31.0586011329741
 40
31.0586011329741
 40
31.0586011329741
 40
32.23475444110826
 40
32.23475444110826
 40
32.23475444110826
 40
32.23475444110826
 10
243.8877278894495
 20
167.4526909962753
 30
0.0000000000004547
 10
244.2787830583191
 20
167.4224047605584
 30
0.0000000000004547
 10
244.6695372532492
 20
167.384601547182
 30
0.0000000000004547
 10
245.0598824322908
 20
167.3394778844406
 30
0.0000000000004547
  0
SPLINE
  5
151
330
85
100
AcDbEntity
  8
可視
100
AcDbSpline
210
0.0
220
0.0
230
1.0
 70
     8
 71
     3
 72
     8
 73
     4
 74
     0
 42
0.000000001
 43
0.0000000001
 40
1.15504569056196
 40
1.15504569056196
 40
1.15504569056196
 40
1.15504569056196
 40
5.051589555575887
 40
5.051589555575887
 40
5.051589555575887
 40
5.051589555575887
 10
249.2213374601476
 20
166.8402908951131
 30
0.0000000000004547
 10
250.5310914561073
 20
166.647552762675
 30
0.0000000000004547
 10
251.8391412710921
 20
166.3853101814345
 30
0.0000000000004547
 10
253.1433084194348
 20
166.0643371874676
 30
0.0000000000004547
  0
SPLINE
  5
152
330
85
100
AcDbEntity
  8
可視
100
AcDbSpline
210
0.0
220
0.0
230
1.0
 70
    24
 71
     3
 72
     8
 73
     4
 74
     0
 42
0.000000001
 43
0.0000000001
 40
31.50302324887321
 40
31.50302324887321
 40
31.50302324887321
 40
31.50302324887321
 40
31.50311602644711
 40
31.50311602644711
 40
31.50311602644711
 40
31.50311602644711
 10
246.3888249540066
 20
167.1573900281428
 30
0.0000000000004547
 10
246.3888557946482
 20
167.1573877407856
 30
0.0000000000004547
 10
246.3888866352879
 20
167.1573854533848
 30
0.0000000000004547
 10
246.3889174759261
 20
167.1573831659403
 30
0.0000000000004547
  0
SPLINE
  5
153
330
85
100
AcDbEntity
  8
可視
100
AcDbSpline
210
0.0
220
0.0
230
1.0
 70
     8
 71
     3
 72
     8
 73
     4
 74
     0
 42
0.000000001
 43
0.0000000001
 40
31.65908868205999
 40
31.65908868205999
 40
31.65908868205999
 40
31.65908868205999
 40
32.86166576927918
 40
32.86166576927918
 40
32.86166576927918
 40
32.86166576927918
 10
246.5444459845537
 20
167.1454771171905
 30
0.0000000000004547
 10
246.9441260894407
 20
167.1139294650049
 30
0.0000000000004547
 10
247.3435131482085
 20
167.0750783506769
 30
0.0000000000004547
 10
247.7425059072482
 20
167.0291283854712
 30
0.0000000000004547
  0
SPLINE
  5
154
330
85
100
AcDbEntity
  8
可視
100
AcDbSpline
210
0.0
220
0.0
230
1.0
 70
     8
 71
     3
 72
    12
 73
     8
 74
     0
 42
0.000000001
 43
0.0000000001
 40
6.685612780936411
 40
6.685612780936411
 40
6.685612780936411
 40
6.685612780936411
 40
6.958851291550517
 40
6.958851291550517
 40
14.13592435346924
 40
14.13592435346924
 40
15.23664003477543
 40
15.23664003477543
 40
15.23664003477543
 40
15.23664003477543
 10
196.8174889989191
 20
166.9326531574723
 30
0.0000000000004547
 10
196.9094003288342
 20
166.9338486558921
 30
0.0000000000004547
 10
197.0013117585331
 20
166.934672595414
 30
0.0000000000004547
 10
199.5073973995501
 20
166.9470749738427
 30
0.0000000000004547
 10
201.9269217497028
 20
166.700826271806
 30
0.0000000000004547
 10
204.7043387960087
 20
166.1868045181278
 30
0.0000000000004547
 10
205.0734828200468
 20
166.1137946003131
 30
0.0000000000004547
 10
205.4424173049974
 20
166.0363548027185
 30
0.0000000000004547
  0
SPLINE
  5
155
330
85
100
AcDbEntity
  8
可視
100
AcDbSpline
210
0.0
220
0.0
230
1.0
 70
     8
 71
     3
 72
     8
 73
     4
 74
     0
 42
0.000000001
 43
0.0000000001
 40
32.1563023898618
 40
32.1563023898618
 40
32.1563023898618
 40
32.1563023898618
 40
32.1580513360511
 40
32.1580513360511
 40
32.1580513360511
 40
32.1580513360511
 10
249.0994047657102
 20
166.8455727518559
 30
0.0000000000004547
 10
249.0999859454671
 20
166.8455310910138
 30
0.0000000000004547
 10
249.1005671246946
 20
166.845489416069
 30
0.0000000000004547
 10
249.1011483033919
 20
166.8454477270222
 30
0.0000000000004547
  0
SPLINE
  5
156
330
85
100
AcDbEntity
  8
可視
100
AcDbSpline
210
0.0
220
0.0
230
1.0
 70
     8
 71
     3
 72
     8
 73
     4
 74
     0
 42
0.000000001
 43
0.0000000001
 40
32.32966182338869
 40
32.32966182338869
 40
32.32966182338869
 40
32.32966182338869
 40
33.55825274318297
 40
33.55825274318297
 40
33.55825274318297
 40
33.55825274318297
 10
249.2722123943949
 20
166.832769291906
 30
0.0000000000004547
 10
249.6804011040392
 20
166.8015450987865
 30
0.0000000000004547
 10
250.0883158920842
 20
166.763400422433
 30
0.0000000000004547
 10
250.4958673041838
 20
166.7186102348647
 30
0.0000000000004547
  0
SPLINE
  5
157
330
85
100
AcDbEntity
  8
可視
100
AcDbSpline
210
0.0
220
0.0
230
1.0
 70
     8
 71
     3
 72
     8
 73
     4
 74
     0
 42
0.000000001
 43
0.0000000001
 40
1.279701312237339
 40
1.279701312237339
 40
1.279701312237339
 40
1.279701312237339
 40
4.213596632562188
 40
4.213596632562188
 40
4.213596632562188
 40
4.213596632562188
 10
251.9889464162854
 20
166.5397453896535
 30
0.0000000000004547
 10
252.9748888243728
 20
166.4047502526638
 30
0.0000000000004547
 10
253.9599842723376
 20
166.235037741194
 30
0.0000000000004547
 10
254.9434979917216
 20
166.0354651696059
 30
0.0000000000004547
  0
LINE
  5
158
330
85
100
AcDbEntity
  8
可視
100
AcDbLine
 10
163.4486919458024
 20
153.7116327012839
 30
0.0000000000004547
 11
162.5373630545775
 21
150.4060027916089
 31
0.0000000000004547
210
0.0
220
1.0
230
0.0
  0
SPLINE
  5
159
330
85
100
AcDbEntity
  8
可視
100
AcDbSpline
210
0.0
220
0.0
230
1.0
 70
     8
 71
     3
 72
     8
 73
     4
 74
     0
 42
0.000000001
 43
0.0000000001
 40
0.0
 40
0.0
 40
0.0
 40
0.0
 40
1.747884179160323
 40
1.747884179160323
 40
1.747884179160323
 40
1.747884179160323
 10
227.167119667088
 20
167.0095022231513
 30
0.0000000000004547
 10
227.7461176383474
 20
166.7698836721605
 30
0.0000000000004547
 10
228.3234307727205
 20
166.5121479803334
 30
0.0000000000004547
 10
228.8987142465437
 20
166.2371544116698
 30
0.0000000000004547
  0
SPLINE
  5
15A
330
85
100
AcDbEntity
  8
可視
100
AcDbSpline
210
0.0
220
0.0
230
1.0
 70
     8
 71
     3
 72
    10
 73
     6
 74
     0
 42
0.000000001
 43
0.0000000001
 40
0.7322126318740571
 40
0.7322126318740571
 40
0.7322126318740571
 40
0.7322126318740571
 40
6.058781472980045
 40
6.058781472980045
 40
9.729695112062644
 40
9.729695112062644
 40
9.729695112062644
 40
9.729695112062644
 10
217.1863394270113
 20
169.1977845846904
 30
0.0000000000004547
 10
218.982474969062
 20
169.1682261946147
 30
0.0000000000004547
 10
220.7826579124364
 20
168.9325005341807
 30
0.0000000000004547
 10
223.8013692312634
 20
168.2174148622696
 30
0.0000000000004547
 10
225.0291785334471
 20
167.8363341639705
 30
0.0000000000004547
 10
226.2489433541334
 20
167.3736627657443
 30
0.0000000000004547
  0
SPLINE
  5
15B
330
85
100
AcDbEntity
  8
可視
100
AcDbSpline
210
0.0
220
0.0
230
1.0
 70
     8
 71
     3
 72
    26
 73
    22
 74
     0
 42
0.000000001
 43
0.0000000001
 40
0.0
 40
0.0
 40
0.0
 40
0.0
 40
0.0226885343770936
 40
0.0226885343770936
 40
0.044781570635076
 40
0.044781570635076
 40
0.0714094329108362
 40
0.0714094329108362
 40
0.1042905669851999
 40
0.1042905669851999
 40
0.1397113955696782
 40
0.1397113955696782
 40
0.1750966281898074
 40
0.1750966281898074
 40
0.1909814771881838
 40
0.1909814771881838
 40
0.2040840886168825
 40
0.2040840886168825
 40
0.2258920545706166
 40
0.2258920545706166
 40
0.2359875482337102
 40
0.2359875482337102
 40
0.2359875482337102
 40
0.2359875482337102
 10
226.2489641495665
 20
167.3736552989563
 30
0.0000000000004547
 10
226.2554675466588
 20
167.3711890090904
 30
0.0000000000004547
 10
226.264351817789
 20
167.3683332467317
 30
0.0000000000004547
 10
226.2852018978301
 20
167.3640142863474
 30
0.0000000000004547
 10
226.2971594959895
 20
167.3625345442512
 30
0.0000000000004547
 10
226.3246961115056
 20
167.3621201895857
 30
0.0000000000004547
 10
226.3407799558165
 20
167.363756539547
 30
0.0000000000004547
 10
226.3759842732984
 20
167.3721023582517
 30
0.0000000000004547
 10
226.395350426134
 20
167.380012509452
 30
0.0000000000004547
 10
226.4316270276829
 20
167.4022035001605
 30
0.0000000000004547
 10
226.4486846559646
 20
167.417228467571
 30
0.0000000000004547
 10
226.4759584145402
 20
167.4509851024125
 30
0.0000000000004547
 10
226.4865184142871
 20
167.4702618855468
 30
0.0000000000004547
 10
226.4962319288013
 20
167.4970904472033
 30
0.0000000000004547
 10
226.4985195867637
 20
167.5053133720731
 30
0.0000000000004547
 10
226.5014712791876
 20
167.5192082468723
 30
0.0000000000004547
 10
226.5023625598194
 20
167.5251205776709
 30
0.0000000000004547
 10
226.5038429019612
 20
167.538955059248
 30
0.0000000000004547
 10
226.5038585669724
 20
167.5456041905069
 30
0.0000000000004547
 10
226.5037064770415
 20
167.5511726660151
 30
0.0000000000004547
 10
226.5036323645315
 20
167.5523844616261
 30
0.0000000000004547
 10
226.5035833530853
 20
167.553080330829
 30
0.0000000000004547
  0
LINE
  5
15C
330
85
100
AcDbEntity
  8
可視
100
AcDbLine
 10
230.2585842857552
 20
168.4149278668822
 30
0.0000000000004547
 11
230.3997956919463
 21
167.082548466966
 31
0.0000000000004547
210
0.0
220
1.0
230
0.0
  0
LINE
  5
15D
330
85
100
AcDbEntity
  8
可視
100
AcDbLine
 10
226.4664467745631
 20
168.0805997879923
 30
0.0000000000004547
 11
226.503578713693
 21
167.5531424379411
 31
0.0000000000004547
210
0.0
220
1.0
230
0.0
  0
SPLINE
  5
15E
330
85
100
AcDbEntity
  8
可視
100
AcDbSpline
210
0.0
220
0.0
230
1.0
 70
     8
 71
     3
 72
    32
 73
    28
 74
     0
 42
0.000000001
 43
0.0000000001
 40
6.272582998964586
 40
6.272582998964586
 40
6.272582998964586
 40
6.272582998964586
 40
6.342790042456202
 40
6.342790042456202
 40
6.426849747744451
 40
6.426849747744451
 40
6.579518229223157
 40
6.579518229223157
 40
7.078153261960192
 40
7.078153261960192
 40
7.418792872887786
 40
7.418792872887786
 40
7.747158504684009
 40
7.747158504684009
 40
8.072794979711348
 40
8.072794979711348
 40
8.399070511976081
 40
8.399070511976081
 40
8.730376127849615
 40
8.730376127849615
 40
9.083778829576372
 40
9.083778829576372
 40
9.246321971257518
 40
9.246321971257518
 40
9.327593542098091
 40
9.327593542098091
 40
9.408865112938666
 40
9.408865112938666
 40
9.408865112938666
 40
9.408865112938666
 10
226.4664467722782
 20
168.0805998204542
 30
0.0000000000004547
 10
226.463840781252
 20
168.117618192787
 30
0.0000000000004547
 10
226.4705909665051
 20
168.1542556957549
 30
0.0000000000004547
 10
226.495596061586
 20
168.2199021672535
 30
0.0000000000004547
 10
226.5145560572908
 20
168.2466776751447
 30
0.0000000000004547
 10
226.567502652935
 20
168.3066984591806
 30
0.0000000000004547
 10
226.6022781063898
 20
168.3301632610111
 30
0.0000000000004547
 10
226.7596477399534
 20
168.4218209703436
 30
0.0000000000004547
 10
226.9182551598994
 20
168.4700237939786
 30
0.0000000000004547
 10
227.2725075027308
 20
168.5532049946554
 30
0.0000000000004547
 10
227.4377401916161
 20
168.5847034445453
 30
0.0000000000004547
 10
227.7888316401349
 20
168.6396848553803
 30
0.0000000000004547
 10
227.9735812564345
 20
168.6633671804973
 30
0.0000000000004547
 10
228.3480044604148
 20
168.7017091790776
 30
0.0000000000004547
 10
228.5375337069695
 20
168.7164310393424
 30
0.0000000000004547
 10
228.904394204365
 20
168.7356762104272
 30
0.0000000000004547
 10
229.0816026891357
 20
168.7401814486468
 30
0.0000000000004547
 10
229.4087585936129
 20
168.7383081377842
 30
0.0000000000004547
 10
229.5580254840374
 20
168.7318227882944
 30
0.0000000000004547
 10
229.8225440963518
 20
168.7064816045987
 30
0.0000000000004547
 10
229.9327996349682
 20
168.6886730234031
 30
0.0000000000004547
 10
230.0699232850905
 20
168.6419349791524
 30
0.0000000000004547
 10
230.1105096401796
 20
168.6251057450619
 30
0.0000000000004547
 10
230.1747873259283
 20
168.5766463329466
 30
0.0000000000004547
 10
230.1971830437578
 20
168.5560187508419
 30
0.0000000000004547
 10
230.2372203978903
 20
168.4972401855384
 30
0.0000000000004547
 10
230.2540566810105
 20
168.45764710581
 30
0.0000000000004547
 10
230.2585842823253
 20
168.4149278992432
 30
0.0000000000004547
  0
SPLINE
  5
15F
330
85
100
AcDbEntity
  8
可視
100
AcDbSpline
210
0.0
220
0.0
230
1.0
 70
     8
 71
     3
 72
     8
 73
     4
 74
     0
 42
0.000000001
 43
0.0000000001
 40
24.08180760849547
 40
24.08180760849547
 40
24.08180760849547
 40
24.08180760849547
 40
24.08263699072044
 40
24.08263699072044
 40
24.08263699072044
 40
24.08263699072044
 10
219.7295935696577
 20
169.1872147900913
 30
0.0000000000004547
 10
219.7298705151613
 20
169.1872243977801
 30
0.0000000000004547
 10
219.7301474623271
 20
169.1872340004804
 30
0.0000000000004547
 10
219.7304244076488
 20
169.187243598071
 30
0.0000000000004547
  0
SPLINE
  5
160
330
85
100
AcDbEntity
  8
可視
100
AcDbSpline
210
0.0
220
0.0
230
1.0
 70
     8
 71
     3
 72
     8
 73
     4
 74
     0
 42
0.000000001
 43
0.0000000001
 40
24.14056256370273
 40
24.14056256370273
 40
24.14056256370273
 40
24.14056256370273
 40
25.21235619964368
 40
25.21235619964368
 40
25.21235619964368
 40
25.21235619964368
 10
219.7884502716229
 20
169.1891806744952
 30
0.0000000000004547
 10
220.1463241176732
 20
169.2006723905944
 30
0.0000000000004547
 10
220.5040377027919
 20
169.2037380123311
 30
0.0000000000004547
 10
220.8614324436837
 20
169.1985095654312
 30
0.0000000000004547
  0
SPLINE
  5
161
330
85
100
AcDbEntity
  8
可視
100
AcDbSpline
210
0.0
220
0.0
230
1.0
 70
     8
 71
     3
 72
     8
 73
     4
 74
     0
 42
0.000000001
 43
0.0000000001
 40
0.0
 40
0.0
 40
0.0
 40
0.0
 40
1.095778086730754
 40
1.095778086730754
 40
1.095778086730754
 40
1.095778086730754
 10
229.7229514824583
 20
166.7360645758436
 30
0.0000000000004547
 10
230.0850521712491
 20
166.5770046227467
 30
0.0000000000004547
 10
230.4464465757435
 20
166.4109434015423
 30
0.0000000000004547
 10
230.8070517832566
 20
166.2380922885405
 30
0.0000000000004547
  0
SPLINE
  5
162
330
85
100
AcDbEntity
  8
可視
100
AcDbSpline
210
0.0
220
0.0
230
1.0
 70
     8
 71
     3
 72
    10
 73
     6
 74
     0
 42
0.000000001
 43
0.0000000001
 40
0.7563301995010964
 40
0.7563301995010964
 40
0.7563301995010964
 40
0.7563301995010964
 40
6.067770779040702
 40
6.067770779040702
 40
7.708011325697102
 40
7.708011325697102
 40
7.708011325697102
 40
7.708011325697102
 10
219.4616928416938
 20
169.2021318057801
 30
0.0000000000004547
 10
221.252940965453
 20
169.1434621463963
 30
0.0000000000004547
 10
223.0472660441499
 20
168.8803646473073
 30
0.0000000000004547
 10
225.3778116304445
 20
168.2935958783142
 30
0.0000000000004547
 10
225.926845411562
 20
168.1374713815744
 30
0.0000000000004547
 10
226.4746340246509
 20
167.964300307368
 30
0.0000000000004547
  0
SPLINE
  5
163
330
85
100
AcDbEntity
  8
可視
100
AcDbSpline
210
0.0
220
0.0
230
1.0
 70
     8
 71
     3
 72
     8
 73
     4
 74
     0
 42
0.000000001
 43
0.0000000001
 40
0.0
 40
0.0
 40
0.0
 40
0.0
 40
0.0084474540314493
 40
0.0084474540314493
 40
0.0084474540314493
 40
0.0084474540314493
 10
230.8071962975844
 20
166.2380305220156
 30
0.0000000000004547
 10
230.8113792048805
 20
166.2360381603242
 30
0.0000000000004547
 10
230.8155135495253
 20
166.2342667105049
 30
0.0000000000004547
 10
230.8195161561057
 20
166.2327167654435
 30
0.0000000000004547
  0
SPLINE
  5
164
330
85
100
AcDbEntity
  8
可視
100
AcDbSpline
210
0.0
220
0.0
230
1.0
 70
     8
 71
     3
 72
     8
 73
     4
 74
     0
 42
0.000000001
 43
0.0000000001
 40
23.2087729410529
 40
23.2087729410529
 40
23.2087729410529
 40
23.2087729410529
 40
23.2096358662555
 40
23.2096358662555
 40
23.2096358662555
 40
23.2096358662555
 10
217.4748920090622
 20
169.1868892387448
 30
0.0000000000004547
 10
217.4751801461466
 20
169.1869035058767
 30
0.0000000000004547
 10
217.4754682845098
 20
169.1869177675776
 30
0.0000000000004547
 10
217.475756421464
 20
169.1869320237146
 30
0.0000000000004547
  0
SPLINE
  5
165
330
85
100
AcDbEntity
  8
可視
100
AcDbSpline
210
0.0
220
0.0
230
1.0
 70
     8
 71
     3
 72
     8
 73
     4
 74
     0
 42
0.000000001
 43
0.0000000001
 40
23.26483840559186
 40
23.26483840559186
 40
23.26483840559186
 40
23.26483840559186
 40
24.33010850060544
 40
24.33010850060544
 40
24.33010850060544
 40
24.33010850060544
 10
217.5310532605756
 20
169.1896005081562
 30
0.0000000000004547
 10
217.8867439063172
 20
169.2063315692385
 30
0.0000000000004547
 10
218.2423272910498
 20
169.2146901371077
 30
0.0000000000004547
 10
218.5976468233389
 20
169.2148026669848
 30
0.0000000000004547
  0
SPLINE
  5
166
330
85
100
AcDbEntity
  8
可視
100
AcDbSpline
210
0.0
220
0.0
230
1.0
 70
     8
 71
     3
 72
     8
 73
     4
 74
     0
 42
0.000000001
 43
0.0000000001
 40
0.0004298511883359
 40
0.0004298511883359
 40
0.0004298511883359
 40
0.0004298511883359
 40
0.008445545470198
 40
0.008445545470198
 40
0.008445545470198
 40
0.008445545470198
 10
232.7093639390593
 20
166.2361848042485
 30
0.0000000000004547
 10
232.713227366607
 20
166.2343661804403
 30
0.0000000000004547
 10
232.716902293394
 20
166.2328030353598
 30
0.0000000000004547
 10
232.7204156530072
 20
166.2314362288652
 30
0.0000000000004547
  0
SPLINE
  5
167
330
85
100
AcDbEntity
  8
可視
100
AcDbSpline
210
0.0
220
0.0
230
1.0
 70
     8
 71
     3
 72
     8
 73
     4
 74
     0
 42
0.000000001
 43
0.0000000001
 40
0.7407539152528689
 40
0.7407539152528689
 40
0.7407539152528689
 40
0.7407539152528689
 40
5.740677586107699
 40
5.740677586107699
 40
5.740677586107699
 40
5.740677586107699
 10
221.7172543161007
 20
169.1735716308976
 30
0.0000000000004547
 10
223.4034596772531
 20
169.094468837036
 30
0.0000000000004547
 10
225.0916927138867
 20
168.8353542838202
 30
0.0000000000004547
 10
226.7682422981791
 20
168.4125212108266
 30
0.0000000000004547
  0
SPLINE
  5
168
330
85
100
AcDbEntity
  8
可視
100
AcDbSpline
210
0.0
220
0.0
230
1.0
 70
     8
 71
     3
 72
     8
 73
     4
 74
     0
 42
0.000000001
 43
0.0000000001
 40
9.349210398885439
 40
9.349210398885439
 40
9.349210398885439
 40
9.349210398885439
 40
11.69390851658559
 40
11.69390851658559
 40
11.69390851658559
 40
11.69390851658559
 10
230.3822884798945
 20
167.2477351846472
 30
0.0000000000004547
 10
231.1610883143905
 20
166.9429713877483
 30
0.0000000000004547
 10
231.9368288643825
 20
166.6051806899449
 30
0.0000000000004547
 10
232.7085674695725
 20
166.2365760696806
 30
0.0000000000004547
  0
SPLINE
  5
169
330
85
100
AcDbEntity
  8
可視
100
AcDbSpline
210
0.0
220
0.0
230
1.0
 70
     8
 71
     3
 72
     8
 73
     4
 74
     0
 42
0.000000001
 43
0.0000000001
 40
0.0007392655172682
 40
0.0007392655172682
 40
0.0007392655172682
 40
0.0007392655172682
 40
0.008758421742681
 40
0.008758421742681
 40
0.008758421742681
 40
0.008758421742681
 10
228.8998608944335
 20
166.2365839337518
 30
0.0000000000004547
 10
228.9038427419616
 20
166.2347094283813
 30
0.0000000000004547
 10
228.9077273460939
 20
166.2330616875877
 30
0.0000000000004547
 10
228.9113198101397
 20
166.2316703521139
 30
0.0000000000004547
  0
SPLINE
  5
16A
330
85
100
AcDbEntity
  8
可視
100
AcDbSpline
210
0.0
220
0.0
230
1.0
 70
     8
 71
     3
 72
     8
 73
     4
 74
     0
 42
0.000000001
 43
0.0000000001
 40
26.07346389173773
 40
26.07346389173773
 40
26.07346389173773
 40
26.07346389173773
 40
26.07428153053005
 40
26.07428153053005
 40
26.07428153053005
 40
26.07428153053005
 10
215.2368520011551
 20
169.1521742376538
 30
0.0000000000004547
 10
215.2371248720162
 20
169.1521918730313
 30
0.0000000000004547
 10
215.2373977428929
 20
169.1522095034736
 30
0.0000000000004547
 10
215.237670613785
 20
169.152227128981
 30
0.0000000000004547
  0
SPLINE
  5
16B
330
85
100
AcDbEntity
  8
可視
100
AcDbSpline
210
0.0
220
0.0
230
1.0
 70
     8
 71
     3
 72
     8
 73
     4
 74
     0
 42
0.000000001
 43
0.0000000001
 40
26.12764227570308
 40
26.12764227570308
 40
26.12764227570308
 40
26.12764227570308
 40
27.18517042068822
 40
27.18517042068822
 40
27.18517042068822
 40
27.18517042068822
 10
215.2910950950747
 20
169.1556149114632
 30
0.0000000000004547
 10
215.6440265738311
 20
169.1775787205457
 30
0.0000000000004547
 10
215.9969761602952
 20
169.1912914859011
 30
0.0000000000004547
 10
216.3497874738594
 20
169.1968448816114
 30
0.0000000000004547
  0
SPLINE
  5
16C
330
85
100
AcDbEntity
  8
可視
100
AcDbSpline
210
0.0
220
0.0
230
1.0
 70
     8
 71
     3
 72
    36
 73
    32
 74
     0
 42
0.000000001
 43
0.0000000001
 40
6.272583302125148
 40
6.272583302125148
 40
6.272583302125148
 40
6.272583302125148
 40
6.330521592063237
 40
6.330521592063237
 40
6.395857499686266
 40
6.395857499686266
 40
6.485958027550748
 40
6.485958027550748
 40
6.66714648385925
 40
6.66714648385925
 40
6.953609050267964
 40
6.953609050267964
 40
7.331854787512602
 40
7.331854787512602
 40
7.668981272390064
 40
7.668981272390064
 40
7.999035390252585
 40
7.999035390252585
 40
8.328983276832655
 40
8.328983276832655
 40
8.665326886903747
 40
8.665326886903747
 40
9.030317307212747
 40
9.030317307212747
 40
9.219591058495423
 40
9.219591058495423
 40
9.292878433231203
 40
9.292878433231203
 40
9.379114580167897
 40
9.379114580167897
 40
9.408864809778103
 40
9.408864809778103
 40
9.408864809778103
 40
9.408864809778103
 10
194.2692566990288
 20
168.1429997199924
 30
0.0000000000004547
 10
194.2672489531931
 20
168.1715207779933
 30
0.0000000000004547
 10
194.2711257655148
 20
168.1999454167666
 30
0.0000000000004547
 10
194.2868077862529
 20
168.2514579877894
 30
0.0000000000004547
 10
194.2989833023603
 20
168.273503731517
 30
0.0000000000004547
 10
194.3283395911191
 20
168.3153451949453
 30
0.0000000000004547
 10
194.3457062740926
 20
168.3318502164446
 30
0.0000000000004547
 10
194.3950103214538
 20
168.3724350740643
 30
0.0000000000004547
 10
194.4253490505868
 20
168.3883376731705
 30
0.0000000000004547
 10
194.5089322283272
 20
168.4268867925128
 30
0.0000000000004547
 10
194.565626679155
 20
168.445828232059
 30
0.0000000000004547
 10
194.7188117626286
 20
168.4882984006489
 30
0.0000000000004547
 10
194.821546507618
 20
168.5103926406129
 30
0.0000000000004547
 10
195.0373651758134
 20
168.54780285433
 30
0.0000000000004547
 10
195.1478597839138
 20
168.5634811792025
 30
0.0000000000004547
 10
195.3732272693412
 20
168.5892882608265
 30
0.0000000000004547
 10
195.4878869762469
 20
168.5995134870511
 30
0.0000000000004547
 10
195.7122734247882
 20
168.6138786239119
 30
0.0000000000004547
 10
195.8219331448581
 20
168.6180207418109
 30
0.0000000000004547
 10
196.0278873735822
 20
168.6197154554998
 30
0.0000000000004547
 10
196.1237257127211
 20
168.617178667751
 30
0.0000000000004547
 10
196.299458875847
 20
168.604271745542
 30
0.0000000000004547
 10
196.3757492409204
 20
168.594388211027
 30
0.0000000000004547
 10
196.4806372457642
 20
168.5652454285867
 30
0.0000000000004547
 10
196.514821844641
 20
168.5541292870917
 30
0.0000000000004547
 10
196.5707236216444
 20
168.5182442309309
 30
0.0000000000004547
 10
196.5874572640343
 20
168.505676192846
 30
0.0000000000004547
 10
196.6247358354656
 20
168.4663109778431
 30
0.0000000000004547
 10
196.6459318238951
 20
168.4360448752293
 30
0.0000000000004547
 10
196.6622434159759
 20
168.3833606323944
 30
0.0000000000004547
 10
196.6652611956947
 20
168.3689757611072
 30
0.0000000000004547
 10
196.6668085556955
 20
168.3543762599814
 30
0.0000000000004547
  0
SPLINE
  5
16D
330
85
100
AcDbEntity
  8
可視
100
AcDbSpline
210
0.0
220
0.0
230
1.0
 70
     8
 71
     3
 72
    12
 73
     8
 74
     0
 42
0.000000001
 43
0.0000000001
 40
0.1911916279385578
 40
0.1911916279385578
 40
0.1911916279385578
 40
0.1911916279385578
 40
5.187088794239668
 40
5.187088794239668
 40
10.54578265622147
 40
10.54578265622147
 40
13.12300873142379
 40
13.12300873142379
 40
13.12300873142379
 40
13.12300873142379
 10
185.551846612572
 20
169.8429014789486
 30
0.0000000000004547
 10
187.2400474570602
 20
169.8838804702995
 30
0.0000000000004547
 10
188.9364881860892
 20
169.6749983479423
 30
0.0000000000004547
 10
192.4151787146321
 20
168.783685844721
 30
0.0000000000004547
 10
194.2036169269672
 20
168.0667971180845
 30
0.0000000000004547
 10
196.8052711852074
 20
166.6970466551087
 30
0.0000000000004547
 10
197.6442216568095
 20
166.2036904680377
 30
0.0000000000004547
 10
198.4759186064923
 20
165.6671174617872
 30
0.0000000000004547
  0
SPLINE
  5
16E
330
85
100
AcDbEntity
  8
可視
100
AcDbSpline
210
0.0
220
0.0
230
1.0
 70
     8
 71
     3
 72
    14
 73
    10
 74
     0
 42
0.000000001
 43
0.0000000001
 40
0.0
 40
0.0
 40
0.0
 40
0.0
 40
0.0320282146802238
 40
0.0320282146802238
 40
0.0458809298427699
 40
0.0458809298427699
 40
0.0538418808784895
 40
0.0538418808784895
 40
0.0604039545002221
 40
0.0604039545002221
 40
0.0604039545002221
 40
0.0604039545002221
 10
198.4759522669549
 20
165.6671000919722
 30
0.0000000000004547
 10
198.4938309578313
 20
165.6555770550901
 30
0.0000000000004547
 10
198.5139331471976
 20
165.6468509020333
 30
0.0000000000004547
 10
198.5427337277858
 20
165.639396629597
 30
0.0000000000004547
 10
198.5515881081781
 20
165.6377679913105
 30
0.0000000000004547
 10
198.5644329767965
 20
165.6362062333069
 30
0.0000000000004547
 10
198.5689337302203
 20
165.6358388477929
 30
0.0000000000004547
 10
198.5760360868291
 20
165.6354593305541
 30
0.0000000000004547
 10
198.5788788276677
 20
165.6353894809353
 30
0.0000000000004547
 10
198.5812066717328
 20
165.6353696382818
 30
0.0000000000004547
  0
LINE
  5
16F
330
85
100
AcDbEntity
  8
可視
100
AcDbLine
 10
170.9635860326023
 20
165.4023142306315
 30
0.0000000000004547
 11
175.6207672305415
 21
167.0446876291213
 31
0.0000000000004547
210
0.0
220
1.0
230
0.0
  0
LINE
  5
170
330
85
100
AcDbEntity
  8
可視
100
AcDbLine
 10
182.7367748872691
 20
169.5541759187394
 30
0.0000000000004547
 11
190.8567026434489
 21
172.4177006083755
 31
0.0000000000004547
210
0.0
220
1.0
230
0.0
  0
LINE
  5
171
330
85
100
AcDbEntity
  8
可視
100
AcDbLine
 10
173.9093497875261
 20
165.4023142306316
 30
0.0000000000004547
 11
170.9635860326023
 21
165.4023142306315
 31
0.0000000000004547
210
0.0
220
1.0
230
0.0
  0
LINE
  5
172
330
85
100
AcDbEntity
  8
可視
100
AcDbLine
 10
191.013385810754
 20
170.6405118120194
 30
0.0000000000004547
 11
188.3216850696753
 21
169.6912728827291
 31
0.0000000000004547
210
0.0
220
1.0
230
0.0
  0
LINE
  5
173
330
85
100
AcDbEntity
  8
可視
100
AcDbLine
 10
188.3136444527342
 20
169.6884373273126
 30
0.0000000000004547
 11
188.3134548543646
 21
169.6883704646965
 31
0.0000000000004547
210
0.0
220
1.0
230
0.0
  0
LINE
  5
174
330
85
100
AcDbEntity
  8
可視
100
AcDbLine
 10
188.2546570878444
 20
169.6676351994106
 30
0.0000000000004547
 11
188.2546483685398
 21
169.6676321245134
 31
0.0000000000004547
210
0.0
220
1.0
230
0.0
  0
LINE
  5
175
330
85
100
AcDbEntity
  8
可視
100
AcDbLine
 10
196.5066928858975
 20
168.997647401006
 30
0.0000000000004547
 11
196.3190680675413
 21
171.1257938435094
 31
0.0000000000004547
210
0.0
220
1.0
230
0.0
  0
LINE
  5
176
330
85
100
AcDbEntity
  8
可視
100
AcDbLine
 10
199.5943293776415
 20
168.5285568974355
 30
0.0000000000004547
 11
199.5682821509913
 21
168.8239992233391
 31
0.0000000000004547
210
0.0
220
1.0
230
0.0
  0
LINE
  5
177
330
85
100
AcDbEntity
  8
可視
100
AcDbLine
 10
196.7544894514453
 20
167.5270760976725
 30
0.0000000000004547
 11
199.5943293776415
 21
168.5285568974355
 31
0.0000000000004547
210
0.0
220
1.0
230
0.0
  0
LINE
  5
178
330
85
100
AcDbEntity
  8
可視
100
AcDbLine
 10
171.1721673107536
 20
163.0364678092484
 30
0.0000000000004547
 11
170.9635860326023
 21
165.4023142306315
 31
0.0000000000004547
210
0.0
220
1.0
230
0.0
  0
LINE
  5
179
330
85
100
AcDbEntity
  8
可視
100
AcDbLine
 10
191.1506507211488
 20
169.0835758304322
 30
0.0000000000004547
 11
191.1506131810868
 21
169.084001630977
 31
0.0000000000004547
210
0.0
220
1.0
230
0.0
  0
LINE
  5
17A
330
85
100
AcDbEntity
  8
可視
100
AcDbLine
 10
191.1491561004259
 20
169.1005286611018
 30
0.0000000000004547
 11
190.8567026434489
 21
172.4177006083755
 31
0.0000000000004547
210
0.0
220
1.0
230
0.0
  0
LINE
  5
17B
330
85
100
AcDbEntity
  8
可視
100
AcDbLine
 10
193.5560371442659
 20
168.2315729571361
 30
0.0000000000004547
 11
193.5566256181271
 21
168.2317804847745
 31
0.0000000000004547
210
0.0
220
1.0
230
0.0
  0
LINE
  5
17C
330
85
100
AcDbEntity
  8
可視
100
AcDbLine
 10
193.6015959187696
 20
168.2476394394421
 30
0.0000000000004547
 11
194.3981769549348
 21
168.5285568974354
 31
0.0000000000004547
210
0.0
220
1.0
230
0.0
  0
LINE
  5
17D
330
85
100
AcDbEntity
  8
可視
100
AcDbLine
 10
194.3721297282845
 20
168.8239992233391
 30
0.0000000000004547
 11
194.3981769549348
 21
168.5285568974354
 31
0.0000000000004547
210
0.0
220
1.0
230
0.0
  0
LINE
  5
17E
330
85
100
AcDbEntity
  8
可視
100
AcDbLine
 10
193.1549073668288
 20
168.3947409356463
 30
0.0000000000004547
 11
193.155508176883
 21
168.3949528136921
 31
0.0000000000004547
210
0.0
220
1.0
230
0.0
  0
LINE
  5
17F
330
85
100
AcDbEntity
  8
可視
100
AcDbLine
 10
193.1968922218348
 20
168.4095470610837
 30
0.0000000000004547
 11
194.3721297282845
 21
168.8239992233391
 31
0.0000000000004547
210
0.0
220
1.0
230
0.0
  0
LINE
  5
180
330
85
100
AcDbEntity
  8
可視
100
AcDbLine
 10
191.3070270045961
 20
169.0374990287075
 30
0.0000000000004547
 11
191.3069891702214
 21
169.0379281675124
 31
0.0000000000004547
210
0.0
220
1.0
230
0.0
  0
LINE
  5
181
330
85
100
AcDbEntity
  8
可視
100
AcDbLine
 10
191.305445151751
 20
169.0554412952718
 30
0.0000000000004547
 11
190.9783765797508
 21
172.7652373875792
 31
0.0000000000004547
210
0.0
220
1.0
230
0.0
  0
LINE
  5
182
330
85
100
AcDbEntity
  8
可視
100
AcDbLine
 10
170.7898176430005
 20
165.6456621032351
 30
0.0000000000004547
 11
175.5947200038988
 21
167.3401299550274
 31
0.0000000000004547
210
0.0
220
1.0
230
0.0
  0
LINE
  5
183
330
85
100
AcDbEntity
  8
可視
100
AcDbLine
 10
182.0411099090202
 20
169.6134748919065
 30
0.0000000000004547
 11
190.9783765797508
 21
172.7652373875792
 31
0.0000000000004547
210
0.0
220
1.0
230
0.0
  0
LINE
  5
184
330
85
100
AcDbEntity
  8
可視
100
AcDbLine
 10
171.0318487200497
 20
162.9004092091302
 30
0.0000000000004547
 11
170.7898176430005
 21
165.6456621032351
 31
0.0000000000004547
210
0.0
220
1.0
230
0.0
  0
LINE
  5
185
330
85
100
AcDbEntity
  8
可視
100
AcDbLine
 10
190.9783765797508
 20
172.7652373875792
 30
0.0000000000004547
 11
191.0799192424526
 21
172.7652373875792
 31
0.0000000000004547
210
0.0
220
1.0
230
0.0
  0
LINE
  5
186
330
85
100
AcDbEntity
  8
可視
100
AcDbLine
 10
199.5682821509913
 20
168.8239992233391
 30
0.0000000000004547
 11
199.1946606237129
 21
168.9976474010061
 31
0.0000000000004547
210
0.0
220
1.0
230
0.0
  0
LINE
  5
187
330
85
100
AcDbEntity
  8
可視
100
AcDbLine
 10
199.1946606237129
 20
168.9976474010061
 30
0.0000000000004547
 11
199.2207078503631
 21
168.7022050751024
 31
0.0000000000004547
210
0.0
220
1.0
230
0.0
  0
LINE
  5
188
330
85
100
AcDbEntity
  8
可視
100
AcDbLine
 10
199.2207078503631
 20
168.7022050751024
 30
0.0000000000004547
 11
199.5943293776415
 21
168.5285568974355
 31
0.0000000000004547
210
0.0
220
1.0
230
0.0
  0
LINE
  5
189
330
85
100
AcDbEntity
  8
可視
100
AcDbLine
 10
195.7305590085749
 20
168.997647401006
 30
0.0000000000004547
 11
199.1946606237129
 21
168.9976474010061
 31
0.0000000000004547
210
0.0
220
1.0
230
0.0
  0
LINE
  5
18A
330
85
100
AcDbEntity
  8
可視
100
AcDbLine
 10
195.7566062352251
 20
168.7022050751023
 30
0.0000000000004547
 11
195.7305590085749
 21
168.997647401006
 31
0.0000000000004547
210
0.0
220
1.0
230
0.0
  0
LINE
  5
18B
330
85
100
AcDbEntity
  8
可視
100
AcDbLine
 10
199.2207078503631
 20
168.7022050751024
 30
0.0000000000004547
 11
195.7566062352251
 21
168.7022050751023
 31
0.0000000000004547
210
0.0
220
1.0
230
0.0
  0
LINE
  5
18C
330
85
100
AcDbEntity
  8
可視
100
AcDbLine
 10
195.7305590085749
 20
168.997647401006
 30
0.0000000000004547
 11
194.3721297282845
 21
168.8239992233391
 31
0.0000000000004547
210
0.0
220
1.0
230
0.0
  0
LINE
  5
18D
330
85
100
AcDbEntity
  8
可視
100
AcDbLine
 10
194.3981769549348
 20
168.5285568974354
 30
0.0000000000004547
 11
195.7566062352251
 21
168.7022050751023
 31
0.0000000000004547
210
0.0
220
1.0
230
0.0
  0
LINE
  5
18E
330
85
100
AcDbEntity
  8
可視
100
AcDbLine
 10
241.7529194077561
 20
171.12579384351
 30
0.0000000000004547
 11
234.225007053449
 21
168.4710457305643
 31
0.0000000000004547
210
0.0
220
1.0
230
0.0
  0
LINE
  5
18F
330
85
100
AcDbEntity
  8
可視
100
AcDbLine
 10
239.6392422136293
 20
168.5479534718512
 30
0.0000000000004547
 11
239.6392626734709
 21
168.5479606870953
 31
0.0000000000004547
210
0.0
220
1.0
230
0.0
  0
LINE
  5
190
330
85
100
AcDbEntity
  8
可視
100
AcDbLine
 10
240.6028617455092
 20
168.8877777170672
 30
0.0000000000004547
 11
245.5729862491746
 21
170.6405118120201
 31
0.0000000000004547
210
0.0
220
1.0
230
0.0
  0
LINE
  5
191
330
85
100
AcDbEntity
  8
可視
100
AcDbLine
 10
245.8556329713669
 20
167.4345733781345
 30
0.0000000000004547
 11
245.5302020914721
 21
171.12579384351
 31
0.0000000000004547
210
0.0
220
1.0
230
0.0
  0
LINE
  5
192
330
85
100
AcDbEntity
  8
可視
100
AcDbLine
 10
245.8556329713669
 20
167.4345733781345
 30
0.0000000000004547
 11
248.9577773933554
 21
168.5285568974362
 31
0.0000000000004547
210
0.0
220
1.0
230
0.0
  0
LINE
  5
193
330
85
100
AcDbEntity
  8
可視
100
AcDbLine
 10
248.9577773933554
 20
168.5285568974362
 30
0.0000000000004547
 11
248.9317301667052
 21
168.8239992233398
 31
0.0000000000004547
210
0.0
220
1.0
230
0.0
  0
LINE
  5
194
330
85
100
AcDbEntity
  8
可視
100
AcDbLine
 10
248.9317301667052
 20
168.8239992233398
 30
0.0000000000004547
 11
245.9773069076685
 21
167.7821101573381
 31
0.0000000000004547
210
0.0
220
1.0
230
0.0
  0
LINE
  5
195
330
85
100
AcDbEntity
  8
可視
100
AcDbLine
 10
245.9773069076685
 20
167.7821101573381
 30
0.0000000000004547
 11
245.6825160832552
 21
171.12579384351
 31
0.0000000000004547
210
0.0
220
1.0
230
0.0
  0
LINE
  5
196
330
85
100
AcDbEntity
  8
可視
100
AcDbLine
 10
240.8891038352847
 20
171.12579384351
 30
0.0000000000004547
 11
233.5237324067409
 21
168.528366431927
 31
0.0000000000004547
210
0.0
220
1.0
230
0.0
  0
LINE
  5
197
330
85
100
AcDbEntity
  8
可視
100
AcDbLine
 10
233.5113728943259
 20
168.5240078009128
 30
0.0000000000004547
 11
233.511270683229
 21
168.5239717557646
 31
0.0000000000004547
210
0.0
220
1.0
230
0.0
  0
LINE
  5
198
330
85
100
AcDbEntity
  8
可視
100
AcDbLine
 10
251.0662933243177
 20
168.9976474010068
 30
0.0000000000004547
 11
250.878668505962
 21
171.1257938435102
 31
0.0000000000004547
210
0.0
220
1.0
230
0.0
  0
LINE
  5
199
330
85
100
AcDbEntity
  8
可視
100
AcDbLine
 10
254.1278825894119
 20
168.8239992233399
 30
0.0000000000004547
 11
254.1539298160617
 21
168.5285568974362
 31
0.0000000000004547
210
0.0
220
1.0
230
0.0
  0
LINE
  5
19A
330
85
100
AcDbEntity
  8
可視
100
AcDbLine
 10
251.0517853940735
 20
167.4345733781346
 30
0.0000000000004547
 11
251.466509155299
 21
167.5808273554245
 31
0.0000000000004547
210
0.0
220
1.0
230
0.0
  0
LINE
  5
19B
330
85
100
AcDbEntity
  8
可視
100
AcDbLine
 10
253.8119817699153
 20
168.4079675643639
 30
0.0000000000004547
 11
254.1539298160617
 21
168.5285568974362
 31
0.0000000000004547
210
0.0
220
1.0
230
0.0
  0
LINE
  5
19C
330
85
100
AcDbEntity
  8
可視
100
AcDbLine
 10
248.9317301667052
 20
168.8239992233398
 30
0.0000000000004547
 11
250.2901594469956
 21
168.9976474010068
 31
0.0000000000004547
210
0.0
220
1.0
230
0.0
  0
LINE
  5
19D
330
85
100
AcDbEntity
  8
可視
100
AcDbLine
 10
250.3162066736459
 20
168.702205075103
 30
0.0000000000004547
 11
248.9577773933554
 21
168.5285568974362
 31
0.0000000000004547
210
0.0
220
1.0
230
0.0
  0
LINE
  5
19E
330
85
100
AcDbEntity
  8
可視
100
AcDbLine
 10
250.2901594469956
 20
168.9976474010068
 30
0.0000000000004547
 11
250.3162066736459
 21
168.702205075103
 31
0.0000000000004547
210
0.0
220
1.0
230
0.0
  0
LINE
  5
19F
330
85
100
AcDbEntity
  8
可視
100
AcDbLine
 10
250.3162066736459
 20
168.702205075103
 30
0.0000000000004547
 11
253.7803082887838
 21
168.702205075103
 31
0.0000000000004547
210
0.0
220
1.0
230
0.0
  0
LINE
  5
1A0
330
85
100
AcDbEntity
  8
可視
100
AcDbLine
 10
253.7803082887838
 20
168.702205075103
 30
0.0000000000004547
 11
253.7542610621335
 21
168.9976474010068
 31
0.0000000000004547
210
0.0
220
1.0
230
0.0
  0
LINE
  5
1A1
330
85
100
AcDbEntity
  8
可視
100
AcDbLine
 10
253.7542610621335
 20
168.9976474010068
 30
0.0000000000004547
 11
250.2901594469956
 21
168.9976474010068
 31
0.0000000000004547
210
0.0
220
1.0
230
0.0
  0
LINE
  5
1A2
330
85
100
AcDbEntity
  8
可視
100
AcDbLine
 10
253.7542610621335
 20
168.9976474010068
 30
0.0000000000004547
 11
254.1278825894119
 21
168.8239992233399
 31
0.0000000000004547
210
0.0
220
1.0
230
0.0
  0
LINE
  5
1A3
330
85
100
AcDbEntity
  8
可視
100
AcDbLine
 10
254.1539298160617
 20
168.5285568974362
 30
0.0000000000004547
 11
253.7803082887838
 21
168.702205075103
 31
0.0000000000004547
210
0.0
220
1.0
230
0.0
  0
LINE
  5
1A4
330
85
100
AcDbEntity
  8
可視
100
AcDbLine
 10
245.8556329713669
 20
167.4345733781345
 30
0.0000000000004547
 11
251.0517853940735
 21
167.4345733781346
 31
0.0000000000004547
210
0.0
220
1.0
230
0.0
  0
LINE
  5
1A5
330
85
100
AcDbEntity
  8
可視
100
AcDbLine
 10
244.3724910851868
 20
173.1475038028346
 30
0.0000000000004547
 11
243.5910742856854
 21
182.0107735799445
 31
0.0000000000004547
210
0.0
220
1.0
230
0.0
  0
LINE
  5
1A6
330
85
100
AcDbEntity
  8
可視
100
AcDbLine
 10
197.7803243615829
 20
173.147503802834
 30
0.0000000000004547
 11
196.9989075620815
 21
182.0107735799439
 31
0.0000000000004547
210
0.0
220
1.0
230
0.0
  0
LINE
  5
1A7
330
85
100
AcDbEntity
  8
可視
100
AcDbLine
 10
181.4321112281218
 20
176.5210811862024
 30
0.0000000000004547
 11
196.9989075620815
 21
182.0107735799439
 31
0.0000000000004547
210
0.0
220
1.0
230
0.0
  0
LINE
  5
1A8
330
85
100
AcDbEntity
  8
可視
100
AcDbLine
 10
196.9989075620815
 20
182.0107735799439
 30
0.0000000000004547
 11
243.5910742856854
 21
182.0107735799445
 31
0.0000000000004547
210
0.0
220
1.0
230
0.0
  0
LINE
  5
1A9
330
85
100
AcDbEntity
  8
可視
100
AcDbLine
 10
170.5175684766297
 20
165.8542803397878
 30
0.0000000000004547
 11
175.5686727772554
 21
167.6355722809335
 31
0.0000000000004547
210
0.0
220
1.0
230
0.0
  0
LINE
  5
1AA
330
85
100
AcDbEntity
  8
可視
100
AcDbLine
 10
182.0150626823699
 20
169.9089172178102
 30
0.0000000000004547
 11
191.1985312928214
 21
173.1475038028339
 31
0.0000000000004547
210
0.0
220
1.0
230
0.0
  0
LINE
  5
1AB
330
85
100
AcDbEntity
  8
可視
100
AcDbLine
 10
191.1985312928214
 20
173.1475038028339
 30
0.0000000000004547
 11
197.7803243615829
 21
173.147503802834
 31
0.0000000000004547
210
0.0
220
1.0
230
0.0
  0
LINE
  5
1AC
330
85
100
AcDbEntity
  8
可視
100
AcDbLine
 10
191.2244583075364
 20
171.1257938435094
 30
0.0000000000004547
 11
250.9802111686633
 21
171.1257938435102
 31
0.0000000000004547
210
0.0
220
1.0
230
0.0
  0
LINE
  5
1AD
330
85
100
AcDbEntity
  8
可視
100
AcDbLine
 10
191.0768573565194
 20
172.7999670236301
 30
0.0000000000004547
 11
191.2244583075364
 21
171.1257938435094
 31
0.0000000000004547
210
0.0
220
1.0
230
0.0
  0
LINE
  5
1AE
330
85
100
AcDbEntity
  8
可視
100
AcDbLine
 10
251.1279323316155
 20
171.1778882968103
 30
0.0000000000004547
 11
191.3721794704881
 21
171.1778882968095
 31
0.0000000000004547
210
0.0
220
1.0
230
0.0
  0
LINE
  5
1AF
330
85
100
AcDbEntity
  8
可視
100
AcDbLine
 10
191.3721794704881
 20
171.1778882968095
 30
0.0000000000004547
 11
191.2244583075364
 21
171.1257938435094
 31
0.0000000000004547
210
0.0
220
1.0
230
0.0
  0
LINE
  5
1B0
330
85
100
AcDbEntity
  8
可視
100
AcDbLine
 10
250.9802111686633
 20
171.1257938435102
 30
0.0000000000004547
 11
251.1279323316155
 21
171.1778882968103
 31
0.0000000000004547
210
0.0
220
1.0
230
0.0
  0
LINE
  5
1B1
330
85
100
AcDbEntity
  8
可視
100
AcDbLine
 10
170.6913368662317
 20
165.6109324671841
 30
0.0000000000004547
 11
170.7928795289335
 21
165.6109324671841
 31
0.0000000000004547
210
0.0
220
1.0
230
0.0
  0
LINE
  5
1B2
330
85
100
AcDbEntity
  8
可視
100
AcDbLine
 10
170.6913368662317
 20
165.6109324671841
 30
0.0000000000004547
 11
170.8389378172487
 21
163.9367592870634
 31
0.0000000000004547
210
0.0
220
1.0
230
0.0
  0
LINE
  5
1B3
330
85
100
AcDbEntity
  8
可視
100
AcDbLine
 10
170.9404804799503
 20
163.9367592870634
 30
0.0000000000004547
 11
170.8389378172487
 21
163.9367592870634
 31
0.0000000000004547
210
0.0
220
1.0
230
0.0
  0
LINE
  5
1B4
330
85
100
AcDbEntity
  8
可視
100
AcDbLine
 10
170.691216654297
 20
163.8846648337634
 30
0.0000000000004547
 11
170.9450733087815
 21
163.8846648337634
 31
0.0000000000004547
210
0.0
220
1.0
230
0.0
  0
LINE
  5
1B5
330
85
100
AcDbEntity
  8
可視
100
AcDbLine
 10
170.8389378172487
 20
163.9367592870634
 30
0.0000000000004547
 11
170.691216654297
 21
163.8846648337634
 31
0.0000000000004547
210
0.0
220
1.0
230
0.0
  0
LINE
  5
1B6
330
85
100
AcDbEntity
  8
可視
100
AcDbLine
 10
170.6913368662317
 20
165.6109324671841
 30
0.0000000000004547
 11
175.5947200038988
 21
167.3401299550274
 31
0.0000000000004547
210
0.0
220
1.0
230
0.0
  0
LINE
  5
1B7
330
85
100
AcDbEntity
  8
可視
100
AcDbLine
 10
182.0411099090202
 20
169.6134748919065
 30
0.0000000000004547
 11
191.0768573565194
 21
172.7999670236301
 31
0.0000000000004547
210
0.0
220
1.0
230
0.0
  0
LINE
  5
1B8
330
85
100
AcDbEntity
  8
可視
100
AcDbLine
 10
191.1985312928214
 20
173.1475038028339
 30
0.0000000000004547
 11
191.3721794704881
 21
171.1778882968095
 31
0.0000000000004547
210
0.0
220
1.0
230
0.0
  0
LINE
  5
1B9
330
85
100
AcDbEntity
  8
可視
100
AcDbLine
 10
170.691216654297
 20
163.8846648337634
 30
0.0000000000004547
 11
170.5175684766297
 21
165.8542803397878
 31
0.0000000000004547
210
0.0
220
1.0
230
0.0
  0
LINE
  5
1BA
330
85
100
AcDbEntity
  8
可視
100
AcDbLine
 10
251.1279323316155
 20
171.1778882968103
 30
0.0000000000004547
 11
250.9542841539483
 21
173.1475038028347
 31
0.0000000000004547
210
0.0
220
1.0
230
0.0
  0
LINE
  5
1BB
330
85
100
AcDbEntity
  8
可視
100
AcDbLine
 10
244.3724910851868
 20
173.1475038028346
 30
0.0000000000004547
 11
250.9542841539483
 21
173.1475038028347
 31
0.0000000000004547
210
0.0
220
1.0
230
0.0
  0
LINE
  5
1BC
330
85
100
AcDbEntity
  8
可視
100
AcDbLine
 10
166.7477913903681
 20
147.2945274314934
 30
0.0000000000004547
 11
221.3073918274536
 21
147.2945274314933
 31
0.0000000000004547
210
0.0
220
1.0
230
0.0
  0
LINE
  5
1BD
330
85
100
AcDbEntity
  8
可視
100
AcDbLine
 10
195.6866204543833
 20
159.1079169653068
 30
0.0000000000004547
 11
164.7806404713044
 21
148.2088006927987
 31
0.0000000000004547
210
0.0
220
1.0
230
0.0
  0
LINE
  5
1BE
330
85
100
AcDbEntity
  8
可視
100
AcDbLine
 10
228.4596440714017
 20
148.2088006928625
 30
0.0000000000004547
 11
259.4810882905228
 21
159.1486358856099
 31
0.0000000000004547
210
0.0
220
1.0
230
0.0
  0
LINE
  5
1BF
330
85
100
AcDbEntity
  8
可視
100
AcDbLine
 10
164.0794889127294
 20
147.9291002119688
 30
0.0000000000004547
 11
164.0955959103125
 21
147.7464055668435
 31
0.0000000000004547
210
0.0
220
1.0
230
0.0
  0
LINE
  5
1C0
330
85
100
AcDbEntity
  8
可視
100
AcDbLine
 10
260.1500258539315
 20
159.7937256566877
 30
0.0000000000004547
 11
260.1661328515147
 21
159.6110310115651
 31
0.0000000000004547
210
0.0
220
1.0
230
0.0
  0
LINE
  5
1C1
330
85
100
AcDbEntity
  8
可視
100
AcDbLine
 10
182.0265832369398
 20
163.4915577114955
 30
0.0000000000004547
 11
181.2154236615467
 21
161.1746458501372
 31
0.0000000000004547
210
0.0
220
1.0
230
0.0
  0
LINE
  5
1C2
330
85
100
AcDbEntity
  8
可視
100
AcDbLine
 10
181.2154236615467
 20
161.1746458501372
 30
0.0000000000004547
 11
181.7696799199591
 21
161.1746458501372
 31
0.0000000000004547
210
0.0
220
1.0
230
0.0
  0
LINE
  5
1C3
330
85
100
AcDbEntity
  8
可視
100
AcDbLine
 10
181.7696799199591
 20
161.1746458501372
 30
0.0000000000004547
 11
182.5808394953044
 21
163.4915577114955
 31
0.0000000000004547
210
0.0
220
1.0
230
0.0
  0
LINE
  5
1C4
330
85
100
AcDbEntity
  8
可視
100
AcDbLine
 10
182.5808394953044
 20
163.4915577114955
 30
0.0000000000004547
 11
182.0265832369398
 21
163.4915577114955
 31
0.0000000000004547
210
0.0
220
1.0
230
0.0
  0
LINE
  5
1C5
330
85
100
AcDbEntity
  8
可視
100
AcDbLine
 10
181.2154236615467
 20
161.1746458501372
 30
0.0000000000004547
 11
177.2761926494979
 21
159.7854604288018
 31
0.0000000000004547
210
0.0
220
1.0
230
0.0
  0
LINE
  5
1C6
330
85
100
AcDbEntity
  8
可視
100
AcDbLine
 10
177.8304489079107
 20
159.7854604288018
 30
0.0000000000004547
 11
177.2761926494979
 21
159.7854604288018
 31
0.0000000000004547
210
0.0
220
1.0
230
0.0
  0
LINE
  5
1C7
330
85
100
AcDbEntity
  8
可視
100
AcDbLine
 10
177.8304489079107
 20
159.7854604288018
 30
0.0000000000004547
 11
181.7696799199591
 21
161.1746458501372
 31
0.0000000000004547
210
0.0
220
1.0
230
0.0
  0
LINE
  5
1C8
330
85
100
AcDbEntity
  8
可視
100
AcDbLine
 10
182.0265832369398
 20
163.4915577114955
 30
0.0000000000004547
 11
180.3365439540619
 21
182.6609358356041
 31
0.0000000000004547
210
0.0
220
1.0
230
0.0
  0
LINE
  5
1C9
330
85
100
AcDbEntity
  8
可視
100
AcDbLine
 10
180.3365439540619
 20
182.6609358356041
 30
0.0000000000004547
 11
174.4276974359884
 21
180.5771577036009
 31
0.0000000000004547
210
0.0
220
1.0
230
0.0
  0
LINE
  5
1CA
330
85
100
AcDbEntity
  8
可視
100
AcDbLine
 10
174.4276974359884
 20
180.5771577036009
 30
0.0000000000004547
 11
176.1177367188666
 21
161.4077795794923
 31
0.0000000000004547
210
0.0
220
1.0
230
0.0
  0
LINE
  5
1CB
330
85
100
AcDbEntity
  8
可視
100
AcDbLine
 10
177.2761926494979
 20
159.7854604288018
 30
0.0000000000004547
 11
176.1177367188666
 21
161.4077795794923
 31
0.0000000000004547
210
0.0
220
1.0
230
0.0
  0
LINE
  5
1CC
330
85
100
AcDbEntity
  8
可視
100
AcDbLine
 10
244.3761585790253
 20
182.3998665693308
 30
0.0000000000004547
 11
245.1918791745434
 21
173.1475038028347
 31
0.0000000000004547
210
0.0
220
1.0
230
0.0
  0
LINE
  5
1CD
330
85
100
AcDbEntity
  8
可視
100
AcDbLine
 10
245.4177313989826
 20
170.5857605740708
 30
0.0000000000004547
 11
245.4895708781366
 21
169.7709167099587
 31
0.0000000000004547
210
0.0
220
1.0
230
0.0
  0
LINE
  5
1CE
330
85
100
AcDbEntity
  8
可視
100
AcDbLine
 10
244.3761585790253
 20
182.3998665693308
 30
0.0000000000004547
 11
243.272830580602
 21
182.0107735799445
 31
0.0000000000004547
210
0.0
220
1.0
230
0.0
  0
LINE
  5
1CF
330
85
100
AcDbEntity
  8
可視
100
AcDbLine
 10
180.3365439540619
 20
182.6609358356041
 30
0.0000000000004547
 11
188.7011947364717
 21
193.2327518524643
 31
0.0000000000004547
210
0.0
220
1.0
230
0.0
  0
LINE
  5
1D0
330
85
100
AcDbEntity
  8
可視
100
AcDbLine
 10
188.7011947364717
 20
193.2327518524643
 30
0.0000000000004547
 11
182.7923482183985
 21
191.148973720461
 31
0.0000000000004547
210
0.0
220
1.0
230
0.0
  0
LINE
  5
1D1
330
85
100
AcDbEntity
  8
可視
100
AcDbLine
 10
182.7923482183985
 20
191.148973720461
 30
0.0000000000004547
 11
174.4276974359884
 21
180.5771577036009
 31
0.0000000000004547
210
0.0
220
1.0
230
0.0
  0
LINE
  5
1D2
330
85
100
AcDbEntity
  8
可視
100
AcDbLine
 10
188.9863426125939
 20
192.6024748905365
 30
0.0000000000004547
 11
180.9138169897019
 21
182.3998665693299
 31
0.0000000000004547
210
0.0
220
1.0
230
0.0
  0
LINE
  5
1D3
330
85
100
AcDbEntity
  8
可視
100
AcDbLine
 10
180.9138169897019
 20
182.3998665693299
 30
0.0000000000004547
 11
182.5808394953044
 21
163.4915577114955
 31
0.0000000000004547
210
0.0
220
1.0
230
0.0
  0
LINE
  5
1D4
330
85
100
AcDbEntity
  8
可視
100
AcDbLine
 10
234.5046378355041
 20
192.6024748905371
 30
0.0000000000004547
 11
188.9863426125939
 21
192.6024748905365
 31
0.0000000000004547
210
0.0
220
1.0
230
0.0
  0
LINE
  5
1D5
330
85
100
AcDbEntity
  8
可視
100
AcDbLine
 10
234.5046378355041
 20
192.6024748905371
 30
0.0000000000004547
 11
244.3761585790253
 21
182.3998665693308
 31
0.0000000000004547
210
0.0
220
1.0
230
0.0
  0
LINE
  5
1D6
330
85
100
AcDbEntity
  8
可視
100
AcDbLine
 10
245.7461354326749
 20
173.1475038028347
 30
0.0000000000004547
 11
244.9073980591875
 21
182.660935835605
 31
0.0000000000004547
210
0.0
220
1.0
230
0.0
  0
LINE
  5
1D7
330
85
100
AcDbEntity
  8
可視
100
AcDbLine
 10
244.9073980591875
 20
182.660935835605
 30
0.0000000000004547
 11
234.6786508779191
 21
193.232751852465
 31
0.0000000000004547
210
0.0
220
1.0
230
0.0
  0
LINE
  5
1D8
330
85
100
AcDbEntity
  8
可視
100
AcDbLine
 10
234.6786508779191
 20
193.232751852465
 30
0.0000000000004547
 11
188.7011947364717
 21
193.2327518524643
 31
0.0000000000004547
210
0.0
220
1.0
230
0.0
  0
LINE
  5
1D9
330
85
100
AcDbEntity
  8
可視
100
AcDbLine
 10
228.5957913174304
 20
190.518696758534
 30
0.0000000000004547
 11
187.3376120298414
 21
190.5186967585334
 31
0.0000000000004547
210
0.0
220
1.0
230
0.0
  0
LINE
  5
1DA
330
85
100
AcDbEntity
  8
可視
100
AcDbLine
 10
234.5046378355041
 20
192.6024748905371
 30
0.0000000000004547
 11
228.5957913174304
 21
190.518696758534
 31
0.0000000000004547
210
0.0
220
1.0
230
0.0
  0
LINE
  5
1DB
330
85
100
AcDbEntity
  8
可視
100
AcDbLine
 10
236.8276216001996
 20
182.0107735799444
 30
0.0000000000004547
 11
228.5957913174304
 21
190.518696758534
 31
0.0000000000004547
210
0.0
220
1.0
230
0.0
  0
ELLIPSE
  5
1DC
330
85
100
AcDbEntity
  8
可視
100
AcDbEllipse
 10
53.34705735236752
 20
100.370058818359
 30
0.0000000000004547
 11
360.6012717792066
 21
31.79186674622737
 31
0.0000000000000801
210
0.0000000000000002
220
0.0
230
-1.0
 40
0.1503837331804251
 41
-1.124905730903195
 42
-0.9561810559542639
  0
ELLIPSE
  5
1DD
330
85
100
AcDbEntity
  8
可視
100
AcDbEllipse
 10
200.7878851967032
 20
161.4498665359196
 30
0.0000000000004547
 11
8.965224988986111
 21
0.7904055268399554
 31
0.000000000000002
210
0.0000000000000002
220
0.0
230
-1.0
 40
0.1503837331804295
 41
-2.526977377383369
 42
-1.124905738925481
  0
ELLIPSE
  5
1DE
330
85
100
AcDbEntity
  8
可視
100
AcDbEllipse
 10
490.7612856059206
 20
156.2847720271108
 30
0.0000000000004547
 11
360.6012717792235
 21
31.7918667462298
 31
0.0000000000000801
210
0.0000000000000002
220
0.0
230
-0.9999999999999998
 40
0.1503837331804293
 41
3.587483249425963
 42
3.756207924474561
  0
ELLIPSE
  5
1DF
330
85
100
AcDbEntity
  8
可視
100
AcDbEllipse
 10
171.4951787107445
 20
151.119677553023
 30
0.0000000000004547
 11
8.965224988986149
 21
0.7904055268399329
 31
0.000000000000002
210
0.0000000000000002
220
0.0
230
-1.0
 40
0.15038373318043
 41
3.141592653581923
 42
3.587483241121741
  0
ELLIPSE
  5
1E0
330
85
100
AcDbEntity
  8
可視
100
AcDbEllipse
 10
252.3070327355961
 20
161.4498665359203
 30
0.0000000000004547
 11
8.965224988986101
 21
0.7904055268399541
 31
0.000000000000002
210
0.0000000000000002
220
0.0
230
-0.9999999999999996
 40
0.1503837331804292
 41
-0.9561810504915731
 42
-0.0000000000079044
  0
ELLIPSE
  5
1E1
330
85
100
AcDbEntity
  8
可視
100
AcDbEllipse
 10
252.0239862059957
 20
164.6603398107395
 30
0.0000000000004547
 11
7.769861657124337
 21
0.6850181232617088
 31
0.0000000000000017
210
-0.0000000000000002
220
0.0
230
1.0
 40
0.1503837331804288
 41
0.0560220408665262
 42
0.1617987335915825
  0
ELLIPSE
  5
1E2
330
85
100
AcDbEntity
  8
可視
100
AcDbEllipse
 10
171.2121321811471
 20
154.3301508278426
 30
0.0000000000004547
 11
7.769861657121197
 21
0.6850181232613758
 31
0.0000000000000017
210
-0.0000000000000002
220
0.0
230
1.0
 40
0.1503837331804304
 41
2.695702052852125
 42
3.085570612723337
  0
ELLIPSE
  5
1E3
330
85
100
AcDbEntity
  8
可視
100
AcDbEllipse
 10
490.4782390763182
 20
159.4952453019308
 30
0.0000000000004547
 11
359.4059084473528
 21
31.68647934265085
 31
0.0000000000000798
210
0.0000000000000002
220
0.0
230
-0.9999999999999998
 40
0.1503837331804287
 41
3.587483249739872
 42
3.756207924323353
  0
ELLIPSE
  5
1E4
330
85
100
AcDbEntity
  8
可視
100
AcDbEllipse
 10
200.5048386671053
 20
164.6603398107392
 30
0.0000000000004547
 11
7.769861657121288
 21
0.6850181232614143
 31
0.0000000000000017
210
-0.0000000000000002
220
0.0
230
1.0
 40
0.1503837331804294
 41
1.919288093930378
 42
2.526977383604504
  0
ELLIPSE
  5
1E5
330
85
100
AcDbEntity
  8
可視
100
AcDbEllipse
 10
201.8576491735268
 20
166.0548763227967
 30
0.0000000000004547
 11
0.0236690823356297
 21
0.1784370818554013
 31
0.0
210
-0.0000000000000002
220
0.0
230
1.0
 40
0.8620110107259716
 41
0.0001045755013009
 42
0.0001520530193324
  0
ELLIPSE
  5
1E6
330
85
100
AcDbEntity
  8
可視
100
AcDbEllipse
 10
169.3403420517588
 20
148.2088006926953
 30
0.0000000000004547
 11
5.244746141446062
 21
0.4623951258518302
 31
0.0000000000000012
210
-0.0000000000000002
220
0.0
230
1.0
 40
0.1503837331804287
 41
2.611339720352554
 42
4.182136047438955
  0
ELLIPSE
  5
1E7
330
85
100
AcDbEntity
  8
可視
100
AcDbEllipse
 10
254.9213867100632
 20
159.1486358857129
 30
0.0000000000004547
 11
5.244746141451906
 21
0.4623951258523509
 31
0.0000000000000012
210
-0.0000000000000002
220
0.0
230
1.0
 40
0.1503837331804292
 41
-0.5302529331246376
 42
0.4962612897217359
  0
ELLIPSE
  5
1E8
330
85
100
AcDbEntity
  8
可視
100
AcDbEllipse
 10
223.8999424901792
 20
148.2088006926962
 30
0.0000000000004547
 11
5.244746141451115
 21
0.4623951258522807
 31
0.0000000000000012
210
-0.0000000000000002
220
0.0
230
1.0
 40
0.1503837331804288
 41
4.18213604714722
 42
5.752932374236077
  0
ELLIPSE
  5
1E9
330
85
100
AcDbEntity
  8
可視
100
AcDbEllipse
 10
208.7910669650125
 20
191.5605858245353
 30
0.0000000000004547
 11
2.589953885707096
 21
0.2283393744204316
 31
0.0000000000000006
210
0.0000000000000002
220
0.0
230
-1.0
 40
0.1503837331804292
 41
-2.611339720473076
 42
3.671845586706508
  0
ELLIPSE
  5
1EA
330
85
100
AcDbEntity
  8
可視
100
AcDbEllipse
 10
208.7354995481587
 20
192.190862786463
 30
0.0000000000004547
 11
2.589953885707091
 21
0.2283393744204726
 31
0.0000000000000006
210
-0.0000000000000002
220
0.0
230
1.0
 40
0.1503837331804323
 41
4.08423178954662
 42
5.340546171223008
  0
ELLIPSE
  5
1EB
330
85
100
AcDbEntity
  8
可視
100
AcDbEllipse
 10
217.4513210028574
 20
191.5605858245355
 30
0.0000000000004547
 11
1.195363331864814
 21
0.1053874035786608
 31
0.0000000000000003
210
0.0000000000000003
220
0.0
230
-1.0
 40
0.1503837331804292
 41
-2.611339720473065
 42
3.671845586706519
  0
ELLIPSE
  5
1EC
330
85
100
AcDbEntity
  8
可視
100
AcDbEllipse
 10
200.1308129271681
 20
191.5605858245351
 30
0.0000000000004547
 11
1.195363331864814
 21
0.1053874035786608
 31
0.0000000000000003
210
0.0000000000000003
220
0.0
230
-1.0
 40
0.1503837331804292
 41
-2.611339720473065
 42
3.671845586706519
  0
ELLIPSE
  5
1ED
330
85
100
AcDbEntity
  8
可視
100
AcDbEllipse
 10
226.1115750407018
 20
191.5605858245355
 30
0.0000000000004547
 11
1.195363331864812
 21
0.1053874035786606
 31
0.0000000000000003
210
0.0000000000000003
220
0.0
230
-1.0
 40
0.1503837331804293
 41
-2.611339720473068
 42
3.671845586706516
  0
ELLIPSE
  5
1EE
330
85
100
AcDbEntity
  8
可視
100
AcDbEllipse
 10
191.4705588893241
 20
191.5605858245351
 30
0.0000000000004547
 11
1.195363331864812
 21
0.1053874035786606
 31
0.0000000000000003
210
0.0000000000000003
220
0.0
230
-1.0
 40
0.1503837331804293
 41
-2.611339720473068
 42
3.671845586706516
  0
ENDBLK
  5
1EF
330
85
100
AcDbEntity
  8
0
100
AcDbBlockEnd
  0
BLOCK
  5
1F6
330
1F4
100
AcDbEntity
  8
0
100
AcDbBlockBegin
  2
ISO_A3_SHEET
 70
     0
 10
0.0
 20
0.0
 30
0.0
  3
ISO_A3_SHEET
  1

  0
LINE
  5
1F7
330
1F4
100
AcDbEntity
  8
Defpoints
100
AcDbLine
 10
0.0
 20
0.0
 30
0.0
 11
15.0
 21
0.0
 31
0.0
  0
LINE
  5
1F8
330
1F4
100
AcDbEntity
  8
Defpoints
100
AcDbLine
 10
405.0
 20
0.0
 30
0.0
 11
420.0
 21
0.0
 31
0.0
  0
LINE
  5
1F9
330
1F4
100
AcDbEntity
  8
Border
100
AcDbLine
 10
20.0
 20
10.0
 30
0.0
 11
410.0
 21
10.0
 31
0.0
  0
LINE
  5
1FA
330
1F4
100
AcDbEntity
  8
Defpoints
100
AcDbLine
 10
420.0
 20
0.0
 30
0.0
 11
420.0
 21
15.0
 31
0.0
  0
LINE
  5
1FB
330
1F4
100
AcDbEntity
  8
Defpoints
100
AcDbLine
 10
420.0
 20
282.0
 30
0.0
 11
420.0
 21
297.0
 31
0.0
  0
LINE
  5
1FC
330
1F4
100
AcDbEntity
  8
Defpoints
100
AcDbLine
 10
420.0
 20
297.0
 30
0.0
 11
405.0
 21
297.0
 31
0.0
  0
LINE
  5
1FD
330
1F4
100
AcDbEntity
  8
Defpoints
100
AcDbLine
 10
15.0
 20
297.0
 30
0.0
 11
0.0
 21
297.0
 31
0.0
  0
LINE
  5
1FE
330
1F4
100
AcDbEntity
  8
Border
100
AcDbLine
 10
410.0
 20
287.0
 30
0.0
 11
20.0
 21
287.0
 31
0.0
  0
LINE
  5
1FF
330
1F4
100
AcDbEntity
  8
Defpoints
100
AcDbLine
 10
0.0
 20
297.0
 30
0.0
 11
0.0
 21
282.0
 31
0.0
  0
LINE
  5
200
330
1F4
100
AcDbEntity
  8
Defpoints
100
AcDbLine
 10
0.0
 20
15.0
 30
0.0
 11
0.0
 21
0.0
 31
0.0
  0
LINE
  5
201
330
1F4
100
AcDbEntity
  8
Border
100
AcDbLine
 10
20.0
 20
287.0
 30
0.0
 11
20.0
 21
10.0
 31
0.0
  0
LINE
  5
202
330
1F4
100
AcDbEntity
  8
Border
100
AcDbLine
 10
410.0
 20
287.0
 30
0.0
 11
410.0
 21
10.0
 31
0.0
  0
LINE
  5
203
330
1F4
100
AcDbEntity
  8
Border
100
AcDbLine
 10
215.0
 20
5.0
 30
0.0
 11
215.0
 21
15.0
 31
0.0
  0
LINE
  5
204
330
1F4
100
AcDbEntity
  8
Border
100
AcDbLine
 10
215.0
 20
292.0
 30
0.0
 11
215.0
 21
282.0
 31
0.0
  0
LINE
  5
205
330
1F4
100
AcDbEntity
  8
Border
100
AcDbLine
 10
265.0
 20
292.0
 30
0.0
 11
265.0000000000001
 21
287.0
 31
0.0
  0
LINE
  5
206
330
1F4
100
AcDbEntity
  8
Border
100
AcDbLine
 10
315.0
 20
292.0
 30
0.0
 11
315.0000000000001
 21
287.0
 31
0.0
  0
LINE
  5
207
330
1F4
100
AcDbEntity
  8
Border
100
AcDbLine
 10
365.0
 20
292.0
 30
0.0
 11
365.0
 21
287.0
 31
0.0
  0
LINE
  5
208
330
1F4
100
AcDbEntity
  8
Border
100
AcDbLine
 10
165.0
 20
292.0
 30
0.0
 11
165.0000000000001
 21
287.0
 31
0.0
  0
LINE
  5
209
330
1F4
100
AcDbEntity
  8
Border
100
AcDbLine
 10
115.0
 20
292.0
 30
0.0
 11
115.0000000000001
 21
287.0
 31
0.0
  0
LINE
  5
20A
330
1F4
100
AcDbEntity
  8
Border
100
AcDbLine
 10
65.0
 20
292.0
 30
0.0
 11
65.0000000000001
 21
287.0
 31
0.0
  0
LINE
  5
20B
330
1F4
100
AcDbEntity
  8
Border
100
AcDbLine
 10
15.0
 20
148.5
 30
0.0
 11
25.0
 21
148.5
 31
0.0
  0
LINE
  5
20C
330
1F4
100
AcDbEntity
  8
Border
100
AcDbLine
 10
15.0
 20
100.66667
 30
0.0
 11
20.0
 21
100.66667
 31
0.0
  0
LINE
  5
20D
330
1F4
100
AcDbEntity
  8
Border
100
AcDbLine
 10
15.0
 20
52.83333999999999
 30
0.0
 11
20.0
 21
52.83333999999999
 31
0.0
  0
LINE
  5
20E
330
1F4
100
AcDbEntity
  8
Border
100
AcDbLine
 10
15.0
 20
196.33333
 30
0.0
 11
20.0
 21
196.33333
 31
0.0
  0
LINE
  5
20F
330
1F4
100
AcDbEntity
  8
Border
100
AcDbLine
 10
15.0
 20
244.16666
 30
0.0
 11
20.0
 21
244.1666599999999
 31
0.0
  0
LINE
  5
210
330
1F4
100
AcDbEntity
  8
Border
100
AcDbLine
 10
415.0
 20
148.5
 30
0.0
 11
405.0
 21
148.5
 31
0.0
  0
LINE
  5
211
330
1F4
100
AcDbEntity
  8
Border
100
AcDbLine
 10
265.0
 20
4.999999999999995
 30
0.0
 11
265.0000000000001
 21
9.999999999999996
 31
0.0
  0
LINE
  5
212
330
1F4
100
AcDbEntity
  8
Border
100
AcDbLine
 10
315.0
 20
4.999999999999995
 30
0.0
 11
315.0000000000001
 21
9.999999999999996
 31
0.0
  0
LINE
  5
213
330
1F4
100
AcDbEntity
  8
Border
100
AcDbLine
 10
365.0
 20
4.999999999999995
 30
0.0
 11
365.0
 21
9.999999999999996
 31
0.0
  0
LINE
  5
214
330
1F4
100
AcDbEntity
  8
Border
100
AcDbLine
 10
165.0
 20
4.999999999999995
 30
0.0
 11
165.0000000000001
 21
9.999999999999996
 31
0.0
  0
LINE
  5
215
330
1F4
100
AcDbEntity
  8
Border
100
AcDbLine
 10
115.0
 20
4.999999999999995
 30
0.0
 11
115.0000000000001
 21
9.999999999999996
 31
0.0
  0
LINE
  5
216
330
1F4
100
AcDbEntity
  8
Border
100
AcDbLine
 10
65.0
 20
4.999999999999995
 30
0.0
 11
65.0000000000001
 21
9.999999999999996
 31
0.0
  0
LINE
  5
217
330
1F4
100
AcDbEntity
  8
Border
100
AcDbLine
 10
415.0
 20
100.66667
 30
0.0
 11
410.0
 21
100.66667
 31
0.0
  0
LINE
  5
218
330
1F4
100
AcDbEntity
  8
Border
100
AcDbLine
 10
415.0
 20
52.83333999999999
 30
0.0
 11
410.0
 21
52.83333999999999
 31
0.0
  0
LINE
  5
219
330
1F4
100
AcDbEntity
  8
Border
100
AcDbLine
 10
415.0
 20
196.33333
 30
0.0
 11
410.0
 21
196.33333
 31
0.0
  0
LINE
  5
21A
330
1F4
100
AcDbEntity
  8
Border
100
AcDbLine
 10
415.0
 20
244.16666
 30
0.0
 11
410.0
 21
244.1666599999999
 31
0.0
  0
TEXT
  5
21B
330
1F4
100
AcDbEntity
  8
Border
100
AcDbText
 10
39.02881991814462
 20
288.2448840381992
 30
0.0
 40
2.5
  1
1
  7
FusionTitle
 72
     4
 11
40.0
 21
289.5
 31
0.0
100
AcDbText
  0
TEXT
  5
21C
330
1F4
100
AcDbEntity
  8
Border
100
AcDbText
 10
16.33526603001364
 20
266.83333
 30
0.0
 40
2.5
  1
A
  7
FusionTitle
 72
     4
 11
17.5
 21
268.0833299999999
 31
0.0
100
AcDbText
  0
TEXT
  5
21D
330
1F4
100
AcDbEntity
  8
Border
100
AcDbText
 10
89.0288199181446
 20
288.2448840381992
 30
0.0
 40
2.5
  1
2
  7
FusionTitle
 72
     4
 11
90.0
 21
289.5
 31
0.0
100
AcDbText
  0
TEXT
  5
21E
330
1F4
100
AcDbEntity
  8
Border
100
AcDbText
 10
139.0288199181446
 20
288.2670532060028
 30
0.0
 40
2.5
  1
3
  7
FusionTitle
 72
     4
 11
140.0
 21
289.5
 31
0.0
100
AcDbText
  0
TEXT
  5
21F
330
1F4
100
AcDbEntity
  8
Border
100
AcDbText
 10
189.0288199181444
 20
288.25
 30
0.0
 40
2.5
  1
4
  7
FusionTitle
 72
     4
 11
189.9999999999998
 21
289.5
 31
0.0
100
AcDbText
  0
TEXT
  5
220
330
1F4
100
AcDbEntity
  8
Border
100
AcDbText
 10
239.0288199181446
 20
288.2883697135061
 30
0.0
 40
2.5
  1
5
  7
FusionTitle
 72
     4
 11
240.0
 21
289.5
 31
0.0
100
AcDbText
  0
TEXT
  5
221
330
1F4
100
AcDbEntity
  8
Border
100
AcDbText
 10
289.0288199181446
 20
288.2662005457026
 30
0.0
 40
2.5
  1
6
  7
FusionTitle
 72
     4
 11
290.0
 21
289.5
 31
0.0
100
AcDbText
  0
TEXT
  5
222
330
1F4
100
AcDbEntity
  8
Border
100
AcDbText
 10
339.0288199181445
 20
288.2662005457026
 30
0.0
 40
2.5
  1
7
  7
FusionTitle
 72
     4
 11
339.9999999999999
 21
289.5
 31
0.0
100
AcDbText
  0
TEXT
  5
223
330
1F4
100
AcDbEntity
  8
Border
100
AcDbText
 10
389.0288199181444
 20
288.2662005457026
 30
0.0
 40
2.5
  1
8
  7
FusionTitle
 72
     4
 11
389.9999999999998
 21
289.5
 31
0.0
100
AcDbText
  0
TEXT
  5
224
330
1F4
100
AcDbEntity
  8
Border
100
AcDbText
 10
39.02881991814462
 20
6.244884038199177
 30
0.0
 40
2.5
  1
1
  7
FusionTitle
 72
     4
 11
40.0
 21
7.499999999999996
 31
0.0
100
AcDbText
  0
TEXT
  5
225
330
1F4
100
AcDbEntity
  8
Border
100
AcDbText
 10
89.0288199181446
 20
6.244884038199177
 30
0.0
 40
2.5
  1
2
  7
FusionTitle
 72
     4
 11
90.0
 21
7.499999999999996
 31
0.0
100
AcDbText
  0
TEXT
  5
226
330
1F4
100
AcDbEntity
  8
Border
100
AcDbText
 10
139.0288199181446
 20
6.267053206002724
 30
0.0
 40
2.5
  1
3
  7
FusionTitle
 72
     4
 11
140.0
 21
7.499999999999996
 31
0.0
100
AcDbText
  0
TEXT
  5
227
330
1F4
100
AcDbEntity
  8
Border
100
AcDbText
 10
189.0288199181444
 20
6.249999999999996
 30
0.0
 40
2.5
  1
4
  7
FusionTitle
 72
     4
 11
189.9999999999998
 21
7.499999999999996
 31
0.0
100
AcDbText
  0
TEXT
  5
228
330
1F4
100
AcDbEntity
  8
Border
100
AcDbText
 10
239.0288199181446
 20
6.288369713506135
 30
0.0
 40
2.5
  1
5
  7
FusionTitle
 72
     4
 11
240.0
 21
7.499999999999996
 31
0.0
100
AcDbText
  0
TEXT
  5
229
330
1F4
100
AcDbEntity
  8
Border
100
AcDbText
 10
289.0288199181446
 20
6.266200545702588
 30
0.0
 40
2.5
  1
6
  7
FusionTitle
 72
     4
 11
290.0
 21
7.499999999999996
 31
0.0
100
AcDbText
  0
TEXT
  5
22A
330
1F4
100
AcDbEntity
  8
Border
100
AcDbText
 10
339.0288199181445
 20
6.266200545702588
 30
0.0
 40
2.5
  1
7
  7
FusionTitle
 72
     4
 11
339.9999999999999
 21
7.499999999999996
 31
0.0
100
AcDbText
  0
TEXT
  5
22B
330
1F4
100
AcDbEntity
  8
Border
100
AcDbText
 10
389.0288199181444
 20
6.266200545702588
 30
0.0
 40
2.5
  1
8
  7
FusionTitle
 72
     4
 11
389.9999999999998
 21
7.499999999999996
 31
0.0
100
AcDbText
  0
TEXT
  5
22C
330
1F4
100
AcDbEntity
  8
Border
100
AcDbText
 10
16.33526603001364
 20
219.0
 30
0.0
 40
2.5
  1
B
  7
FusionTitle
 72
     4
 11
17.5
 21
220.25
 31
0.0
100
AcDbText
  0
TEXT
  5
22D
330
1F4
100
AcDbEntity
  8
Border
100
AcDbText
 10
16.23891541609823
 20
171.16667
 30
0.0
 40
2.5
  1
C
  7
FusionTitle
 72
     4
 11
17.5
 21
172.41667
 31
0.0
100
AcDbText
  0
TEXT
  5
22E
330
1F4
100
AcDbEntity
  8
Border
100
AcDbText
 10
16.23891541609823
 20
123.33334
 30
0.0
 40
2.5
  1
D
  7
FusionTitle
 72
     4
 11
17.5
 21
124.58334
 31
0.0
100
AcDbText
  0
TEXT
  5
22F
330
1F4
100
AcDbEntity
  8
Border
100
AcDbText
 10
16.33526603001364
 20
75.50001000000003
 30
0.0
 40
2.5
  1
E
  7
FusionTitle
 72
     4
 11
17.5
 21
76.75001000000003
 31
0.0
100
AcDbText
  0
TEXT
  5
230
330
1F4
100
AcDbEntity
  8
Border
100
AcDbText
 10
16.43332196452933
 20
27.66668000000004
 30
0.0
 40
2.5
  1
F
  7
FusionTitle
 72
     4
 11
17.5
 21
28.91668000000004
 31
0.0
100
AcDbText
  0
TEXT
  5
231
330
1F4
100
AcDbEntity
  8
Border
100
AcDbText
 10
411.3352660300136
 20
266.83333
 30
0.0
 40
2.5
  1
A
  7
FusionTitle
 72
     4
 11
412.5
 21
268.0833299999999
 31
0.0
100
AcDbText
  0
TEXT
  5
232
330
1F4
100
AcDbEntity
  8
Border
100
AcDbText
 10
411.3352660300136
 20
219.0
 30
0.0
 40
2.5
  1
B
  7
FusionTitle
 72
     4
 11
412.5
 21
220.25
 31
0.0
100
AcDbText
  0
TEXT
  5
233
330
1F4
100
AcDbEntity
  8
Border
100
AcDbText
 10
411.2389154160982
 20
171.16667
 30
0.0
 40
2.5
  1
C
  7
FusionTitle
 72
     4
 11
412.5
 21
172.41667
 31
0.0
100
AcDbText
  0
TEXT
  5
234
330
1F4
100
AcDbEntity
  8
Border
100
AcDbText
 10
411.2389154160982
 20
123.33334
 30
0.0
 40
2.5
  1
D
  7
FusionTitle
 72
     4
 11
412.5
 21
124.58334
 31
0.0
100
AcDbText
  0
TEXT
  5
235
330
1F4
100
AcDbEntity
  8
Border
100
AcDbText
 10
411.3352660300136
 20
75.50001000000003
 30
0.0
 40
2.5
  1
E
  7
FusionTitle
 72
     4
 11
412.5
 21
76.75001000000003
 31
0.0
100
AcDbText
  0
TEXT
  5
236
330
1F4
100
AcDbEntity
  8
Border
100
AcDbText
 10
411.4333219645293
 20
27.66668000000004
 30
0.0
 40
2.5
  1
F
  7
FusionTitle
 72
     4
 11
412.5
 21
28.91668000000004
 31
0.0
100
AcDbText
  0
ENDBLK
  5
237
330
1F4
100
AcDbEntity
  8
0
100
AcDbBlockEnd
  0
BLOCK
  5
23E
330
23B
100
AcDbEntity
  8
0
100
AcDbBlockBegin
  2
ISO_TITLEBLOCK
 70
     2
 10
0.0
 20
0.0
 30
0.0
  3
ISO_TITLEBLOCK
  1

  0
LINE
  5
23F
330
23B
100
AcDbEntity
  8
TitleBlock
100
AcDbLine
 10
-180.0
 20
0.0
 30
0.0
 11
0.0
 21
0.0
 31
0.0
  0
LINE
  5
240
330
23B
100
AcDbEntity
  8
TitleBlock
100
AcDbLine
 10
-61.0
 20
10.0
 30
0.0
 11
0.0
 21
10.0
 31
0.0
  0
LINE
  5
241
330
23B
100
AcDbEntity
  8
TitleBlock
100
AcDbLine
 10
-122.0
 20
27.0
 30
0.0
 11
0.0
 21
27.0
 31
0.0
  0
LINE
  5
242
330
23B
100
AcDbEntity
  8
TitleBlock
100
AcDbLine
 10
-180.0
 20
37.0
 30
0.0
 11
0.0
 21
37.0
 31
0.0
  0
LINE
  5
243
330
23B
100
AcDbEntity
  8
TitleBlock
100
AcDbLine
 10
0.0
 20
0.0
 30
0.0
 11
0.0
 21
47.0
 31
0.0
  0
LINE
  5
244
330
23B
100
AcDbEntity
  8
TitleBlock
100
AcDbLine
 10
-15.0
 20
0.0
 30
0.0
 11
-15.0
 21
10.0
 31
0.0
  0
LINE
  5
245
330
23B
100
AcDbEntity
  8
TitleBlock
100
AcDbLine
 10
-51.0
 20
0.0
 30
0.0
 11
-50.99999999999994
 21
10.0
 31
0.0
  0
LINE
  5
246
330
23B
100
AcDbEntity
  8
TitleBlock
100
AcDbLine
 10
-61.0
 20
0.0
 30
0.0
 11
-61.0
 21
47.0
 31
0.0
  0
LINE
  5
247
330
23B
100
AcDbEntity
  8
TitleBlock
100
AcDbLine
 10
-122.0
 20
0.0
 30
0.0
 11
-122.0
 21
47.0
 31
0.0
  0
LINE
  5
248
330
23B
100
AcDbEntity
  8
TitleBlock
100
AcDbLine
 10
-156.0
 20
37.0
 30
0.0
 11
-156.0
 21
47.0
 31
0.0
  0
LINE
  5
249
330
23B
100
AcDbEntity
  8
TitleBlock
100
AcDbLine
 10
0.0
 20
47.0
 30
0.0
 11
-180.0
 21
47.0
 31
0.0
  0
LINE
  5
24A
330
23B
100
AcDbEntity
  8
TitleBlock
100
AcDbLine
 10
-180.0
 20
47.0
 30
0.0
 11
-180.0
 21
0.0
 31
0.0
  0
TEXT
  5
24B
330
23B
100
AcDbEntity
  8
TitleBlock
100
AcDbText
 10
-179.0
 20
44.2
 30
0.0
 40
1.8
  1
Dept.
  7
FusionTitle
 11
-179.0
 21
46.0
 31
0.0
100
AcDbText
 73
     3
  0
TEXT
  5
24C
330
23B
100
AcDbEntity
  8
TitleBlock
100
AcDbText
 10
-155.0
 20
44.2
 30
0.0
 40
1.8
  1
Technical reference
  7
FusionTitle
 11
-155.0
 21
46.0
 31
0.0
100
AcDbText
 73
     3
  0
TEXT
  5
24D
330
23B
100
AcDbEntity
  8
TitleBlock
100
AcDbText
 10
-121.0
 20
44.2
 30
0.0
 40
1.8
  1
Created by
  7
FusionTitle
 11
-121.0
 21
46.0
 31
0.0
100
AcDbText
 73
     3
  0
TEXT
  5
24E
330
23B
100
AcDbEntity
  8
TitleBlock
100
AcDbText
 10
-60.0
 20
44.2
 30
0.0
 40
1.8
  1
Approved by
  7
FusionTitle
 11
-60.0
 21
46.0
 31
0.0
100
AcDbText
 73
     3
  0
TEXT
  5
24F
330
23B
100
AcDbEntity
  8
TitleBlock
100
AcDbText
 10
-121.0
 20
34.2
 30
0.0
 40
1.8
  1
Document type
  7
FusionTitle
 11
-121.0
 21
36.0
 31
0.0
100
AcDbText
 73
     3
  0
TEXT
  5
250
330
23B
100
AcDbEntity
  8
TitleBlock
100
AcDbText
 10
-60.0
 20
34.2
 30
0.0
 40
1.8
  1
Document status
  7
FusionTitle
 11
-60.0
 21
36.0
 31
0.0
100
AcDbText
 73
     3
  0
TEXT
  5
251
330
23B
100
AcDbEntity
  8
TitleBlock
100
AcDbText
 10
-121.0
 20
24.2
 30
0.0
 40
1.8
  1
Title
  7
FusionTitle
 11
-121.0
 21
26.0
 31
0.0
100
AcDbText
 73
     3
  0
TEXT
  5
252
330
23B
100
AcDbEntity
  8
TitleBlock
100
AcDbText
 10
-60.0
 20
24.2
 30
0.0
 40
1.8
  1
DWG No.
  7
FusionTitle
 11
-60.0
 21
26.0
 31
0.0
100
AcDbText
 73
     3
  0
TEXT
  5
253
330
23B
100
AcDbEntity
  8
TitleBlock
100
AcDbText
 10
-60.0
 20
7.2
 30
0.0
 40
1.8
  1
Rev.
  7
FusionTitle
 11
-60.0
 21
9.0
 31
0.0
100
AcDbText
 73
     3
  0
TEXT
  5
254
330
23B
100
AcDbEntity
  8
TitleBlock
100
AcDbText
 10
-49.99999999999993
 20
7.2
 30
0.0
 40
1.8
  1
Date of issue
  7
FusionTitle
 11
-49.99999999999993
 21
9.0
 31
0.0
100
AcDbText
 73
     3
  0
TEXT
  5
255
330
23B
100
AcDbEntity
  8
TitleBlock
100
AcDbText
 10
-14.0
 20
7.2
 30
0.0
 40
1.8
  1
Sheet
  7
FusionTitle
 11
-14.0
 21
9.0
 31
0.0
100
AcDbText
 73
     3
  0
ATTDEF
  5
256
102
{ACAD_XDICTIONARY
360
257
102
}
330
23B
100
AcDbEntity
  8
TitleBlock
100
AcDbText
 10
-50.0
 20
1.5
 30
0.0
 40
3.5
  1

  7
FusionTitle
 11
-50.0
 21
5.0
 31
0.0
100
AcDbAttributeDefinition
280
     0
  3
Date of issue
  2
DATE_OF_ISSUE
 70
     0
 74
     3
280
     1
  0
ATTDEF
  5
258
102
{ACAD_XDICTIONARY
360
259
102
}
330
23B
100
AcDbEntity
  8
TitleBlock
100
AcDbText
 10
-56.0
 20
1.349999999999998
 30
0.0
 40
3.5
  1

  7
FusionTitle
 72
     1
 11
-56.0
 21
4.849999999999998
 31
0.0
100
AcDbAttributeDefinition
280
     0
  3
Revision
  2
REV
 70
     0
 74
     3
280
     1
  0
ATTDEF
  5
25A
102
{ACAD_XDICTIONARY
360
25B
102
}
330
23B
100
AcDbEntity
  8
TitleBlock
100
AcDbText
 10
-121.0
 20
1.5
 30
0.0
 40
5.0
  1

  7
FusionTitle
 11
-121.0
 21
6.5
 31
0.0
100
AcDbAttributeDefinition
280
     0
  3
3rd Title
  2
TITLE_3
 70
     0
 74
     3
280
     1
  0
ATTDEF
  5
25C
102
{ACAD_XDICTIONARY
360
25D
102
}
330
23B
100
AcDbEntity
  8
TitleBlock
100
AcDbText
 10
-60.0
 20
28.5
 30
0.0
 40
3.5
  1

  7
FusionTitle
 11
-60.0
 21
32.0
 31
0.0
100
AcDbAttributeDefinition
280
     0
  3
Document status
  2
DOCUMENT_STATUS
 70
     0
 74
     3
280
     1
  0
ATTDEF
  5
25E
102
{ACAD_XDICTIONARY
360
25F
102
}
330
23B
100
AcDbEntity
  8
TitleBlock
100
AcDbText
 10
-121.0
 20
28.5
 30
0.0
 40
3.5
  1

  7
FusionTitle
 11
-121.0
 21
32.0
 31
0.0
100
AcDbAttributeDefinition
280
     0
  3
Document type
  2
DOCUMENT_TYPE
 70
     0
 74
     3
280
     1
  0
ATTDEF
  5
260
102
{ACAD_XDICTIONARY
360
261
102
}
330
23B
100
AcDbEntity
  8
TitleBlock
100
AcDbText
 10
-0.9928376534788514
 20
38.5
 30
0.0
 40
3.5
  1

  7
FusionTitle
 72
     2
 11
-0.9928376534788512
 21
42.0
 31
0.0
100
AcDbAttributeDefinition
280
     0
  3
Approved date
  2
APPROVED_DATE
 70
     0
 74
     3
280
     1
  0
ATTDEF
  5
262
102
{ACAD_XDICTIONARY
360
263
102
}
330
23B
100
AcDbEntity
  8
TitleBlock
100
AcDbText
 10
-61.99999999999999
 20
38.5
 30
0.0
 40
3.5
  1

  7
FusionTitle
 72
     2
 11
-61.99999999999999
 21
42.0
 31
0.0
100
AcDbAttributeDefinition
280
     0
  3
Created date
  2
CREATED_DATE
 70
     0
 74
     3
280
     1
  0
ATTDEF
  5
264
102
{ACAD_XDICTIONARY
360
265
102
}
330
23B
100
AcDbEntity
  8
TitleBlock
100
AcDbText
 10
-7.5
 20
1.349999999999998
 30
0.0
 40
3.5
  1

  7
FusionTitle
 72
     1
 11
-7.5
 21
4.849999999999998
 31
0.0
100
AcDbAttributeDefinition
280
     0
  3
Sheet
  2
SHEET
 70
     0
 74
     3
280
     1
  0
ATTDEF
  5
266
102
{ACAD_XDICTIONARY
360
267
102
}
330
23B
100
AcDbEntity
  8
TitleBlock
100
AcDbText
 10
-121.0
 20
9.0
 30
0.0
 40
5.0
  1

  7
FusionTitle
 11
-121.0
 21
14.0
 31
0.0
100
AcDbAttributeDefinition
280
     0
  3
2nd Title
  2
TITLE_2
 70
     0
 74
     3
280
     1
  0
ATTDEF
  5
268
102
{ACAD_XDICTIONARY
360
269
102
}
330
23B
100
AcDbEntity
  8
TitleBlock
100
AcDbText
 10
-30.50000000000001
 20
14.75143246930423
 30
0.0
 40
5.0
  1

  7
FusionTitle
 72
     1
 11
-30.50000000000001
 21
19.75143246930423
 31
0.0
100
AcDbAttributeDefinition
280
     0
  3
Drawing number
  2
DRAWING_NUMBER
 70
     0
 74
     3
280
     1
  0
ATTDEF
  5
26A
102
{ACAD_XDICTIONARY
360
26B
102
}
330
23B
100
AcDbEntity
  8
TitleBlock
100
AcDbText
 10
-121.0
 20
16.5
 30
0.0
 40
5.0
  1

  7
FusionTitle
 11
-121.0
 21
21.5
 31
0.0
100
AcDbAttributeDefinition
280
     0
  3
1st Title
  2
TITLE_1
 70
     0
 74
     3
280
     1
  0
ATTDEF
  5
26C
102
{ACAD_XDICTIONARY
360
26D
102
}
330
23B
100
AcDbEntity
  8
TitleBlock
100
AcDbText
 10
-60.0
 20
38.5
 30
0.0
 40
3.5
  1

  7
FusionTitle
 11
-60.0
 21
42.0
 31
0.0
100
AcDbAttributeDefinition
280
     0
  3
Approved by
  2
APPROVED_BY
 70
     0
 74
     3
280
     1
  0
ATTDEF
  5
26E
102
{ACAD_XDICTIONARY
360
26F
102
}
330
23B
100
AcDbEntity
  8
TitleBlock
100
AcDbText
 10
-121.0
 20
38.5
 30
0.0
 40
3.5
  1

  7
FusionTitle
 11
-121.0
 21
42.0
 31
0.0
100
AcDbAttributeDefinition
280
     0
  3
Created by
  2
CREATED_BY
 70
     0
 74
     3
280
     1
  0
ATTDEF
  5
270
102
{ACAD_XDICTIONARY
360
271
102
}
330
23B
100
AcDbEntity
  8
TitleBlock
100
AcDbText
 10
-155.0
 20
38.5
 30
0.0
 40
3.5
  1

  7
FusionTitle
 11
-155.0
 21
42.0
 31
0.0
100
AcDbAttributeDefinition
280
     0
  3
Technical reference
  2
TECHNICAL_REFERENCE
 70
     0
 74
     3
280
     1
  0
ATTDEF
  5
272
102
{ACAD_XDICTIONARY
360
273
102
}
330
23B
100
AcDbEntity
  8
TitleBlock
100
AcDbText
 10
-179.0
 20
38.5
 30
0.0
 40
3.5
  1

  7
FusionTitle
 11
-179.0
 21
42.0
 31
0.0
100
AcDbAttributeDefinition
280
     0
  3
Department
  2
DEPT
 70
     0
 74
     3
280
     1
  0
ENDBLK
  5
274
330
23B
100
AcDbEntity
  8
0
100
AcDbBlockEnd
  0
BLOCK
  5
450
330
44F
100
AcDbEntity
  8
0
 48
0.3
100
AcDbBlockBegin
  2
_OPEN
 70
     0
 10
0.0
 20
0.0
 30
0.0
  3
_OPEN
  1

  0
LINE
  5
451
330
44F
100
AcDbEntity
  8
0
  6
ByBlock
 62
     0
 48
0.3
100
AcDbLine
 10
-1.0
 20
0.1666666666666666
 30
0.0
 11
0.0
 21
0.0
 31
0.0
  0
LINE
  5
452
330
44F
100
AcDbEntity
  8
0
  6
ByBlock
 62
     0
 48
0.3
100
AcDbLine
 10
0.0
 20
0.0
 30
0.0
 11
-1.0
 21
-0.1666666666666666
 31
0.0
  0
LINE
  5
453
330
44F
100
AcDbEntity
  8
0
  6
ByBlock
 62
     0
 48
0.3
100
AcDbLine
 10
0.0
 20
0.0
 30
0.0
 11
-1.0
 21
0.0
 31
0.0
  0
ENDBLK
  5
454
330
44F
100
AcDbEntity
  8
0
 48
0.3
100
AcDbBlockEnd
  0
BLOCK
  5
4BA
330
4B6
100
AcDbEntity
  8
0
100
AcDbBlockBegin
  2
A$C1A8649A0
 70
     0
 10
0.0
 20
0.0
 30
0.0
  3
A$C1A8649A0
  1

  0
INSERT
  5
4B7
330
4B6
100
AcDbEntity
  8
0
100
AcDbBlockReference
  2
CustomObjectsInViewport3_0
 10
-957.9130327791347
 20
-763.8112294466874
 30
0.0000000000009095
 41
5.0
 42
5.0
 43
5.0
  0
ENDBLK
  5
4BB
330
4B6
100
AcDbEntity
  8
0
100
AcDbBlockEnd
  0
ENDSEC
  0
SECTION
  2
ENTITIES
  0
MTEXT
  5
464
330
70
100
AcDbEntity
  8
7：文字
 62
     7
 48
2.0
100
AcDbMText
 10
255.7787985182417
 20
107.6136408281327
 30
0.0
 40
50.0
 41
849.3346084697718
 46
0.0
 71
     1
 72
     5
  1
{\fMS PGothic|b0|i0|c128|p50;LP-2077AW-252N}
 73
     1
 44
1.0
1001
ACAD
1000
ACAD_MTEXT_COLUMN_INFO_BEGIN
1070
    75
1070
     2
1070
    79
1070
     0
1070
    76
1070
     1
1070
    78
1070
     0
1070
    48
1040
849.3346084697718
1070
    49
1040
15.0
1070
    50
1070
     1
1040
0.0
1000
ACAD_MTEXT_COLUMN_INFO_END
  0
LINE
  5
6AF
330
70
100
AcDbEntity
  8
可視
100
AcDbLine
 10
684.9989361089666
 20
429.3863258643751
 30
-0.0000000000004547
 11
684.9989361089666
 21
456.8855516165138
 31
-0.0000000000004547
210
0.0
220
1.0
230
0.0
  0
LINE
  5
6B0
330
70
100
AcDbEntity
  8
可視
100
AcDbLine
 10
682.2276548168558
 20
460.3906247328027
 30
-0.0000000000004547
 11
465.7338775578563
 21
492.7411264940416
 31
-0.0000000000004547
210
0.0
220
1.0
230
0.0
  0
LINE
  5
6B1
330
70
100
AcDbEntity
  8
可視
100
AcDbLine
 10
427.9625962657457
 20
428.0411434857583
 30
-0.0000000000004547
 11
427.9625962657457
 21
495.2942979097278
 31
-0.0000000000004547
210
0.0
220
1.0
230
0.0
  0
LINE
  5
6B2
330
70
100
AcDbEntity
  8
可視
100
AcDbLine
 10
719.9989361089666
 20
472.5756223794547
 30
-0.0000000000004547
 11
719.9989361089666
 21
395.8298871550985
 31
-0.0000000000004547
210
0.0
220
1.0
230
0.0
  0
LINE
  5
6B3
330
70
100
AcDbEntity
  8
細線
100
AcDbLine
 10
684.9989361089666
 20
456.8855516165138
 30
-0.0000000000004547
 11
719.9989361089666
 21
472.5756223794547
 31
-0.0000000000004547
210
0.0
220
1.0
230
0.0
  0
LINE
  5
6B4
330
70
100
AcDbEntity
  8
細線
100
AcDbLine
 10
682.2276548168558
 20
460.3906247328027
 30
-0.0000000000004547
 11
717.2276548168558
 21
476.0806954957438
 31
-0.0000000000004547
210
0.0
220
1.0
230
0.0
  0
LINE
  5
6B5
330
70
100
AcDbEntity
  8
可視
100
AcDbLine
 10
468.5051588499669
 20
513.2471103724658
 30
-0.0000000000004547
 11
717.2276548168558
 21
476.0806954957438
 31
-0.0000000000004547
210
0.0
220
1.0
230
0.0
  0
LINE
  5
6B6
330
70
100
AcDbEntity
  8
細線
100
AcDbLine
 10
466.1976074570286
 20
512.2126633826284
 30
-0.0000000000004547
 11
468.5051588499669
 21
513.2471103724658
 31
-0.0000000000004547
210
0.0
220
1.0
230
0.0
  0
LINE
  5
6B7
330
70
100
AcDbEntity
  8
可視
100
AcDbLine
 10
465.7338775578563
 20
433.8245229761485
 30
-0.0000000000004547
 11
465.7338775578563
 21
510.5702582005048
 31
-0.0000000000004547
210
0.0
220
1.0
230
0.0
  0
LINE
  5
6B8
330
70
100
AcDbEntity
  8
可視
100
AcDbLine
 10
462.9625962657455
 20
510.9843686726688
 30
-0.0000000000004547
 11
462.9625962657455
 21
434.2386334483125
 31
-0.0000000000004547
210
0.0
220
1.0
230
0.0
  0
LINE
  5
6B9
330
70
100
AcDbEntity
  8
細線
100
AcDbLine
 10
427.9625962657457
 20
495.2942979097278
 30
-0.0000000000004547
 11
462.9625962657455
 21
510.9843686726688
 31
-0.0000000000004547
210
0.0
220
1.0
230
0.0
  0
LINE
  5
6BA
330
70
100
AcDbEntity
  8
可視
100
AcDbLine
 10
717.2276548168558
 20
479.1716581398688
 30
-0.0000000000004547
 11
468.5051588499669
 21
516.3380730165908
 31
-0.0000000000004547
210
0.0
220
1.0
230
0.0
  0
LINE
  5
6BB
330
70
100
AcDbEntity
  8
可視
100
AcDbLine
 10
722.7702174010783
 20
395.4157766829345
 30
-0.0000000000004547
 11
722.7702174010783
 21
472.1615119072906
 31
-0.0000000000004547
210
0.0
220
1.0
230
0.0
  0
LINE
  5
6BC
330
70
100
AcDbEntity
  8
可視
100
AcDbLine
 10
646.6519511414555
 20
435.1164868899531
 30
-0.0000000000004547
 11
634.6519511414562
 21
429.7370340569446
 31
-0.0000000000004547
210
0.0
220
1.0
230
0.0
  0
LINE
  5
6BD
330
70
100
AcDbEntity
  8
可視
100
AcDbLine
 10
634.6519511414562
 20
408.5832227126596
 30
-0.0000000000004547
 11
634.6519511414562
 21
429.7370340569446
 31
-0.0000000000004547
210
0.0
220
1.0
230
0.0
  0
LINE
  5
6BE
330
70
100
AcDbEntity
  8
可視
100
AcDbLine
 10
646.6519511414555
 20
406.7900717683235
 30
-0.0000000000004547
 11
646.6519511414555
 21
435.1164868899531
 31
-0.0000000000004547
210
0.0
220
1.0
230
0.0
  0
LINE
  5
6BF
330
70
100
AcDbEntity
  8
可視
100
AcDbLine
 10
707.2737294063672
 20
426.0578203113649
 30
-0.0000000000004547
 11
707.2737294063649
 21
397.7314051897352
 31
-0.0000000000004547
210
0.0
220
1.0
230
0.0
  0
LINE
  5
6C0
330
70
100
AcDbEntity
  8
可視
100
AcDbLine
 10
646.6519511414555
 20
435.1164868899531
 30
-0.0000000000004547
 11
707.2737294063672
 21
426.0578203113649
 31
-0.0000000000004547
210
0.0
220
1.0
230
0.0
  0
LINE
  5
6C1
330
70
100
AcDbEntity
  8
可視
100
AcDbLine
 10
630.3218241225335
 20
435.2137108011467
 30
-0.0000000000004547
 11
590.3218241225333
 21
417.2822013577853
 31
-0.0000000000004547
210
0.0
220
1.0
230
0.0
  0
LINE
  5
6C2
330
70
100
AcDbEntity
  8
可視
100
AcDbLine
 10
590.3218241225333
 20
417.2822013577856
 30
-0.0000000000004547
 11
590.3218241225333
 21
415.2074401398696
 31
-0.0000000000004547
210
0.0
220
1.0
230
0.0
  0
LINE
  5
6C3
330
70
100
AcDbEntity
  8
可視
100
AcDbLine
 10
630.3218241225335
 20
409.2302703254159
 30
-0.0000000000004547
 11
630.3218241225335
 21
435.2137108011467
 31
-0.0000000000004547
210
0.0
220
1.0
230
0.0
  0
LINE
  5
6C4
330
70
100
AcDbEntity
  8
可視
100
AcDbLine
 10
630.3218241225335
 20
435.2137108011467
 30
-0.0000000000004547
 11
642.7320781603777
 21
433.3592559055288
 31
-0.0000000000004547
210
0.0
220
1.0
230
0.0
  0
LINE
  5
6C5
330
70
100
AcDbEntity
  8
可視
100
AcDbLine
 10
495.0975054791779
 20
457.7631533364236
 30
-0.0000000000004547
 11
483.0975054791787
 21
452.3837005034152
 31
-0.0000000000004547
210
0.0
220
1.0
230
0.0
  0
LINE
  5
6C6
330
70
100
AcDbEntity
  8
可視
100
AcDbLine
 10
483.0975054791787
 20
431.2298891591301
 30
-0.0000000000004547
 11
483.0975054791787
 21
452.3837005034152
 31
-0.0000000000004547
210
0.0
220
1.0
230
0.0
  0
LINE
  5
6C7
330
70
100
AcDbEntity
  8
可視
100
AcDbLine
 10
495.0975054791779
 20
429.4367382147942
 30
-0.0000000000004547
 11
495.0975054791779
 21
457.7631533364238
 31
-0.0000000000004547
210
0.0
220
1.0
230
0.0
  0
LINE
  5
6C8
330
70
100
AcDbEntity
  8
可視
100
AcDbLine
 10
555.7192837440896
 20
448.7044867578354
 30
-0.0000000000004547
 11
555.7192837440896
 21
420.3780716362059
 31
-0.0000000000004547
210
0.0
220
1.0
230
0.0
  0
LINE
  5
6C9
330
70
100
AcDbEntity
  8
可視
100
AcDbLine
 10
495.0975054791779
 20
457.7631533364236
 30
-0.0000000000004547
 11
555.7192837440896
 21
448.7044867578354
 31
-0.0000000000004547
210
0.0
220
1.0
230
0.0
  0
LINE
  5
6CA
330
70
100
AcDbEntity
  8
可視
100
AcDbLine
 10
478.7673784602559
 20
457.8603772476172
 30
-0.0000000000004547
 11
465.7338775578563
 21
452.0176186348311
 31
-0.0000000000004547
210
0.0
220
1.0
230
0.0
  0
LINE
  5
6CB
330
70
100
AcDbEntity
  8
可視
100
AcDbLine
 10
478.7673784602559
 20
431.8769367718863
 30
-0.0000000000004547
 11
478.7673784602559
 21
457.8603772476172
 31
-0.0000000000004547
210
0.0
220
1.0
230
0.0
  0
LINE
  5
6CC
330
70
100
AcDbEntity
  8
可視
100
AcDbLine
 10
478.7673784602559
 20
457.8603772476172
 30
-0.0000000000004547
 11
491.1776324981001
 21
456.0059223519995
 31
-0.0000000000004547
210
0.0
220
1.0
230
0.0
  0
LINE
  5
6CD
330
70
100
AcDbEntity
  8
可視
100
AcDbLine
 10
344.8670974424641
 20
310.2743446525976
 30
-0.0000000000004547
 11
389.5327263087409
 21
303.5999934375202
 31
-0.0000000000004547
210
0.0
220
1.0
230
0.0
  0
LINE
  5
6CE
330
70
100
AcDbEntity
  8
可視
100
AcDbLine
 10
552.7212564736116
 20
279.2148545233569
 30
-0.0000000000004547
 11
580.0583151413177
 21
275.129898476243
 31
-0.0000000000004547
210
0.0
220
1.0
230
0.0
  0
LINE
  5
6CF
330
70
100
AcDbEntity
  8
可視
100
AcDbLine
 10
805.8657162243587
 20
300.5616500984895
 30
-0.0000000000004547
 11
761.7108593599897
 21
280.7675692776086
 31
-0.0000000000004547
210
0.0
220
1.0
230
0.0
  0
LINE
  5
6D0
330
70
100
AcDbEntity
  8
可視
100
AcDbLine
 10
443.8670974424649
 20
354.6548305249163
 30
-0.0000000000004547
 11
805.8657162243587
 21
300.5616500984895
 31
-0.0000000000004547
210
0.0
220
1.0
230
0.0
  0
LINE
  5
6D1
330
70
100
AcDbEntity
  8
可視
100
AcDbLine
 10
344.8670974424641
 20
310.2743446525976
 30
-0.0000000000004547
 11
443.8670974424649
 21
354.6548305249163
 31
-0.0000000000004547
210
0.0
220
1.0
230
0.0
  0
LINE
  5
6D2
330
70
100
AcDbEntity
  8
可視
100
AcDbLine
 10
443.8670974424649
 20
354.6548305249163
 30
-0.0000000000004547
 11
443.8670974424649
 21
358.5185338300767
 31
-0.0000000000004547
210
0.0
220
1.0
230
0.0
  0
LINE
  5
6D3
330
70
100
AcDbEntity
  8
可視
100
AcDbLine
 10
344.867097442463
 20
314.1380479577571
 30
-0.0000000000004547
 11
443.8670974424649
 21
358.5185338300767
 31
-0.0000000000004547
210
0.0
220
1.0
230
0.0
  0
LINE
  5
6D4
330
70
100
AcDbEntity
  8
可視
100
AcDbLine
 10
344.867097442463
 20
314.1380479577571
 30
-0.0000000000004547
 11
344.8670974424641
 21
310.2743446525976
 31
-0.0000000000004547
210
0.0
220
1.0
230
0.0
  0
LINE
  5
6D5
330
70
100
AcDbEntity
  8
可視
100
AcDbLine
 10
805.8657162243598
 20
304.4253534036499
 30
-0.0000000000004547
 11
805.8657162243587
 21
300.5616500984895
 31
-0.0000000000004547
210
0.0
220
1.0
230
0.0
  0
LINE
  5
6D6
330
70
100
AcDbEntity
  8
可視
100
AcDbLine
 10
443.8670974424649
 20
358.5185338300767
 30
-0.0000000000004547
 11
805.8657162243598
 21
304.4253534036499
 31
-0.0000000000004547
210
0.0
220
1.0
230
0.0
  0
LINE
  5
6D7
330
70
100
AcDbEntity
  8
可視
100
AcDbLine
 10
348.5811990575991
 20
392.4554366441319
 30
-0.0000000000004547
 11
348.5811990576014
 21
330.8095596469345
 31
-0.0000000000004547
210
0.0
220
1.0
230
0.0
  0
LINE
  5
6D8
330
70
100
AcDbEntity
  8
可視
100
AcDbLine
 10
349.1811990575997
 20
391.5652982942354
 30
-0.0000000000004547
 11
379.5624766485781
 21
387.025446910702
 31
-0.0000000000004547
210
0.0
220
1.0
230
0.0
  0
LINE
  5
6D9
330
70
100
AcDbEntity
  8
可視
100
AcDbLine
 10
349.1811990576008
 20
331.0785322885848
 30
-0.0000000000004547
 11
349.1811990575997
 21
391.5652982942354
 31
-0.0000000000004547
210
0.0
220
1.0
230
0.0
  0
LINE
  5
6DA
330
70
100
AcDbEntity
  8
可視
100
AcDbLine
 10
349.1811990575997
 20
391.5652982942354
 30
-0.0000000000004547
 11
446.4811990576008
 21
435.1836950152234
 31
-0.0000000000004547
210
0.0
220
1.0
230
0.0
  0
LINE
  5
6DB
330
70
100
AcDbEntity
  8
可視
100
AcDbLine
 10
446.4811990576008
 20
435.1836950152234
 30
-0.0000000000004547
 11
446.4811990575987
 21
359.8756578285848
 31
-0.0000000000004547
210
0.0
220
1.0
230
0.0
  0
LINE
  5
6DC
330
70
100
AcDbEntity
  8
可視
100
AcDbLine
 10
359.5811990577459
 20
335.7407247439243
 30
-0.0000000000004547
 11
359.5811990577459
 21
378.0680852154418
 31
-0.0000000000004547
210
0.0
220
1.0
230
0.0
  0
LINE
  5
6DD
330
70
100
AcDbEntity
  8
可視
100
AcDbLine
 10
359.5811990577459
 20
378.0680852154418
 30
-0.0000000000004547
 11
359.0811990577464
 21
377.8439413473998
 31
-0.0000000000004547
210
0.0
220
1.0
230
0.0
  0
LINE
  5
6DE
330
70
100
AcDbEntity
  8
可視
100
AcDbLine
 10
359.0811990577464
 20
377.8439413473998
 30
-0.0000000000004547
 11
359.0811990577464
 21
335.5165808758822
 31
-0.0000000000004547
210
0.0
220
1.0
230
0.0
  0
LINE
  5
6DF
330
70
100
AcDbEntity
  8
可視
100
AcDbLine
 10
359.5811990577459
 20
378.0680852154418
 30
-0.0000000000004547
 11
369.0811990577487
 21
376.6485073845089
 31
-0.0000000000004547
210
0.0
220
1.0
230
0.0
  0
LINE
  5
6E0
330
70
100
AcDbEntity
  8
可視
100
AcDbLine
 10
406.5811990580613
 20
356.8102483400141
 30
-0.0000000000004547
 11
406.5811990580613
 21
399.1376088115321
 31
-0.0000000000004547
210
0.0
220
1.0
230
0.0
  0
LINE
  5
6E1
330
70
100
AcDbEntity
  8
可視
100
AcDbLine
 10
406.5811990580613
 20
399.1376088115321
 30
-0.0000000000004547
 11
406.0811990580606
 21
398.9134649434902
 31
-0.0000000000004547
210
0.0
220
1.0
230
0.0
  0
LINE
  5
6E2
330
70
100
AcDbEntity
  8
可視
100
AcDbLine
 10
406.0811990580606
 20
398.9134649434902
 30
-0.0000000000004547
 11
406.0811990580629
 21
356.5861044719729
 31
-0.0000000000004547
210
0.0
220
1.0
230
0.0
  0
LINE
  5
6E3
330
70
100
AcDbEntity
  8
可視
100
AcDbLine
 10
416.0811990580606
 20
397.7180309805995
 30
-0.0000000000004547
 11
406.5811990580613
 21
399.1376088115321
 31
-0.0000000000004547
210
0.0
220
1.0
230
0.0
  0
LINE
  5
6E4
330
70
100
AcDbEntity
  8
可視
100
AcDbLine
 10
436.5811990580612
 20
370.2588804225354
 30
-0.0000000000004547
 11
436.5811990580612
 21
412.5862408940529
 31
-0.0000000000004547
210
0.0
220
1.0
230
0.0
  0
LINE
  5
6E5
330
70
100
AcDbEntity
  8
可視
100
AcDbLine
 10
436.5811990580612
 20
412.5862408940529
 30
-0.0000000000004547
 11
436.0811990580606
 21
412.3620970260108
 31
-0.0000000000004547
210
0.0
220
1.0
230
0.0
  0
LINE
  5
6E6
330
70
100
AcDbEntity
  8
可視
100
AcDbLine
 10
436.0811990580606
 20
412.3620970260108
 30
-0.0000000000004547
 11
436.0811990580629
 21
370.0347365544938
 31
-0.0000000000004547
210
0.0
220
1.0
230
0.0
  0
LINE
  5
6E7
330
70
100
AcDbEntity
  8
可視
100
AcDbLine
 10
436.5811990580612
 20
412.5862408940529
 30
-0.0000000000004547
 11
446.4811990576008
 21
411.1068913650447
 31
-0.0000000000004547
210
0.0
220
1.0
230
0.0
  0
LINE
  5
6E8
330
70
100
AcDbEntity
  8
可視
100
AcDbLine
 10
389.5811990577482
 20
349.1893568264452
 30
-0.0000000000004547
 11
389.581199057746
 21
391.5167172979625
 31
-0.0000000000004547
210
0.0
220
1.0
230
0.0
  0
LINE
  5
6E9
330
70
100
AcDbEntity
  8
可視
100
AcDbLine
 10
389.581199057746
 20
391.5167172979625
 30
-0.0000000000004547
 11
389.0811990577463
 21
391.2925734299207
 31
-0.0000000000004547
210
0.0
220
1.0
230
0.0
  0
LINE
  5
6EA
330
70
100
AcDbEntity
  8
可視
100
AcDbLine
 10
389.0811990577463
 20
391.2925734299207
 30
-0.0000000000004547
 11
389.0811990577487
 21
348.9652129584033
 31
-0.0000000000004547
210
0.0
220
1.0
230
0.0
  0
LINE
  5
6EB
330
70
100
AcDbEntity
  8
可視
100
AcDbLine
 10
406.0811990580606
 20
389.0511347494535
 30
-0.0000000000004547
 11
389.581199057746
 21
391.5167172979625
 31
-0.0000000000004547
210
0.0
220
1.0
230
0.0
  0
LINE
  5
6EC
330
70
100
AcDbEntity
  8
可視
100
AcDbLine
 10
369.5811990577482
 20
340.2236021047648
 30
-0.0000000000004547
 11
369.581199057746
 21
382.5509625762819
 31
-0.0000000000004547
210
0.0
220
1.0
230
0.0
  0
LINE
  5
6ED
330
70
100
AcDbEntity
  8
可視
100
AcDbLine
 10
369.581199057746
 20
382.5509625762819
 30
-0.0000000000004547
 11
369.0811990577464
 21
382.3268187082399
 31
-0.0000000000004547
210
0.0
220
1.0
230
0.0
  0
LINE
  5
6EE
330
70
100
AcDbEntity
  8
可視
100
AcDbLine
 10
369.0811990577464
 20
382.3268187082399
 30
-0.0000000000004547
 11
369.0811990577487
 21
339.9994582367228
 31
-0.0000000000004547
210
0.0
220
1.0
230
0.0
  0
LINE
  5
6EF
330
70
100
AcDbEntity
  8
可視
100
AcDbLine
 10
379.0811990577487
 20
381.1313847453492
 30
-0.0000000000004547
 11
369.581199057746
 21
382.5509625762819
 31
-0.0000000000004547
210
0.0
220
1.0
230
0.0
  0
LINE
  5
6F0
330
70
100
AcDbEntity
  8
可視
100
AcDbLine
 10
416.5811990580611
 20
361.2931257008548
 30
-0.0000000000004547
 11
416.5811990580611
 21
403.6204861723723
 31
-0.0000000000004547
210
0.0
220
1.0
230
0.0
  0
LINE
  5
6F1
330
70
100
AcDbEntity
  8
可視
100
AcDbLine
 10
416.5811990580611
 20
403.6204861723723
 30
-0.0000000000004547
 11
416.0811990580606
 21
403.3963423043302
 31
-0.0000000000004547
210
0.0
220
1.0
230
0.0
  0
LINE
  5
6F2
330
70
100
AcDbEntity
  8
可視
100
AcDbLine
 10
416.0811990580606
 20
403.3963423043302
 30
-0.0000000000004547
 11
416.0811990580628
 21
361.0689818328133
 31
-0.0000000000004547
210
0.0
220
1.0
230
0.0
  0
LINE
  5
6F3
330
70
100
AcDbEntity
  8
可視
100
AcDbLine
 10
426.0811990580606
 20
402.2009083414396
 30
-0.0000000000004547
 11
416.5811990580611
 21
403.6204861723723
 31
-0.0000000000004547
210
0.0
220
1.0
230
0.0
  0
LINE
  5
6F4
330
70
100
AcDbEntity
  8
可視
100
AcDbLine
 10
426.5811990580613
 20
365.7760030616949
 30
-0.0000000000004547
 11
426.5811990580613
 21
408.1033635332126
 31
-0.0000000000004547
210
0.0
220
1.0
230
0.0
  0
LINE
  5
6F5
330
70
100
AcDbEntity
  8
可視
100
AcDbLine
 10
426.5811990580613
 20
408.1033635332126
 30
-0.0000000000004547
 11
426.0811990580606
 21
407.8792196651707
 31
-0.0000000000004547
210
0.0
220
1.0
230
0.0
  0
LINE
  5
6F6
330
70
100
AcDbEntity
  8
可視
100
AcDbLine
 10
426.0811990580606
 20
407.8792196651707
 30
-0.0000000000004547
 11
426.0811990580629
 21
365.5518591936535
 31
-0.0000000000004547
210
0.0
220
1.0
230
0.0
  0
LINE
  5
6F7
330
70
100
AcDbEntity
  8
可視
100
AcDbLine
 10
436.0811990580606
 20
406.6837857022798
 30
-0.0000000000004547
 11
426.5811990580613
 21
408.1033635332126
 31
-0.0000000000004547
210
0.0
220
1.0
230
0.0
  0
LINE
  5
6F8
330
70
100
AcDbEntity
  8
可視
100
AcDbLine
 10
379.5811990577482
 20
344.7064794656053
 30
-0.0000000000004547
 11
379.581199057746
 21
387.0338399371222
 31
-0.0000000000004547
210
0.0
220
1.0
230
0.0
  0
LINE
  5
6F9
330
70
100
AcDbEntity
  8
可視
100
AcDbLine
 10
379.581199057746
 20
387.0338399371222
 30
-0.0000000000004547
 11
379.0811990577463
 21
386.8096960690802
 31
-0.0000000000004547
210
0.0
220
1.0
230
0.0
  0
LINE
  5
6FA
330
70
100
AcDbEntity
  8
可視
100
AcDbLine
 10
379.0811990577463
 20
386.8096960690802
 30
-0.0000000000004547
 11
379.0811990577487
 21
344.4823355975631
 31
-0.0000000000004547
210
0.0
220
1.0
230
0.0
  0
LINE
  5
6FB
330
70
100
AcDbEntity
  8
可視
100
AcDbLine
 10
389.0811990577463
 20
385.6142621061895
 30
-0.0000000000004547
 11
379.581199057746
 21
387.0338399371222
 31
-0.0000000000004547
210
0.0
220
1.0
230
0.0
  0
LINE
  5
6FC
330
70
100
AcDbEntity
  8
可視
100
AcDbLine
 10
447.8311990576009
 20
359.6739283473469
 30
-0.0000000000004547
 11
447.8311990576009
 21
372.7139270022493
 31
-0.0000000000004547
210
0.0
220
1.0
230
0.0
  0
LINE
  5
6FD
330
70
100
AcDbEntity
  8
可視
100
AcDbLine
 10
447.8311990576009
 20
372.7139270022493
 30
-0.0000000000004547
 11
447.0811990576004
 21
372.3777112001862
 31
-0.0000000000004547
210
0.0
220
1.0
230
0.0
  0
LINE
  5
6FE
330
70
100
AcDbEntity
  8
可視
100
AcDbLine
 10
447.0811990576004
 20
372.3777112001862
 30
-0.0000000000004547
 11
447.0811990576004
 21
436.6117786484092
 31
-0.0000000000004547
210
0.0
220
1.0
230
0.0
  0
LINE
  5
6FF
330
70
100
AcDbEntity
  8
可視
100
AcDbLine
 10
447.0811990576004
 20
436.6117786484092
 30
-0.0000000000004547
 11
348.5811990575991
 21
392.4554366441319
 31
-0.0000000000004547
210
0.0
220
1.0
230
0.0
  0
LINE
  5
700
330
70
100
AcDbEntity
  8
可視
100
AcDbLine
 10
447.8311990576009
 20
372.7139270022493
 30
-0.0000000000004547
 11
802.9016146092221
 21
319.6560227562325
 31
-0.0000000000004547
210
0.0
220
1.0
230
0.0
  0
LINE
  5
701
330
70
100
AcDbEntity
  8
可視
100
AcDbLine
 10
346.0010720386782
 20
316.6129216919105
 30
-0.0000000000004547
 11
346.0010720386782
 21
329.6529203468129
 31
-0.0000000000004547
210
0.0
220
1.0
230
0.0
  0
LINE
  5
702
330
70
100
AcDbEntity
  8
可視
100
AcDbLine
 10
346.0010720386782
 20
329.6529203468129
 30
-0.0000000000004547
 11
441.0010720386781
 21
372.2402552747955
 31
-0.0000000000004547
210
0.0
220
1.0
230
0.0
  0
LINE
  5
703
330
70
100
AcDbEntity
  8
可視
100
AcDbLine
 10
442.3001101443555
 20
372.0461409909686
 30
-0.0000000000004547
 11
441.0010720386781
 21
372.2402552747955
 31
-0.0000000000004547
210
0.0
220
1.0
230
0.0
  0
LINE
  5
704
330
70
100
AcDbEntity
  8
可視
100
AcDbLine
 10
442.3001101443555
 20
359.7825994713736
 30
-0.0000000000004547
 11
442.3001101443555
 21
372.0461409909685
 31
-0.0000000000004547
210
0.0
220
1.0
230
0.0
  0
LINE
  5
705
330
70
100
AcDbEntity
  8
可視
100
AcDbLine
 10
441.0010720386781
 20
372.2402552747955
 30
-0.0000000000004547
 11
441.0010720386781
 21
359.200256619893
 31
-0.0000000000004547
210
0.0
220
1.0
230
0.0
  0
LINE
  5
706
330
70
100
AcDbEntity
  8
可視
100
AcDbLine
 10
344.867097442463
 20
313.8391894670341
 30
-0.0000000000004547
 11
343.5010720386781
 21
314.0433136122668
 31
-0.0000000000004547
210
0.0
220
1.0
230
0.0
  0
LINE
  5
707
330
70
100
AcDbEntity
  8
可視
100
AcDbLine
 10
343.5010720386781
 20
314.0433136122668
 30
-0.0000000000004547
 11
343.5010720386781
 21
315.4922023517006
 31
-0.0000000000004547
210
0.0
220
1.0
230
0.0
  0
LINE
  5
708
330
70
100
AcDbEntity
  8
可視
100
AcDbLine
 10
443.5010720386782
 20
358.8720872206695
 30
-0.0000000000004547
 11
807.2317416281446
 21
304.5200877491402
 31
-0.0000000000004547
210
0.0
220
1.0
230
0.0
  0
LINE
  5
709
330
70
100
AcDbEntity
  8
可視
100
AcDbLine
 10
343.5010720386781
 20
314.0433136122668
 30
-0.0000000000004547
 11
443.5010720386782
 21
358.8720872206695
 31
-0.0000000000004547
210
0.0
220
1.0
230
0.0
  0
LINE
  5
70A
330
70
100
AcDbEntity
  8
可視
100
AcDbLine
 10
805.8657162243598
 20
303.9077153134448
 30
-0.0000000000004547
 11
807.2317416281446
 21
304.5200877491402
 31
-0.0000000000004547
210
0.0
220
1.0
230
0.0
  0
LINE
  5
70B
330
70
100
AcDbEntity
  8
可視
100
AcDbLine
 10
443.5010720386782
 20
360.3209759601032
 30
-0.0000000000004547
 11
443.5010720386782
 21
358.8720872206695
 31
-0.0000000000004547
210
0.0
220
1.0
230
0.0
  0
LINE
  5
70C
330
70
100
AcDbEntity
  8
可視
100
AcDbLine
 10
443.5010720386782
 20
360.3209759601032
 30
-0.0000000000004547
 11
441.0010720386781
 21
359.200256619893
 31
-0.0000000000004547
210
0.0
220
1.0
230
0.0
  0
LINE
  5
70D
330
70
100
AcDbEntity
  8
可視
100
AcDbLine
 10
346.0010720386782
 20
316.6129216919105
 30
-0.0000000000004547
 11
343.5010720386781
 21
315.4922023517006
 31
-0.0000000000004547
210
0.0
220
1.0
230
0.0
  0
LINE
  5
70E
330
70
100
AcDbEntity
  8
可視
100
AcDbLine
 10
807.2317416281446
 20
304.5200877491402
 30
-0.0000000000004547
 11
807.2317416281446
 21
305.9689764885738
 31
-0.0000000000004547
210
0.0
220
1.0
230
0.0
  0
LINE
  5
70F
330
70
100
AcDbEntity
  8
可視
100
AcDbLine
 10
807.2317416281446
 20
305.9689764885738
 30
-0.0000000000004547
 11
802.9016146092221
 21
306.61602410133
 31
-0.0000000000004547
210
0.0
220
1.0
230
0.0
  0
LINE
  5
710
330
70
100
AcDbEntity
  8
可視
100
AcDbLine
 10
802.9016146092221
 20
319.6560227562325
 30
-0.0000000000004547
 11
802.9016146092221
 21
306.61602410133
 31
-0.0000000000004547
210
0.0
220
1.0
230
0.0
  0
LINE
  5
711
330
70
100
AcDbEntity
  8
可視
100
AcDbLine
 10
447.8311990576009
 20
359.6739283473469
 30
-0.0000000000004547
 11
443.5010720386782
 21
360.3209759601032
 31
-0.0000000000004547
210
0.0
220
1.0
230
0.0
  0
LINE
  5
712
330
70
100
AcDbEntity
  8
可視
100
AcDbLine
 10
802.1516146092228
 20
383.5538744023925
 30
-0.0000000000004547
 11
447.0811990576004
 21
436.6117786484092
 31
-0.0000000000004547
210
0.0
220
1.0
230
0.0
  0
LINE
  5
713
330
70
100
AcDbEntity
  8
可視
100
AcDbLine
 10
802.1516146092228
 20
383.5538744023925
 30
-0.0000000000004547
 11
802.1516146092228
 21
319.7680946902528
 31
-0.0000000000004547
210
0.0
220
1.0
230
0.0
  0
LINE
  5
714
330
70
100
AcDbEntity
  8
可視
100
AcDbLine
 10
803.4327035224674
 20
318.0823700870929
 30
-0.0000000000004547
 11
803.4327035224674
 21
306.5366638858042
 31
-0.0000000000004547
210
0.0
220
1.0
230
0.0
  0
LINE
  5
715
330
70
100
AcDbEntity
  8
可視
100
AcDbLine
 10
802.9016146092221
 20
317.8442894405145
 30
-0.0000000000004547
 11
803.4327035224674
 21
318.0823700870929
 31
-0.0000000000004547
210
0.0
220
1.0
230
0.0
  0
LINE
  5
716
330
70
100
AcDbEntity
  8
可視
100
AcDbLine
 10
804.7317416281448
 20
317.888255803266
 30
-0.0000000000004547
 11
803.4327035224674
 21
318.0823700870929
 31
-0.0000000000004547
210
0.0
220
1.0
230
0.0
  0
LINE
  5
717
330
70
100
AcDbEntity
  8
可視
100
AcDbLine
 10
804.7317416281448
 20
306.3425496019771
 30
-0.0000000000004547
 11
804.7317416281448
 21
317.888255803266
 31
-0.0000000000004547
210
0.0
220
1.0
230
0.0
  0
LINE
  5
718
330
70
100
AcDbEntity
  8
可視
100
AcDbLine
 10
430.887143322464
 20
500.306110757918
 30
-0.0000000000004547
 11
465.8871433224641
 21
515.9961815208592
 31
-0.0000000000004547
210
0.0
220
1.0
230
0.0
  0
LINE
  5
719
330
70
100
AcDbEntity
  8
可視
100
AcDbLine
 10
390.3859237398087
 20
294.1827853153833
 30
-0.0000000000004547
 11
388.2885784173362
 21
317.332336270998
 31
-0.0000000000004547
210
0.0
220
1.0
230
0.0
  0
LINE
  5
71A
330
70
100
AcDbEntity
  8
可視
100
AcDbLine
 10
569.8213010944374
 20
294.1827853153834
 30
-0.0000000000004547
 11
571.9186464169097
 21
317.332336270998
 31
-0.0000000000004547
210
0.0
220
1.0
230
0.0
  0
SPLINE
  5
71B
330
70
100
AcDbEntity
  8
可視
100
AcDbSpline
210
0.0
220
0.0
230
1.0
 70
     8
 71
     3
 72
    26
 73
    22
 74
     0
 42
0.000000001
 43
0.0000000001
 40
3.165037318004406
 40
3.165037318004406
 40
3.165037318004406
 40
3.165037318004406
 40
3.376233028364623
 40
3.376233028364623
 40
3.701077285783473
 40
3.701077285783473
 40
4.042658040837463
 40
4.042658040837463
 40
4.370433132749951
 40
4.370433132749951
 40
4.694457960786713
 40
4.694457960786713
 40
5.017592417370177
 40
5.017592417370177
 40
5.341421082412597
 40
5.341421082412597
 40
5.668447998336588
 40
5.668447998336588
 40
6.006499624212277
 40
6.006499624212277
 40
6.25974064276497
 40
6.25974064276497
 40
6.25974064276497
 40
6.25974064276497
 10
390.3859237398087
 20
294.1827853153968
 30
-0.0000000000004547
 10
390.6135196233419
 20
291.670684686655
 30
-0.0000000000004547
 10
391.8601140347897
 20
289.3844501885178
 30
-0.0000000000004547
 10
396.3786138454515
 20
284.4921447080787
 30
-0.0000000000004547
 10
400.4305969009355
 20
282.1008972949229
 30
-0.0000000000004547
 10
411.1641522555823
 20
277.664762889746
 30
-0.0000000000004547
 10
417.9981749018526
 20
275.7012270390418
 30
-0.0000000000004547
 10
433.3953875664616
 20
272.5457662233127
 30
-0.0000000000004547
 10
441.8697872022625
 20
271.332730178425
 30
-0.0000000000004547
 10
459.7441607376885
 20
269.6860751680676
 30
-0.0000000000004547
 10
469.1281006003309
 20
269.2446407278721
 30
-0.0000000000004547
 10
487.9276317512784
 20
269.1573848318431
 30
-0.0000000000004547
 10
497.3392258222047
 20
269.5094011040815
 30
-0.0000000000004547
 10
515.2936095070169
 20
270.9734037510335
 30
-0.0000000000004547
 10
523.8304255540429
 20
272.0862225460477
 30
-0.0000000000004547
 10
539.2472450829558
 20
274.989600704826
 30
-0.0000000000004547
 10
546.1041079543071
 20
276.7820870020599
 30
-0.0000000000004547
 10
557.6324500874095
 20
281.0084054884351
 30
-0.0000000000004547
 10
562.2289647250346
 20
283.4134929674608
 30
-0.0000000000004547
 10
567.8389970250742
 20
288.5266615311751
 30
-0.0000000000004547
 10
569.5483949200371
 20
291.1705701485054
 30
-0.0000000000004547
 10
569.8213010944384
 20
294.1827853153968
 30
-0.0000000000004547
  0
LINE
  5
71C
330
70
100
AcDbEntity
  8
可視
100
AcDbLine
 10
580.9115125723866
 20
265.712690354106
 30
-0.0000000000004547
 11
578.8141672499143
 21
288.8622413097207
 31
-0.0000000000004547
210
0.0
220
1.0
230
0.0
  0
LINE
  5
71D
330
70
100
AcDbEntity
  8
可視
100
AcDbLine
 10
760.3468899270143
 20
265.712690354106
 30
-0.0000000000004547
 11
762.4442352494867
 21
288.8622413097207
 31
-0.0000000000004547
210
0.0
220
1.0
230
0.0
  0
SPLINE
  5
71E
330
70
100
AcDbEntity
  8
可視
100
AcDbSpline
210
0.0
220
0.0
230
1.0
 70
     8
 71
     3
 72
    26
 73
    22
 74
     0
 42
0.000000001
 43
0.0000000001
 40
3.165037318004406
 40
3.165037318004406
 40
3.165037318004406
 40
3.165037318004406
 40
3.376233028364623
 40
3.376233028364623
 40
3.701077285783473
 40
3.701077285783473
 40
4.042658040837463
 40
4.042658040837463
 40
4.370433132749951
 40
4.370433132749951
 40
4.694457960786713
 40
4.694457960786713
 40
5.017592417370177
 40
5.017592417370177
 40
5.341421082412597
 40
5.341421082412597
 40
5.668447998336588
 40
5.668447998336588
 40
6.006499624212277
 40
6.006499624212277
 40
6.25974064276497
 40
6.25974064276497
 40
6.25974064276497
 40
6.25974064276497
 10
580.9115125723844
 20
265.7126903541195
 30
-0.0000000000004547
 10
581.1391084559187
 20
263.2005897253778
 30
-0.0000000000004547
 10
582.3857028673666
 20
260.9143552272406
 30
-0.0000000000004547
 10
586.9042026780284
 20
256.0220497468015
 30
-0.0000000000004547
 10
590.9561857335126
 20
253.6308023336458
 30
-0.0000000000004547
 10
601.6897410881603
 20
249.1946679284688
 30
-0.0000000000004547
 10
608.5237637344294
 20
247.2311320777645
 30
-0.0000000000004547
 10
623.9209763990372
 20
244.0756712620355
 30
-0.0000000000004547
 10
632.3953760348405
 20
242.8626352171477
 30
-0.0000000000004547
 10
650.2697495702654
 20
241.2159802067904
 30
-0.0000000000004547
 10
659.6536894329078
 20
240.7745457665949
 30
-0.0000000000004547
 10
678.4532205838542
 20
240.6872898705659
 30
-0.0000000000004547
 10
687.8648146547829
 20
241.0393061428042
 30
-0.0000000000004547
 10
705.8191983395938
 20
242.5033087897563
 30
-0.0000000000004547
 10
714.3560143866197
 20
243.6161275847704
 30
-0.0000000000004547
 10
729.7728339155314
 20
246.5195057435487
 30
-0.0000000000004547
 10
736.629696786884
 20
248.3119920407827
 30
-0.0000000000004547
 10
748.1580389199865
 20
252.5383105271578
 30
-0.0000000000004547
 10
752.7545535576125
 20
254.9433980061835
 30
-0.0000000000004547
 10
758.36458585765
 20
260.0565665698979
 30
-0.0000000000004547
 10
760.0739837526129
 20
262.7004751872281
 30
-0.0000000000004547
 10
760.3468899270143
 20
265.7126903541195
 30
-0.0000000000004547
  0
ELLIPSE
  5
71F
330
70
100
AcDbEntity
  8
可視
100
AcDbEllipse
 10
682.2276548168582
 20
457.2996620886779
 30
-0.0000000000004547
 11
-1.309007763751189
 21
2.920016896259236
 31
-0.0000000000000003
210
-0.0000000000000002
220
0.0
230
1.0
 40
0.8365163037378092
 41
4.220436769042812
 42
5.791233095837973
  0
ELLIPSE
  5
720
330
70
100
AcDbEntity
  8
可視
100
AcDbEllipse
 10
433.5051588499669
 20
494.4660769654006
 30
-0.0000000000004547
 11
-2.618015527502187
 21
5.840033792518432
 31
-0.0000000000000006
210
0.0000000000000002
220
0.0
230
-1.0
 40
0.8365163037378048
 41
-1.078844115452739
 42
-0.0000000000000998
  0
ELLIPSE
  5
721
330
70
100
AcDbEntity
  8
可視
100
AcDbEllipse
 10
717.2276548168547
 20
472.9897328516194
 30
-0.0000000000004547
 11
-1.309007763751146
 21
2.920016896259213
 31
-0.0000000000000003
210
0.0000000000000002
220
0.0
230
-1.0
 40
0.836516303737808
 41
0.4919522113415913
 42
2.062748538136762
  0
ELLIPSE
  5
722
330
70
100
AcDbEntity
  8
可視
100
AcDbEllipse
 10
468.5051588499669
 20
510.1561477283403
 30
-0.0000000000004547
 11
-1.309007763751136
 21
2.920016896259178
 31
-0.0000000000000003
210
0.0000000000000002
220
0.0
230
-0.9999999999999998
 40
0.8365163037378074
 41
-1.078844115453024
 42
0.4919522113415877
  0
ELLIPSE
  5
723
330
70
100
AcDbEntity
  8
可視
100
AcDbEllipse
 10
468.5051588499669
 20
510.1561477283406
 30
-0.0000000000004547
 11
-2.618015527502318
 21
5.840033792518447
 31
-0.0000000000000006
210
-0.0000000000000002
220
0.0
230
1.0
 40
0.8365163037378074
 41
-0.491952211341907
 42
1.078844115452701
  0
ELLIPSE
  5
724
330
70
100
AcDbEntity
  8
可視
100
AcDbEllipse
 10
717.2276548168547
 20
472.9897328516194
 30
-0.0000000000004547
 11
-2.618015527502335
 21
5.840033792518491
 31
-0.0000000000000006
210
-0.0000000000000002
220
0.0
230
1.0
 40
0.8365163037378071
 41
4.220436769042516
 42
5.791233095837675
  0
ELLIPSE
  5
725
330
70
100
AcDbEntity
  8
細線
100
AcDbEllipse
 10
480.1036124171225
 20
319.6530448561603
 30
-0.0000000000004547
 11
93.83266234803524
 21
0.0000000000110735
 31
0.0000000000000208
210
-0.0000000000000002
220
0.0
230
1.0
 40
0.2588190451027113
 41
6.061775554121342
 42
9.646187713827623
  0
ELLIPSE
  5
726
330
70
100
AcDbEntity
  8
細線
100
AcDbEllipse
 10
480.1036124171225
 20
317.8895651692633
 30
-0.0000000000004547
 11
91.84027295185178
 21
0.0
 31
0.0000000000000204
210
-0.0000000000000002
220
0.0
230
1.0
 40
0.2588190451025206
 41
6.259740642764587
 42
9.448222625184376
  0
ELLIPSE
  5
727
330
70
100
AcDbEntity
  8
細線
100
AcDbEllipse
 10
480.1036124171225
 20
294.7272853459194
 30
-0.0000000000004547
 11
89.74235109200987
 21
0.0
 31
0.0000000000000199
210
-0.0000000000000002
220
0.0
230
1.0
 40
0.2588190451025206
 41
6.259740642764589
 42
9.448222625184376
  0
ELLIPSE
  5
728
330
70
100
AcDbEntity
  8
細線
100
AcDbEllipse
 10
480.1036124171225
 20
291.6411958938032
 30
-0.0000000000004547
 11
86.25566964868811
 21
0.0
 31
0.0000000000000192
210
-0.0000000000000002
220
0.0
230
1.0
 40
0.2588190451025206
 41
0.0000000000000065
 42
6.283185307179592
  0
ELLIPSE
  5
729
330
70
100
AcDbEntity
  8
細線
100
AcDbEllipse
 10
670.6292012496982
 20
291.1829498948833
 30
-0.0000000000004547
 11
93.83266234803524
 21
0.0000000000110843
 31
0.0000000000000208
210
-0.0000000000000002
220
0.0
230
1.0
 40
0.2588190451027113
 41
6.061775554121342
 42
9.646187713827623
  0
ELLIPSE
  5
72A
330
70
100
AcDbEntity
  8
細線
100
AcDbEllipse
 10
670.6292012497003
 20
289.4194702079854
 30
-0.0000000000004547
 11
91.84027295185178
 21
0.0
 31
0.0000000000000204
210
-0.0000000000000002
220
0.0
230
1.0
 40
0.2588190451025206
 41
6.259740642764593
 42
9.44822262518438
  0
ELLIPSE
  5
72B
330
70
100
AcDbEntity
  8
細線
100
AcDbEllipse
 10
670.6292012497003
 20
266.2571903846419
 30
-0.0000000000004547
 11
89.74235109200987
 21
0.0
 31
0.0000000000000199
210
-0.0000000000000002
220
0.0
230
1.0
 40
0.2588190451025206
 41
6.259740642764593
 42
9.44822262518438
  0
ELLIPSE
  5
72C
330
70
100
AcDbEntity
  8
細線
100
AcDbEllipse
 10
670.6292012497003
 20
263.1711009325258
 30
-0.0000000000004547
 11
86.25566964868811
 21
0.0
 31
0.0000000000000192
210
-0.0000000000000002
220
0.0
230
1.0
 40
0.2588190451025206
 41
0.0000000000000065
 42
6.283185307179592
  0
ENDSEC
  0
SECTION
  2
OBJECTS
  0
DICTIONARY
  5
C
330
0
100
AcDbDictionary
281
     1
  3
ACAD_CIP_PREVIOUS_PRODUCT_INFO
350
2E7
  3
ACAD_COLOR
350
63
  3
ACAD_DETAILVIEWSTYLE
350
6A
  3
ACAD_GROUP
350
D
  3
ACAD_LAYOUT
350
62
  3
ACAD_MATERIAL
350
10
  3
ACAD_MLEADERSTYLE
350
66
  3
ACAD_MLINESTYLE
350
5F
  3
ACAD_PLOTSETTINGS
350
61
  3
ACAD_PLOTSTYLENAME
350
E
  3
ACAD_SCALELIST
350
42
  3
ACAD_SECTIONVIEWSTYLE
350
68
  3
ACAD_TABLESTYLE
350
64
  3
ACAD_VISUALSTYLE
350
29
  3
ACDB_RECOMPOSE_DATA
350
785
  3
AcDbVariableDictionary
350
2D7
  0
DICTIONARY
  5
45A
330
2
100
AcDbDictionary
280
     1
281
     1
  3
ACAD_LAYERSTATES
360
45B
  0
DICTIONARY
  5
456
330
455
100
AcDbDictionary
280
     1
281
     1
  0
DICTIONARY
  5
458
330
457
100
AcDbDictionary
280
     1
281
     1
  0
DICTIONARY
  5
81
330
70
100
AcDbDictionary
280
     1
281
     1
  3
ACAD_SORTENTS
360
82
  0
DICTIONARY
  5
1F5
330
1F4
100
AcDbDictionary
280
     1
281
     1
  0
DICTIONARY
  5
23C
330
23B
100
AcDbDictionary
280
     1
281
     1
  3
ACAD_SORTENTS
360
295
  0
DICTIONARY
  5
4B8
330
4B6
100
AcDbDictionary
280
     1
281
     1
  3
ACAD_SORTENTS
360
4B9
  0
DICTIONARY
  5
257
330
256
100
AcDbDictionary
280
     1
281
     1
  3
ACAD_MLATT
360
766
  3
ACAD_XREC_ROUNDTRIP
360
765
  0
DICTIONARY
  5
259
330
258
100
AcDbDictionary
280
     1
281
     1
  3
ACAD_MLATT
360
768
  3
ACAD_XREC_ROUNDTRIP
360
767
  0
DICTIONARY
  5
25B
330
25A
100
AcDbDictionary
280
     1
281
     1
  3
ACAD_MLATT
360
76A
  3
ACAD_XREC_ROUNDTRIP
360
769
  0
DICTIONARY
  5
25D
330
25C
100
AcDbDictionary
280
     1
281
     1
  3
ACAD_MLATT
360
76C
  3
ACAD_XREC_ROUNDTRIP
360
76B
  0
DICTIONARY
  5
25F
330
25E
100
AcDbDictionary
280
     1
281
     1
  3
ACAD_MLATT
360
76E
  3
ACAD_XREC_ROUNDTRIP
360
76D
  0
DICTIONARY
  5
261
330
260
100
AcDbDictionary
280
     1
281
     1
  3
ACAD_MLATT
360
770
  3
ACAD_XREC_ROUNDTRIP
360
76F
  0
DICTIONARY
  5
263
330
262
100
AcDbDictionary
280
     1
281
     1
  3
ACAD_MLATT
360
772
  3
ACAD_XREC_ROUNDTRIP
360
771
  0
DICTIONARY
  5
265
330
264
100
AcDbDictionary
280
     1
281
     1
  3
ACAD_MLATT
360
774
  3
ACAD_XREC_ROUNDTRIP
360
773
  0
DICTIONARY
  5
267
330
266
100
AcDbDictionary
280
     1
281
     1
  3
ACAD_MLATT
360
776
  3
ACAD_XREC_ROUNDTRIP
360
775
  0
DICTIONARY
  5
269
330
268
100
AcDbDictionary
280
     1
281
     1
  3
ACAD_MLATT
360
778
  3
ACAD_XREC_ROUNDTRIP
360
777
  0
DICTIONARY
  5
26B
330
26A
100
AcDbDictionary
280
     1
281
     1
  3
ACAD_MLATT
360
77A
  3
ACAD_XREC_ROUNDTRIP
360
779
  0
DICTIONARY
  5
26D
330
26C
100
AcDbDictionary
280
     1
281
     1
  3
ACAD_MLATT
360
77C
  3
ACAD_XREC_ROUNDTRIP
360
77B
  0
DICTIONARY
  5
26F
330
26E
100
AcDbDictionary
280
     1
281
     1
  3
ACAD_MLATT
360
77E
  3
ACAD_XREC_ROUNDTRIP
360
77D
  0
DICTIONARY
  5
271
330
270
100
AcDbDictionary
280
     1
281
     1
  3
ACAD_MLATT
360
780
  3
ACAD_XREC_ROUNDTRIP
360
77F
  0
DICTIONARY
  5
273
330
272
100
AcDbDictionary
280
     1
281
     1
  3
ACAD_MLATT
360
782
  3
ACAD_XREC_ROUNDTRIP
360
781
  0
XRECORD
  5
2E7
102
{ACAD_REACTORS
330
C
102
}
330
C
100
AcDbXrecord
280
     1
300
ACDLT
300
2014
300
ACDLT_F_S
  0
DICTIONARY
  5
63
102
{ACAD_REACTORS
330
C
102
}
330
C
100
AcDbDictionary
281
     1
  0
DICTIONARY
  5
6A
102
{ACAD_REACTORS
330
C
102
}
330
C
100
AcDbDictionary
281
     1
  3
Imperial24
350
6B
  3
Metric50
350
2E0
  0
DICTIONARY
  5
D
102
{ACAD_REACTORS
330
C
102
}
330
C
100
AcDbDictionary
281
     1
  0
DICTIONARY
  5
62
102
{ACAD_REACTORS
330
C
102
}
330
C
100
AcDbDictionary
281
     1
  3
Model
350
73
  3
レイアウト1
350
6F
  3
レイアウト2
350
77
  0
DICTIONARY
  5
10
102
{ACAD_REACTORS
330
C
102
}
330
C
100
AcDbDictionary
281
     1
  3
ByBlock
350
19
  3
ByLayer
350
11
  3
Global
350
21
  0
DICTIONARY
  5
66
102
{ACAD_REACTORS
330
C
102
}
330
C
100
AcDbDictionary
281
     1
  3
Standard
350
67
  0
DICTIONARY
  5
5F
102
{ACAD_REACTORS
330
C
102
}
330
C
100
AcDbDictionary
281
     1
  3
Standard
350
60
  0
DICTIONARY
  5
61
102
{ACAD_REACTORS
330
C
102
}
330
C
100
AcDbDictionary
281
     1
  0
ACDBDICTIONARYWDFLT
  5
E
102
{ACAD_REACTORS
330
C
102
}
330
C
100
AcDbDictionary
281
     1
  3
Normal
350
F
100
AcDbDictionaryWithDefault
340
F
  0
DICTIONARY
  5
42
102
{ACAD_REACTORS
330
C
102
}
330
C
100
AcDbDictionary
281
     1
  3
A0
350
43
  3
A1
350
44
  3
A2
350
45
  3
A3
350
46
  3
A4
350
47
  3
A5
350
48
  3
A6
350
49
  3
A7
350
4A
  3
A8
350
4B
  3
A9
350
4C
  3
B0
350
4D
  3
B1
350
4E
  3
B2
350
4F
  3
B3
350
50
  3
B4
350
51
  3
B5
350
52
  3
B6
350
53
  0
DICTIONARY
  5
68
102
{ACAD_REACTORS
330
C
102
}
330
C
100
AcDbDictionary
281
     1
  3
Imperial24
350
69
  3
Metric50
350
2DF
  0
DICTIONARY
  5
64
102
{ACAD_REACTORS
330
C
102
}
330
C
100
AcDbDictionary
281
     1
  3
Standard
350
65
  0
DICTIONARY
  5
29
102
{ACAD_REACTORS
330
C
102
}
330
C
100
AcDbDictionary
281
     1
  3
2dWireframe
350
2F
  3
Basic
350
2E
  3
Brighten
350
35
  3
ColorChange
350
39
  3
Conceptual
350
32
  3
Dim
350
34
  3
EdgeColorOff
350
41
  3
Facepattern
350
38
  3
Flat
350
2A
  3
FlatWithEdges
350
2B
  3
Gouraud
350
2C
  3
GouraudWithEdges
350
2D
  3
Hidden
350
31
  3
JitterOff
350
3F
  3
Linepattern
350
37
  3
OverhangOff
350
40
  3
Realistic
350
33
  3
Shaded
350
3E
  3
Shaded with edges
350
3D
  3
Shades of Gray
350
3A
  3
Sketchy
350
3B
  3
Thicken
350
36
  3
Wireframe
350
30
  3
X-Ray
350
3C
  0
XRECORD
  5
785
102
{ACAD_REACTORS
330
C
102
}
330
C
100
AcDbXrecord
280
     1
 90
        1
330
65
330
69
330
6B
330
256
330
258
330
25A
330
25C
330
25E
330
260
330
262
330
264
330
266
330
268
330
26A
330
26C
330
26E
330
270
330
272
330
2DF
330
2E0
330
464
  0
DICTIONARY
  5
2D7
102
{ACAD_REACTORS
330
C
102
}
330
C
100
AcDbDictionary
281
     1
  3
ANNOALLVISIBLE
350
2DC
  3
CANNOSCALE
350
2DD
  3
CMLEADERSTYLE
350
2D9
  3
CTABLESTYLE
350
2D8
  3
CVIEWDETAILSTYLE
350
2DA
  3
CVIEWSECTIONSTYLE
350
2DB
  0
DICTIONARY
  5
45B
102
{ACAD_REACTORS
330
45A
102
}
330
45A
100
AcDbDictionary
281
     1
  0
SORTENTSTABLE
  5
82
102
{ACAD_REACTORS
330
81
102
}
330
81
100
AcDbSortentsTable
330
70
  0
SORTENTSTABLE
  5
295
102
{ACAD_REACTORS
330
23C
102
}
330
23C
100
AcDbSortentsTable
330
23B
  0
SORTENTSTABLE
  5
4B9
102
{ACAD_REACTORS
330
4B8
102
}
330
4B8
100
AcDbSortentsTable
330
4B6
  0
XRECORD
  5
766
102
{ACAD_REACTORS
330
257
102
}
330
257
100
AcDbXrecord
280
     1
 70
     4
 70
     0
 70
     0
 40
1.0
  2
DATE_OF_ISSUE
  1
Embedded Object
 10
-50.0
 20
5.0
 30
0.0
 40
3.5
 41
0.0
 46
0.0
 71
     1
 72
     5
  1

  7
FusionTitle
 73
     1
 44
1.0
  0
XRECORD
  5
765
102
{ACAD_REACTORS
330
257
102
}
330
257
100
AcDbXrecord
280
     1
102
ACAD_MATT_HEIGHT
140
3.5
  0
XRECORD
  5
768
102
{ACAD_REACTORS
330
259
102
}
330
259
100
AcDbXrecord
280
     1
 70
     4
 70
     0
 70
     0
 40
1.0
  2
REV
  1
Embedded Object
 10
-56.0
 20
4.849999999999998
 30
0.0
 40
3.5
 41
0.0
 46
0.0
 71
     2
 72
     5
  1

  7
FusionTitle
 73
     1
 44
1.0
  0
XRECORD
  5
767
102
{ACAD_REACTORS
330
259
102
}
330
259
100
AcDbXrecord
280
     1
102
ACAD_MATT_HEIGHT
140
3.5
  0
XRECORD
  5
76A
102
{ACAD_REACTORS
330
25B
102
}
330
25B
100
AcDbXrecord
280
     1
 70
     4
 70
     0
 70
     0
 40
1.0
  2
TITLE_3
  1
Embedded Object
 10
-121.0
 20
6.5
 30
0.0
 40
5.0
 41
0.0
 46
0.0
 71
     1
 72
     5
  1

  7
FusionTitle
 73
     1
 44
1.0
  0
XRECORD
  5
769
102
{ACAD_REACTORS
330
25B
102
}
330
25B
100
AcDbXrecord
280
     1
102
ACAD_MATT_HEIGHT
140
5.0
  0
XRECORD
  5
76C
102
{ACAD_REACTORS
330
25D
102
}
330
25D
100
AcDbXrecord
280
     1
 70
     4
 70
     0
 70
     0
 40
1.0
  2
DOCUMENT_STATUS
  1
Embedded Object
 10
-60.0
 20
32.0
 30
0.0
 40
3.5
 41
0.0
 46
0.0
 71
     1
 72
     5
  1

  7
FusionTitle
 73
     1
 44
1.0
  0
XRECORD
  5
76B
102
{ACAD_REACTORS
330
25D
102
}
330
25D
100
AcDbXrecord
280
     1
102
ACAD_MATT_HEIGHT
140
3.5
  0
XRECORD
  5
76E
102
{ACAD_REACTORS
330
25F
102
}
330
25F
100
AcDbXrecord
280
     1
 70
     4
 70
     0
 70
     0
 40
1.0
  2
DOCUMENT_TYPE
  1
Embedded Object
 10
-121.0
 20
32.0
 30
0.0
 40
3.5
 41
0.0
 46
0.0
 71
     1
 72
     5
  1

  7
FusionTitle
 73
     1
 44
1.0
  0
XRECORD
  5
76D
102
{ACAD_REACTORS
330
25F
102
}
330
25F
100
AcDbXrecord
280
     1
102
ACAD_MATT_HEIGHT
140
3.5
  0
XRECORD
  5
770
102
{ACAD_REACTORS
330
261
102
}
330
261
100
AcDbXrecord
280
     1
 70
     4
 70
     0
 70
     0
 40
1.0
  2
APPROVED_DATE
  1
Embedded Object
 10
-0.9928376534788512
 20
42.0
 30
0.0
 40
3.5
 41
0.0
 46
0.0
 71
     3
 72
     5
  1

  7
FusionTitle
 73
     1
 44
1.0
  0
XRECORD
  5
76F
102
{ACAD_REACTORS
330
261
102
}
330
261
100
AcDbXrecord
280
     1
102
ACAD_MATT_HEIGHT
140
3.5
  0
XRECORD
  5
772
102
{ACAD_REACTORS
330
263
102
}
330
263
100
AcDbXrecord
280
     1
 70
     4
 70
     0
 70
     0
 40
1.0
  2
CREATED_DATE
  1
Embedded Object
 10
-61.99999999999999
 20
42.0
 30
0.0
 40
3.5
 41
0.0
 46
0.0
 71
     3
 72
     5
  1

  7
FusionTitle
 73
     1
 44
1.0
  0
XRECORD
  5
771
102
{ACAD_REACTORS
330
263
102
}
330
263
100
AcDbXrecord
280
     1
102
ACAD_MATT_HEIGHT
140
3.5
  0
XRECORD
  5
774
102
{ACAD_REACTORS
330
265
102
}
330
265
100
AcDbXrecord
280
     1
 70
     4
 70
     0
 70
     0
 40
1.0
  2
SHEET
  1
Embedded Object
 10
-7.5
 20
4.849999999999998
 30
0.0
 40
3.5
 41
0.0
 46
0.0
 71
     2
 72
     5
  1

  7
FusionTitle
 73
     1
 44
1.0
  0
XRECORD
  5
773
102
{ACAD_REACTORS
330
265
102
}
330
265
100
AcDbXrecord
280
     1
102
ACAD_MATT_HEIGHT
140
3.5
  0
XRECORD
  5
776
102
{ACAD_REACTORS
330
267
102
}
330
267
100
AcDbXrecord
280
     1
 70
     4
 70
     0
 70
     0
 40
1.0
  2
TITLE_2
  1
Embedded Object
 10
-121.0
 20
14.0
 30
0.0
 40
5.0
 41
0.0
 46
0.0
 71
     1
 72
     5
  1

  7
FusionTitle
 73
     1
 44
1.0
  0
XRECORD
  5
775
102
{ACAD_REACTORS
330
267
102
}
330
267
100
AcDbXrecord
280
     1
102
ACAD_MATT_HEIGHT
140
5.0
  0
XRECORD
  5
778
102
{ACAD_REACTORS
330
269
102
}
330
269
100
AcDbXrecord
280
     1
 70
     4
 70
     0
 70
     0
 40
1.0
  2
DRAWING_NUMBER
  1
Embedded Object
 10
-30.50000000000001
 20
19.75143246930423
 30
0.0
 40
5.0
 41
0.0
 46
0.0
 71
     2
 72
     5
  1

  7
FusionTitle
 73
     1
 44
1.0
  0
XRECORD
  5
777
102
{ACAD_REACTORS
330
269
102
}
330
269
100
AcDbXrecord
280
     1
102
ACAD_MATT_HEIGHT
140
5.0
  0
XRECORD
  5
77A
102
{ACAD_REACTORS
330
26B
102
}
330
26B
100
AcDbXrecord
280
     1
 70
     4
 70
     0
 70
     0
 40
1.0
  2
TITLE_1
  1
Embedded Object
 10
-121.0
 20
21.5
 30
0.0
 40
5.0
 41
0.0
 46
0.0
 71
     1
 72
     5
  1

  7
FusionTitle
 73
     1
 44
1.0
  0
XRECORD
  5
779
102
{ACAD_REACTORS
330
26B
102
}
330
26B
100
AcDbXrecord
280
     1
102
ACAD_MATT_HEIGHT
140
5.0
  0
XRECORD
  5
77C
102
{ACAD_REACTORS
330
26D
102
}
330
26D
100
AcDbXrecord
280
     1
 70
     4
 70
     0
 70
     0
 40
1.0
  2
APPROVED_BY
  1
Embedded Object
 10
-60.0
 20
42.0
 30
0.0
 40
3.5
 41
0.0
 46
0.0
 71
     1
 72
     5
  1

  7
FusionTitle
 73
     1
 44
1.0
  0
XRECORD
  5
77B
102
{ACAD_REACTORS
330
26D
102
}
330
26D
100
AcDbXrecord
280
     1
102
ACAD_MATT_HEIGHT
140
3.5
  0
XRECORD
  5
77E
102
{ACAD_REACTORS
330
26F
102
}
330
26F
100
AcDbXrecord
280
     1
 70
     4
 70
     0
 70
     0
 40
1.0
  2
CREATED_BY
  1
Embedded Object
 10
-121.0
 20
42.0
 30
0.0
 40
3.5
 41
0.0
 46
0.0
 71
     1
 72
     5
  1

  7
FusionTitle
 73
     1
 44
1.0
  0
XRECORD
  5
77D
102
{ACAD_REACTORS
330
26F
102
}
330
26F
100
AcDbXrecord
280
     1
102
ACAD_MATT_HEIGHT
140
3.5
  0
XRECORD
  5
780
102
{ACAD_REACTORS
330
271
102
}
330
271
100
AcDbXrecord
280
     1
 70
     4
 70
     0
 70
     0
 40
1.0
  2
TECHNICAL_REFERENCE
  1
Embedded Object
 10
-155.0
 20
42.0
 30
0.0
 40
3.5
 41
0.0
 46
0.0
 71
     1
 72
     5
  1

  7
FusionTitle
 73
     1
 44
1.0
  0
XRECORD
  5
77F
102
{ACAD_REACTORS
330
271
102
}
330
271
100
AcDbXrecord
280
     1
102
ACAD_MATT_HEIGHT
140
3.5
  0
XRECORD
  5
782
102
{ACAD_REACTORS
330
273
102
}
330
273
100
AcDbXrecord
280
     1
 70
     4
 70
     0
 70
     0
 40
1.0
  2
DEPT
  1
Embedded Object
 10
-179.0
 20
42.0
 30
0.0
 40
3.5
 41
0.0
 46
0.0
 71
     1
 72
     5
  1

  7
FusionTitle
 73
     1
 44
1.0
  0
XRECORD
  5
781
102
{ACAD_REACTORS
330
273
102
}
330
273
100
AcDbXrecord
280
     1
102
ACAD_MATT_HEIGHT
140
3.5
  0
ACDBDETAILVIEWSTYLE
  5
6B
102
{ACAD_XDICTIONARY
360
298
102
}
102
{ACAD_REACTORS
330
6A
102
}
330
6A
100
AcDbModelDocViewStyle
 70
     0
  3
Imperial24
290
     0
100
AcDbDetailViewStyle
 70
     0
 71
     0
 90
        3
 71
     1
340
55
 62
   256
 40
0.24
340
0
 62
   256
 40
0.24
300

 40
0.36
280
     3
 71
     2
340
5D
 90
       25
 62
   256
 71
     3
340
55
 62
   256
 40
0.24
 90
        1
 40
0.75
 90
        1
300
%<\AcVar ViewType \f "%tc1">% %<\AcVar ViewDetailId>%\PSCALE %<\AcVar ViewScale \f "%sn">%
 71
     4
340
5D
 90
       25
 62
   256
340
5D
 90
       25
 62
   256
280
     0
  0
ACDBDETAILVIEWSTYLE
  5
2E0
102
{ACAD_XDICTIONARY
360
758
102
}
102
{ACAD_REACTORS
330
6A
102
}
330
6A
100
AcDbModelDocViewStyle
 70
     0
  3
Metric50
290
     0
100
AcDbDetailViewStyle
 70
     0
 71
     0
 90
        3
 71
     1
340
55
 62
   256
 40
5.0
340
0
 62
   256
 40
5.0
300

 40
0.0
280
     1
 71
     2
340
5D
 90
       25
 62
   256
 71
     3
340
55
 62
   256
 40
5.0
 90
        0
 40
15.0
 90
        1
300
%<\AcVar ViewDetailId>% (%<\AcVar ViewScale \f "%sn">%)
 71
     4
340
5D
 90
       25
 62
   256
340
5D
 90
       25
 62
   256
280
     0
  0
LAYOUT
  5
73
102
{ACAD_REACTORS
330
62
102
}
330
62
100
AcDbPlotSettings
  1

  2
KONICA MINOLTA C554Series②
  4
A4
  6

 40
5.027082920074462
 41
5.027099609375
 42
5.027069091796875
 43
5.027069091796875
 44
209.9733276367186
 45
296.9259948730469
 46
0.0
 47
0.0
 48
0.0
 49
0.0
140
0.0
141
0.0
142
1.0
143
2.920386359158005
 70
 11952
 72
     1
 73
     0
 74
     0
  7

 75
     0
147
0.3424204461386116
 76
     0
 77
     2
 78
   300
148
1.459629827939693
149
7.977313740545042
100
AcDbLayout
  1
Model
 70
     1
 71
     0
 10
0.0
 20
0.0
 11
12.0
 21
9.0
 12
0.0
 22
0.0
 32
0.0
 14
0.0
 24
0.0
 34
0.0
 15
0.0
 25
0.0
 35
0.0
146
0.0
 13
0.0
 23
0.0
 33
0.0
 16
1.0
 26
0.0
 36
0.0
 17
0.0
 27
1.0
 37
0.0
 76
     0
330
70
331
57
1001
ACAD_PSEXT
1000
KONICA MINOLTA C554Series②
1000
KONICA MINOLTA C554SeriesPCL
1000
IP_192.168.4.222
1000

1070
     0
  0
LAYOUT
  5
6F
102
{ACAD_REACTORS
330
62
102
}
330
62
100
AcDbPlotSettings
  1

  2
KONICA MINOLTA C554Series②
  4

  6

 40
0.0
 41
0.0
 42
0.0
 43
0.0
 44
0.0
 45
0.0
 46
0.0
 47
0.0
 48
0.0
 49
0.0
140
0.0
141
0.0
142
1.0
143
1.0
 70
   688
 72
     0
 73
     0
 74
     5
  7
TAGAI1.CTB
 75
    16
147
1.0
 76
     0
 77
     2
 78
   300
148
0.0
149
0.0
100
AcDbLayout
  1
レイアウト1
 70
     1
 71
     1
 10
0.0
 20
0.0
 11
12.0
 21
9.0
 12
0.0
 22
0.0
 32
0.0
 14
1.000000000000000E+20
 24
1.000000000000000E+20
 34
1.000000000000000E+20
 15
-1.000000000000000E+20
 25
-1.000000000000000E+20
 35
-1.000000000000000E+20
146
0.0
 13
0.0
 23
0.0
 33
0.0
 16
1.0
 26
0.0
 36
0.0
 17
0.0
 27
1.0
 37
0.0
 76
     0
330
6C
  0
LAYOUT
  5
77
102
{ACAD_REACTORS
330
62
102
}
330
62
100
AcDbPlotSettings
  1

  2
KONICA MINOLTA C554Series②
  4

  6

 40
0.0
 41
0.0
 42
0.0
 43
0.0
 44
0.0
 45
0.0
 46
0.0
 47
0.0
 48
0.0
 49
0.0
140
0.0
141
0.0
142
1.0
143
1.0
 70
   688
 72
     0
 73
     0
 74
     5
  7
TAGAI1.CTB
 75
    16
147
1.0
 76
     0
 77
     2
 78
   300
148
0.0
149
0.0
100
AcDbLayout
  1
レイアウト2
 70
     1
 71
     2
 10
0.0
 20
0.0
 11
12.0
 21
9.0
 12
0.0
 22
0.0
 32
0.0
 14
0.0
 24
0.0
 34
0.0
 15
0.0
 25
0.0
 35
0.0
146
0.0
 13
0.0
 23
0.0
 33
0.0
 16
1.0
 26
0.0
 36
0.0
 17
0.0
 27
1.0
 37
0.0
 76
     0
330
74
  0
MATERIAL
  5
19
102
{ACAD_XDICTIONARY
360
1A
102
}
102
{ACAD_REACTORS
330
10
102
}
330
10
100
AcDbMaterial
  1
ByBlock
 72
     0
 43
0.0208333333333333
 43
0.0
 43
0.0
 43
0.0
 43
0.0
 43
0.0208333333333333
 43
0.0
 43
0.0
 43
0.0
 43
0.0
 43
1.0
 43
0.0
 43
0.0
 43
0.0
 43
0.0
 43
1.0
 77
     0
 47
0.0208333333333333
 47
0.0
 47
0.0
 47
0.0
 47
0.0
 47
0.0208333333333333
 47
0.0
 47
0.0
 47
0.0
 47
0.0
 47
1.0
 47
0.0
 47
0.0
 47
0.0
 47
0.0
 47
1.0
171
     0
 49
0.0208333333333333
 49
0.0
 49
0.0
 49
0.0
 49
0.0
 49
0.0208333333333333
 49
0.0
 49
0.0
 49
0.0
 49
0.0
 49
1.0
 49
0.0
 49
0.0
 49
0.0
 49
0.0
 49
1.0
175
     0
142
0.0208333333333333
142
0.0
142
0.0
142
0.0
142
0.0
142
0.0208333333333333
142
0.0
142
0.0
142
0.0
142
0.0
142
1.0
142
0.0
142
0.0
142
0.0
142
0.0
142
1.0
179
     0
144
0.0208333333333333
144
0.0
144
0.0
144
0.0
144
0.0
144
0.0208333333333333
144
0.0
144
0.0
144
0.0
144
0.0
144
1.0
144
0.0
144
0.0
144
0.0
144
0.0
144
1.0
147
0.0208333333333333
147
0.0
147
0.0
147
0.0
147
0.0
147
0.0208333333333333
147
0.0
147
0.0
147
0.0
147
0.0
147
1.0
147
0.0
147
0.0
147
0.0
147
0.0
147
1.0
  0
MATERIAL
  5
11
102
{ACAD_XDICTIONARY
360
12
102
}
102
{ACAD_REACTORS
330
10
102
}
330
10
100
AcDbMaterial
  1
ByLayer
 72
     0
 43
0.0208333333333333
 43
0.0
 43
0.0
 43
0.0
 43
0.0
 43
0.0208333333333333
 43
0.0
 43
0.0
 43
0.0
 43
0.0
 43
1.0
 43
0.0
 43
0.0
 43
0.0
 43
0.0
 43
1.0
 77
     0
 47
0.0208333333333333
 47
0.0
 47
0.0
 47
0.0
 47
0.0
 47
0.0208333333333333
 47
0.0
 47
0.0
 47
0.0
 47
0.0
 47
1.0
 47
0.0
 47
0.0
 47
0.0
 47
0.0
 47
1.0
171
     0
 49
0.0208333333333333
 49
0.0
 49
0.0
 49
0.0
 49
0.0
 49
0.0208333333333333
 49
0.0
 49
0.0
 49
0.0
 49
0.0
 49
1.0
 49
0.0
 49
0.0
 49
0.0
 49
0.0
 49
1.0
175
     0
142
0.0208333333333333
142
0.0
142
0.0
142
0.0
142
0.0
142
0.0208333333333333
142
0.0
142
0.0
142
0.0
142
0.0
142
1.0
142
0.0
142
0.0
142
0.0
142
0.0
142
1.0
179
     0
144
0.0208333333333333
144
0.0
144
0.0
144
0.0
144
0.0
144
0.0208333333333333
144
0.0
144
0.0
144
0.0
144
0.0
144
1.0
144
0.0
144
0.0
144
0.0
144
0.0
144
1.0
147
0.0208333333333333
147
0.0
147
0.0
147
0.0
147
0.0
147
0.0208333333333333
147
0.0
147
0.0
147
0.0
147
0.0
147
1.0
147
0.0
147
0.0
147
0.0
147
0.0
147
1.0
  0
MATERIAL
  5
21
102
{ACAD_XDICTIONARY
360
22
102
}
102
{ACAD_REACTORS
330
10
102
}
330
10
100
AcDbMaterial
  1
Global
 72
     0
 43
0.0208333333333333
 43
0.0
 43
0.0
 43
0.0
 43
0.0
 43
0.0208333333333333
 43
0.0
 43
0.0
 43
0.0
 43
0.0
 43
1.0
 43
0.0
 43
0.0
 43
0.0
 43
0.0
 43
1.0
 77
     0
 47
0.0208333333333333
 47
0.0
 47
0.0
 47
0.0
 47
0.0
 47
0.0208333333333333
 47
0.0
 47
0.0
 47
0.0
 47
0.0
 47
1.0
 47
0.0
 47
0.0
 47
0.0
 47
0.0
 47
1.0
171
     0
 49
0.0208333333333333
 49
0.0
 49
0.0
 49
0.0
 49
0.0
 49
0.0208333333333333
 49
0.0
 49
0.0
 49
0.0
 49
0.0
 49
1.0
 49
0.0
 49
0.0
 49
0.0
 49
0.0
 49
1.0
175
     0
142
0.0208333333333333
142
0.0
142
0.0
142
0.0
142
0.0
142
0.0208333333333333
142
0.0
142
0.0
142
0.0
142
0.0
142
1.0
142
0.0
142
0.0
142
0.0
142
0.0
142
1.0
179
     0
144
0.0208333333333333
144
0.0
144
0.0
144
0.0
144
0.0
144
0.0208333333333333
144
0.0
144
0.0
144
0.0
144
0.0
144
1.0
144
0.0
144
0.0
144
0.0
144
0.0
144
1.0
147
0.0208333333333333
147
0.0
147
0.0
147
0.0
147
0.0
147
0.0208333333333333
147
0.0
147
0.0
147
0.0
147
0.0
147
1.0
147
0.0
147
0.0
147
0.0
147
0.0
147
1.0
  0
MLEADERSTYLE
  5
67
102
{ACAD_REACTORS
330
66
102
}
330
66
100
AcDbMLeaderStyle
179
     2
170
     2
171
     1
172
     0
 90
        2
 40
0.0
 41
0.0
173
     1
 91
-1056964608
340
5B
 92
       -2
290
     1
 42
0.09
291
     1
 43
0.36
  3
Standard
 44
0.18
300

342
55
174
     1
178
     6
175
     1
176
     0
 93
-1056964608
 45
0.18
292
     0
297
     0
 46
0.18
 94
-1056964608
 47
1.0
 49
1.0
140
1.0
293
     1
141
0.0
294
     1
177
     0
142
1.0
295
     0
296
     0
143
0.125
271
     0
272
     9
273
     9
298
     1
  0
MLINESTYLE
  5
60
102
{ACAD_REACTORS
330
5F
102
}
330
5F
100
AcDbMlineStyle
  2
STANDARD
 70
     0
  3

 62
   256
 51
90.0
 52
90.0
 71
     2
 49
0.5
 62
   256
  6
BYLAYER
 49
-0.5
 62
   256
  6
BYLAYER
  0
ACDBPLACEHOLDER
  5
F
102
{ACAD_REACTORS
330
E
102
}
330
E
  0
SCALE
  5
43
102
{ACAD_REACTORS
330
42
102
}
330
42
100
AcDbScale
 70
     0
300
1:1
140
1.0
141
1.0
290
     1
  0
SCALE
  5
44
102
{ACAD_REACTORS
330
42
102
}
330
42
100
AcDbScale
 70
     0
300
1:2
140
1.0
141
2.0
290
     0
  0
SCALE
  5
45
102
{ACAD_REACTORS
330
42
102
}
330
42
100
AcDbScale
 70
     0
300
1:4
140
1.0
141
4.0
290
     0
  0
SCALE
  5
46
102
{ACAD_REACTORS
330
42
102
}
330
42
100
AcDbScale
 70
     0
300
1:5
140
1.0
141
5.0
290
     0
  0
SCALE
  5
47
102
{ACAD_REACTORS
330
42
102
}
330
42
100
AcDbScale
 70
     0
300
1:8
140
1.0
141
8.0
290
     0
  0
SCALE
  5
48
102
{ACAD_REACTORS
330
42
102
}
330
42
100
AcDbScale
 70
     0
300
1:10
140
1.0
141
10.0
290
     0
  0
SCALE
  5
49
102
{ACAD_REACTORS
330
42
102
}
330
42
100
AcDbScale
 70
     0
300
1:16
140
1.0
141
16.0
290
     0
  0
SCALE
  5
4A
102
{ACAD_REACTORS
330
42
102
}
330
42
100
AcDbScale
 70
     0
300
1:20
140
1.0
141
20.0
290
     0
  0
SCALE
  5
4B
102
{ACAD_REACTORS
330
42
102
}
330
42
100
AcDbScale
 70
     0
300
1:30
140
1.0
141
30.0
290
     0
  0
SCALE
  5
4C
102
{ACAD_REACTORS
330
42
102
}
330
42
100
AcDbScale
 70
     0
300
1:40
140
1.0
141
40.0
290
     0
  0
SCALE
  5
4D
102
{ACAD_REACTORS
330
42
102
}
330
42
100
AcDbScale
 70
     0
300
1:50
140
1.0
141
50.0
290
     0
  0
SCALE
  5
4E
102
{ACAD_REACTORS
330
42
102
}
330
42
100
AcDbScale
 70
     0
300
1:100
140
1.0
141
100.0
290
     0
  0
SCALE
  5
4F
102
{ACAD_REACTORS
330
42
102
}
330
42
100
AcDbScale
 70
     0
300
2:1
140
2.0
141
1.0
290
     0
  0
SCALE
  5
50
102
{ACAD_REACTORS
330
42
102
}
330
42
100
AcDbScale
 70
     0
300
4:1
140
4.0
141
1.0
290
     0
  0
SCALE
  5
51
102
{ACAD_REACTORS
330
42
102
}
330
42
100
AcDbScale
 70
     0
300
8:1
140
8.0
141
1.0
290
     0
  0
SCALE
  5
52
102
{ACAD_REACTORS
330
42
102
}
330
42
100
AcDbScale
 70
     0
300
10:1
140
10.0
141
1.0
290
     0
  0
SCALE
  5
53
102
{ACAD_REACTORS
330
42
102
}
330
42
100
AcDbScale
 70
     0
300
100:1
140
100.0
141
1.0
290
     0
  0
ACDBSECTIONVIEWSTYLE
  5
69
102
{ACAD_XDICTIONARY
360
296
102
}
102
{ACAD_REACTORS
330
68
102
}
330
68
100
AcDbModelDocViewStyle
 70
     0
  3
Imperial24
290
     0
100
AcDbSectionViewStyle
 70
     0
 71
     0
 90
       78
 71
     1
340
55
 62
   256
 40
0.24
340
0
340
0
 62
   256
 40
0.24
300
I, O, Q, S, X, Z
 40
0.48
 90
        3
 40
0.18
 90
        1
 71
     2
340
5D
 90
       25
 62
   256
340
5D
 90
       50
 62
   256
 40
0.24
 40
0.0
 40
0.24
 71
     3
340
55
 62
   256
 40
0.24
 90
        1
 40
0.75
 90
        1
300
%<\AcVar ViewType \f "%tc1">% %<\AcVar ViewSectionStartId>%-%<\AcVar ViewSectionEndId>%\PSCALE %<\AcVar ViewScale \f "%sn">%
 71
     4
 62
   256
 62
   257
300
ANSI31
 40
1.0
 90
        0
290
     0
290
     0
 90
        6
 40
0.0
 40
1.570796326794896
 40
0.2617993877991494
 40
1.308996938995747
 40
-0.2617993877991494
 40
1.832595714594045
  0
ACDBSECTIONVIEWSTYLE
  5
2DF
102
{ACAD_XDICTIONARY
360
756
102
}
102
{ACAD_REACTORS
330
68
102
}
330
68
100
AcDbModelDocViewStyle
 70
     0
  3
Metric50
290
     0
100
AcDbSectionViewStyle
 70
     0
 71
     0
 90
      102
 71
     1
340
55
 62
   256
 40
5.0
340
0
340
0
 62
   256
 40
5.0
300
I, O, Q, S, X, Z
 40
10.0
 90
        0
 40
2.5
 90
        0
 71
     2
340
5D
 90
       25
 62
   256
340
5D
 90
       50
 62
   256
 40
5.0
 40
2.5
 40
5.0
 71
     3
340
55
 62
   256
 40
5.0
 90
        0
 40
15.0
 90
        1
300
%<\AcVar ViewSectionStartId>%-%<\AcVar ViewSectionEndId>% (%<\AcVar ViewScale \f "%sn">%)
 71
     4
 62
   256
 62
   257
300
ANSI31
 40
1.0
 90
        0
290
     0
290
     0
 90
        6
 40
0.0
 40
1.570796326794896
 40
0.2617993877991494
 40
1.308996938995747
 40
-0.2617993877991494
 40
1.832595714594045
  0
TABLESTYLE
  5
65
102
{ACAD_XDICTIONARY
360
734
102
}
102
{ACAD_REACTORS
330
64
102
}
330
64
100
AcDbTableStyle
280
     0
  3
Standard
 70
     0
 71
     3
 40
1.5
 41
1.5
280
     0
281
     0
  7
Standard
140
4.5
170
     2
 62
     0
 63
     7
283
     0
 90
      512
 91
        0
  1

274
    -2
284
     1
 64
     0
275
    -2
285
     1
 65
     0
276
    -2
286
     1
 66
     0
277
    -2
287
     1
 67
     0
278
    -2
288
     1
 68
     0
279
    -2
289
     1
 69
     0
  7
Standard
140
6.0
170
     5
 62
     0
 63
     7
283
     0
 90
      512
 91
        0
  1

274
    -2
284
     1
 64
     0
275
    -2
285
     1
 65
     0
276
    -2
286
     1
 66
     0
277
    -2
287
     1
 67
     0
278
    -2
288
     1
 68
     0
279
    -2
289
     1
 69
     0
  7
Standard
140
4.5
170
     5
 62
     0
 63
     7
283
     0
 90
      512
 91
        0
  1

274
    -2
284
     1
 64
     0
275
    -2
285
     1
 65
     0
276
    -2
286
     1
 66
     0
277
    -2
287
     1
 67
     0
278
    -2
288
     1
 68
     0
279
    -2
289
     1
 69
     0
  0
VISUALSTYLE
  5
2F
102
{ACAD_REACTORS
330
29
102
}
330
29
100
AcDbVisualStyle
  2
2dWireframe
 70
     4
177
     3
291
     0
 70
    58
 90
        0
176
     1
 90
        2
176
     1
 90
        0
176
     1
 90
        0
176
     1
 40
0.6
176
     1
 40
30.0
176
     1
 62
     7
420
 16777215
176
     1
 90
        1
176
     1
 90
        4
176
     1
 62
     7
176
     1
 62
   257
176
     1
 90
        1
176
     1
 90
        1
176
     1
 40
1.0
176
     1
 90
        0
176
     1
 62
   257
176
     1
 40
1.0
176
     1
 90
        1
176
     1
 90
        6
176
     1
 90
        2
176
     1
 62
     7
176
     1
 90
        5
176
     1
 90
        0
176
     1
 90
        0
176
     1
290
     0
176
     1
 90
        1
176
     1
 40
0.0
176
     1
 90
        0
176
     1
290
     1
176
     1
290
     1
176
     1
290
     0
176
     1
290
     0
176
     1
290
     0
176
     1
290
     0
176
     1
290
     0
176
     1
290
     0
176
     1
290
     0
176
     1
 90
       50
176
     1
 40
0.0
176
     1
 40
1.0
176
     1
 90
        0
176
     1
 62
    18
176
     1
 90
       50
176
     1
 90
        3
176
     1
 62
     5
420
      255
176
     1
290
     0
176
     1
 90
       50
176
     1
 90
       50
176
     1
 90
       50
176
     1
290
     0
176
     1
 90
       50
176
     1
 62
   256
176
     0
 40
1.0
176
     0
 90
        2
176
     1
  1
strokes_ogs.tif
176
     1
290
     0
176
     1
 40
1.0
176
     1
 40
1.0
176
     1
  0
VISUALSTYLE
  5
2E
102
{ACAD_REACTORS
330
29
102
}
330
29
100
AcDbVisualStyle
  2
Basic
 70
     7
177
     3
291
     1
 70
    58
 90
        1
176
     1
 90
        0
176
     1
 90
        1
176
     1
 90
        0
176
     1
 40
0.6
176
     1
 40
30.0
176
     1
 62
     7
420
 16777215
176
     1
 90
        0
176
     1
 90
        4
176
     1
 62
     7
176
     1
 62
   257
176
     1
 90
        1
176
     1
 90
        1
176
     1
 40
1.0
176
     1
 90
        8
176
     1
 62
     7
176
     1
 40
1.0
176
     1
 90
        1
176
     1
 90
        6
176
     1
 90
        2
176
     1
 62
     7
176
     1
 90
        5
176
     1
 90
        0
176
     1
 90
        0
176
     1
290
     0
176
     1
 90
        1
176
     1
 40
0.0
176
     1
 90
        0
176
     1
290
     0
176
     1
290
     1
176
     1
290
     1
176
     1
290
     0
176
     1
290
     0
176
     1
290
     0
176
     1
290
     0
176
     1
290
     0
176
     1
290
     0
176
     1
 90
       50
176
     1
 40
0.0
176
     1
 40
1.0
176
     1
 90
        0
176
     1
 62
    18
176
     1
 90
       50
176
     1
 90
        3
176
     1
 62
     5
420
      255
176
     1
290
     0
176
     1
 90
       50
176
     1
 90
       50
176
     1
 90
       50
176
     1
290
     0
176
     1
 90
       50
176
     1
 62
   256
176
     0
 40
1.0
176
     0
 90
        2
176
     1
  1
strokes_ogs.tif
176
     1
290
     0
176
     1
 40
1.0
176
     1
 40
1.0
176
     1
  0
VISUALSTYLE
  5
35
102
{ACAD_REACTORS
330
29
102
}
330
29
100
AcDbVisualStyle
  2
Brighten
 70
    12
177
     3
291
     1
 70
    58
 90
        2
176
     1
 90
        2
176
     1
 90
        0
176
     1
 90
        0
176
     1
 40
0.6
176
     1
 40
30.0
176
     1
 62
     7
420
 16777215
176
     1
 90
        1
176
     1
 90
        4
176
     1
 62
     7
176
     1
 62
   257
176
     1
 90
        1
176
     1
 90
        1
176
     1
 40
1.0
176
     1
 90
        8
176
     1
 62
     7
176
     1
 40
1.0
176
     1
 90
        1
176
     1
 90
        6
176
     1
 90
        2
176
     1
 62
     7
176
     1
 90
        5
176
     1
 90
        0
176
     1
 90
        0
176
     1
290
     0
176
     1
 90
        1
176
     1
 40
50.0
176
     1
 90
        0
176
     1
290
     0
176
     1
290
     1
176
     1
290
     1
176
     1
290
     0
176
     1
290
     0
176
     1
290
     0
176
     1
290
     0
176
     1
290
     0
176
     1
290
     0
176
     1
 90
       50
176
     1
 40
0.0
176
     1
 40
1.0
176
     1
 90
        0
176
     1
 62
    18
176
     1
 90
       50
176
     1
 90
        3
176
     1
 62
     5
420
      255
176
     1
290
     0
176
     1
 90
       50
176
     1
 90
       50
176
     1
 90
       50
176
     1
290
     0
176
     1
 90
       50
176
     1
 62
   256
176
     0
 40
1.0
176
     0
 90
        2
176
     1
  1
strokes_ogs.tif
176
     1
290
     0
176
     1
 40
1.0
176
     1
 40
1.0
176
     1
  0
VISUALSTYLE
  5
39
102
{ACAD_REACTORS
330
29
102
}
330
29
100
AcDbVisualStyle
  2
ColorChange
 70
    16
177
     3
291
     1
 70
    58
 90
        2
176
     1
 90
        2
176
     1
 90
        3
176
     1
 90
        0
176
     1
 40
0.6
176
     1
 40
30.0
176
     1
 62
     8
420
  8421504
176
     1
 90
        1
176
     1
 90
        4
176
     1
 62
     7
176
     1
 62
   257
176
     1
 90
        1
176
     1
 90
        1
176
     1
 40
1.0
176
     1
 90
        8
176
     1
 62
     8
420
  8421504
176
     1
 40
1.0
176
     1
 90
        1
176
     1
 90
        6
176
     1
 90
        2
176
     1
 62
     7
176
     1
 90
        5
176
     1
 90
        0
176
     1
 90
        0
176
     1
290
     0
176
     1
 90
        1
176
     1
 40
0.0
176
     1
 90
        0
176
     1
290
     0
176
     1
290
     1
176
     1
290
     1
176
     1
290
     0
176
     1
290
     0
176
     1
290
     0
176
     1
290
     0
176
     1
290
     0
176
     1
290
     0
176
     1
 90
       50
176
     1
 40
0.0
176
     1
 40
1.0
176
     1
 90
        0
176
     1
 62
    18
176
     1
 90
       50
176
     1
 90
        3
176
     1
 62
     5
420
      255
176
     1
290
     0
176
     1
 90
       50
176
     1
 90
       50
176
     1
 90
       50
176
     1
290
     0
176
     1
 90
       50
176
     1
 62
   256
176
     0
 40
1.0
176
     0
 90
        2
176
     1
  1
strokes_ogs.tif
176
     1
290
     0
176
     1
 40
1.0
176
     1
 40
1.0
176
     1
  0
VISUALSTYLE
  5
32
102
{ACAD_REACTORS
330
29
102
}
330
29
100
AcDbVisualStyle
  2
Conceptual
 70
     9
177
     3
291
     0
 70
    58
 90
        3
176
     1
 90
        2
176
     1
 90
        0
176
     1
 90
        0
176
     1
 40
0.6
176
     1
 40
30.0
176
     1
 62
     7
420
 16777215
176
     1
 90
        2
176
     1
 90
        2
176
     1
 62
     7
176
     1
 62
   257
176
     1
 90
        1
176
     1
 90
        1
176
     1
 40
179.0
176
     1
 90
        8
176
     1
 62
     7
176
     1
 40
1.0
176
     1
 90
        1
176
     1
 90
        6
176
     1
 90
        2
176
     1
 62
     7
176
     1
 90
        3
176
     1
 90
        0
176
     1
 90
        0
176
     1
290
     0
176
     1
 90
        1
176
     1
 40
0.0
176
     1
 90
        0
176
     1
290
     0
176
     1
290
     1
176
     1
290
     1
176
     1
290
     0
176
     1
290
     0
176
     1
290
     0
176
     1
290
     0
176
     1
290
     0
176
     1
290
     0
176
     1
 90
       50
176
     1
 40
0.0
176
     1
 40
1.0
176
     1
 90
        0
176
     1
 62
    18
176
     1
 90
       50
176
     1
 90
        3
176
     1
 62
     5
420
      255
176
     1
290
     0
176
     1
 90
       50
176
     1
 90
       50
176
     1
 90
       50
176
     1
290
     0
176
     1
 90
       50
176
     1
 62
   256
176
     0
 40
1.0
176
     0
 90
        2
176
     1
  1
strokes_ogs.tif
176
     1
290
     0
176
     1
 40
1.0
176
     1
 40
1.0
176
     1
  0
VISUALSTYLE
  5
34
102
{ACAD_REACTORS
330
29
102
}
330
29
100
AcDbVisualStyle
  2
Dim
 70
    11
177
     3
291
     1
 70
    58
 90
        2
176
     1
 90
        2
176
     1
 90
        0
176
     1
 90
        0
176
     1
 40
0.6
176
     1
 40
30.0
176
     1
 62
     7
420
 16777215
176
     1
 90
        1
176
     1
 90
        4
176
     1
 62
     7
176
     1
 62
   257
176
     1
 90
        1
176
     1
 90
        1
176
     1
 40
1.0
176
     1
 90
        8
176
     1
 62
     7
176
     1
 40
1.0
176
     1
 90
        1
176
     1
 90
        6
176
     1
 90
        2
176
     1
 62
     7
176
     1
 90
        5
176
     1
 90
        0
176
     1
 90
        0
176
     1
290
     0
176
     1
 90
        1
176
     1
 40
-50.0
176
     1
 90
        0
176
     1
290
     0
176
     1
290
     1
176
     1
290
     1
176
     1
290
     0
176
     1
290
     0
176
     1
290
     0
176
     1
290
     0
176
     1
290
     0
176
     1
290
     0
176
     1
 90
       50
176
     1
 40
0.0
176
     1
 40
1.0
176
     1
 90
        0
176
     1
 62
    18
176
     1
 90
       50
176
     1
 90
        3
176
     1
 62
     5
420
      255
176
     1
290
     0
176
     1
 90
       50
176
     1
 90
       50
176
     1
 90
       50
176
     1
290
     0
176
     1
 90
       50
176
     1
 62
   256
176
     0
 40
1.0
176
     0
 90
        2
176
     1
  1
strokes_ogs.tif
176
     1
290
     0
176
     1
 40
1.0
176
     1
 40
1.0
176
     1
  0
VISUALSTYLE
  5
41
102
{ACAD_REACTORS
330
29
102
}
330
29
100
AcDbVisualStyle
  2
EdgeColorOff
 70
    22
177
     3
291
     1
 70
    58
 90
        2
176
     0
 90
        2
176
     0
 90
        0
176
     0
 90
        0
176
     0
 40
0.6
176
     0
 40
30.0
176
     0
 62
     7
420
 16777215
176
     0
 90
        1
176
     0
 90
        4
176
     0
 62
     7
176
     0
 62
   257
176
     0
 90
        1
176
     0
 90
        1
176
     0
 40
1.0
176
     0
 90
        8
176
     2
 62
     7
176
     0
 40
1.0
176
     0
 90
        1
176
     0
 90
        6
176
     0
 90
        2
176
     0
 62
     7
176
     0
 90
        5
176
     0
 90
        0
176
     0
 90
        0
176
     0
290
     0
176
     0
 90
        1
176
     0
 40
0.0
176
     0
 90
        0
176
     0
290
     0
176
     0
290
     1
176
     0
290
     1
176
     0
290
     0
176
     0
290
     0
176
     0
290
     0
176
     0
290
     0
176
     0
290
     0
176
     0
290
     0
176
     0
 90
       50
176
     0
 40
0.0
176
     0
 40
1.0
176
     0
 90
        0
176
     0
 62
    18
176
     0
 90
       50
176
     0
 90
        3
176
     0
 62
     5
420
      255
176
     0
290
     0
176
     0
 90
       50
176
     0
 90
       50
176
     0
 90
       50
176
     0
290
     0
176
     0
 90
       50
176
     0
 62
   256
176
     0
 40
1.0
176
     0
 90
        2
176
     0
  1
strokes_ogs.tif
176
     0
290
     0
176
     0
 40
1.0
176
     0
 40
1.0
176
     0
  0
VISUALSTYLE
  5
38
102
{ACAD_REACTORS
330
29
102
}
330
29
100
AcDbVisualStyle
  2
Facepattern
 70
    15
177
     3
291
     1
 70
    58
 90
        2
176
     1
 90
        2
176
     1
 90
        0
176
     1
 90
        0
176
     1
 40
0.6
176
     1
 40
30.0
176
     1
 62
     7
420
 16777215
176
     1
 90
        1
176
     1
 90
        4
176
     1
 62
     7
176
     1
 62
   257
176
     1
 90
        1
176
     1
 90
        1
176
     1
 40
1.0
176
     1
 90
        8
176
     1
 62
     7
176
     1
 40
1.0
176
     1
 90
        1
176
     1
 90
        6
176
     1
 90
        2
176
     1
 62
     7
176
     1
 90
        5
176
     1
 90
        0
176
     1
 90
        0
176
     1
290
     0
176
     1
 90
        1
176
     1
 40
0.0
176
     1
 90
        0
176
     1
290
     0
176
     1
290
     1
176
     1
290
     1
176
     1
290
     0
176
     1
290
     0
176
     1
290
     0
176
     1
290
     0
176
     1
290
     0
176
     1
290
     0
176
     1
 90
       50
176
     1
 40
0.0
176
     1
 40
1.0
176
     1
 90
        0
176
     1
 62
    18
176
     1
 90
       50
176
     1
 90
        3
176
     1
 62
     5
420
      255
176
     1
290
     0
176
     1
 90
       50
176
     1
 90
       50
176
     1
 90
       50
176
     1
290
     0
176
     1
 90
       50
176
     1
 62
   256
176
     0
 40
1.0
176
     0
 90
        2
176
     1
  1
strokes_ogs.tif
176
     1
290
     0
176
     1
 40
1.0
176
     1
 40
1.0
176
     1
  0
VISUALSTYLE
  5
2A
102
{ACAD_REACTORS
330
29
102
}
330
29
100
AcDbVisualStyle
  2
Flat
 70
     0
177
     3
291
     1
 70
    58
 90
        2
176
     1
 90
        1
176
     1
 90
        1
176
     1
 90
        2
176
     1
 40
0.6
176
     1
 40
30.0
176
     1
 62
     7
420
 16777215
176
     1
 90
        0
176
     1
 90
        0
176
     1
 62
     7
176
     1
 62
   257
176
     1
 90
        1
176
     1
 90
        1
176
     1
 40
1.0
176
     1
 90
        8
176
     1
 62
     7
176
     1
 40
1.0
176
     1
 90
        1
176
     1
 90
        6
176
     1
 90
        2
176
     1
 62
     7
176
     1
 90
        5
176
     1
 90
        0
176
     1
 90
        0
176
     1
290
     0
176
     1
 90
       13
176
     1
 40
0.0
176
     1
 90
        0
176
     1
290
     0
176
     1
290
     1
176
     1
290
     1
176
     1
290
     0
176
     1
290
     0
176
     1
290
     0
176
     1
290
     0
176
     1
290
     0
176
     1
290
     0
176
     1
 90
       50
176
     1
 40
0.0
176
     1
 40
1.0
176
     1
 90
        0
176
     1
 62
    18
176
     1
 90
       50
176
     1
 90
        3
176
     1
 62
     5
420
      255
176
     1
290
     0
176
     1
 90
       50
176
     1
 90
       50
176
     1
 90
       50
176
     1
290
     0
176
     1
 90
       50
176
     1
 62
   256
176
     0
 40
1.0
176
     0
 90
        2
176
     1
  1
strokes_ogs.tif
176
     1
290
     0
176
     1
 40
1.0
176
     1
 40
1.0
176
     1
  0
VISUALSTYLE
  5
2B
102
{ACAD_REACTORS
330
29
102
}
330
29
100
AcDbVisualStyle
  2
FlatWithEdges
 70
     1
177
     3
291
     1
 70
    58
 90
        2
176
     1
 90
        1
176
     1
 90
        1
176
     1
 90
        2
176
     1
 40
0.6
176
     1
 40
30.0
176
     1
 62
     7
420
 16777215
176
     1
 90
        1
176
     1
 90
        0
176
     1
 62
     7
176
     1
 62
   257
176
     1
 90
        1
176
     1
 90
        1
176
     1
 40
1.0
176
     1
 90
        0
176
     1
 62
   257
176
     1
 40
1.0
176
     1
 90
        1
176
     1
 90
        6
176
     1
 90
        2
176
     1
 62
     7
176
     1
 90
        5
176
     1
 90
        0
176
     1
 90
        0
176
     1
290
     0
176
     1
 90
       13
176
     1
 40
0.0
176
     1
 90
        0
176
     1
290
     0
176
     1
290
     1
176
     1
290
     1
176
     1
290
     0
176
     1
290
     0
176
     1
290
     0
176
     1
290
     0
176
     1
290
     0
176
     1
290
     0
176
     1
 90
       50
176
     1
 40
0.0
176
     1
 40
1.0
176
     1
 90
        0
176
     1
 62
    18
176
     1
 90
       50
176
     1
 90
        3
176
     1
 62
     5
420
      255
176
     1
290
     0
176
     1
 90
       50
176
     1
 90
       50
176
     1
 90
       50
176
     1
290
     0
176
     1
 90
       50
176
     1
 62
   256
176
     0
 40
1.0
176
     0
 90
        2
176
     1
  1
strokes_ogs.tif
176
     1
290
     0
176
     1
 40
1.0
176
     1
 40
1.0
176
     1
  0
VISUALSTYLE
  5
2C
102
{ACAD_REACTORS
330
29
102
}
330
29
100
AcDbVisualStyle
  2
Gouraud
 70
     2
177
     3
291
     1
 70
    58
 90
        2
176
     1
 90
        2
176
     1
 90
        1
176
     1
 90
        2
176
     1
 40
0.6
176
     1
 40
30.0
176
     1
 62
     7
420
 16777215
176
     1
 90
        0
176
     1
 90
        0
176
     1
 62
     7
176
     1
 62
   257
176
     1
 90
        1
176
     1
 90
        1
176
     1
 40
1.0
176
     1
 90
        0
176
     1
 62
     7
176
     1
 40
1.0
176
     1
 90
        1
176
     1
 90
        6
176
     1
 90
        2
176
     1
 62
     7
176
     1
 90
        5
176
     1
 90
        0
176
     1
 90
        0
176
     1
290
     0
176
     1
 90
       13
176
     1
 40
0.0
176
     1
 90
        0
176
     1
290
     0
176
     1
290
     1
176
     1
290
     1
176
     1
290
     0
176
     1
290
     0
176
     1
290
     0
176
     1
290
     0
176
     1
290
     0
176
     1
290
     0
176
     1
 90
       50
176
     1
 40
0.0
176
     1
 40
1.0
176
     1
 90
        0
176
     1
 62
    18
176
     1
 90
       50
176
     1
 90
        3
176
     1
 62
     5
420
      255
176
     1
290
     0
176
     1
 90
       50
176
     1
 90
       50
176
     1
 90
       50
176
     1
290
     0
176
     1
 90
       50
176
     1
 62
   256
176
     0
 40
1.0
176
     0
 90
        2
176
     1
  1
strokes_ogs.tif
176
     1
290
     0
176
     1
 40
1.0
176
     1
 40
1.0
176
     1
  0
VISUALSTYLE
  5
2D
102
{ACAD_REACTORS
330
29
102
}
330
29
100
AcDbVisualStyle
  2
GouraudWithEdges
 70
     3
177
     3
291
     1
 70
    58
 90
        2
176
     1
 90
        2
176
     1
 90
        1
176
     1
 90
        2
176
     1
 40
0.6
176
     1
 40
30.0
176
     1
 62
     7
420
 16777215
176
     1
 90
        1
176
     1
 90
        0
176
     1
 62
     7
176
     1
 62
   257
176
     1
 90
        1
176
     1
 90
        1
176
     1
 40
1.0
176
     1
 90
        0
176
     1
 62
   257
176
     1
 40
1.0
176
     1
 90
        1
176
     1
 90
        6
176
     1
 90
        2
176
     1
 62
     7
176
     1
 90
        5
176
     1
 90
        0
176
     1
 90
        0
176
     1
290
     0
176
     1
 90
       13
176
     1
 40
0.0
176
     1
 90
        0
176
     1
290
     0
176
     1
290
     1
176
     1
290
     1
176
     1
290
     0
176
     1
290
     0
176
     1
290
     0
176
     1
290
     0
176
     1
290
     0
176
     1
290
     0
176
     1
 90
       50
176
     1
 40
0.0
176
     1
 40
1.0
176
     1
 90
        0
176
     1
 62
    18
176
     1
 90
       50
176
     1
 90
        3
176
     1
 62
     5
420
      255
176
     1
290
     0
176
     1
 90
       50
176
     1
 90
       50
176
     1
 90
       50
176
     1
290
     0
176
     1
 90
       50
176
     1
 62
   256
176
     0
 40
1.0
176
     0
 90
        2
176
     1
  1
strokes_ogs.tif
176
     1
290
     0
176
     1
 40
1.0
176
     1
 40
1.0
176
     1
  0
VISUALSTYLE
  5
31
102
{ACAD_REACTORS
330
29
102
}
330
29
100
AcDbVisualStyle
  2
Hidden
 70
     6
177
     3
291
     0
 70
    58
 90
        1
176
     1
 90
        2
176
     1
 90
        2
176
     1
 90
        0
176
     1
 40
0.6
176
     1
 40
30.0
176
     1
 62
     7
420
 16777215
176
     1
 90
        2
176
     1
 90
        2
176
     1
 62
     7
176
     1
 62
   257
176
     1
 90
        2
176
     1
 90
        1
176
     1
 40
40.0
176
     1
 90
        0
176
     1
 62
   257
176
     1
 40
1.0
176
     1
 90
        1
176
     1
 90
        6
176
     1
 90
        2
176
     1
 62
     7
176
     1
 90
        3
176
     1
 90
        0
176
     1
 90
        0
176
     1
290
     0
176
     1
 90
        1
176
     1
 40
0.0
176
     1
 90
        0
176
     1
290
     0
176
     1
290
     1
176
     1
290
     1
176
     1
290
     0
176
     1
290
     0
176
     1
290
     0
176
     1
290
     0
176
     1
290
     0
176
     1
290
     0
176
     1
 90
       50
176
     1
 40
0.0
176
     1
 40
1.0
176
     1
 90
        0
176
     1
 62
    18
176
     1
 90
       50
176
     1
 90
        3
176
     1
 62
     5
420
      255
176
     1
290
     0
176
     1
 90
       50
176
     1
 90
       50
176
     1
 90
       50
176
     1
290
     0
176
     1
 90
       50
176
     1
 62
   256
176
     0
 40
1.0
176
     0
 90
        2
176
     1
  1
strokes_ogs.tif
176
     1
290
     0
176
     1
 40
1.0
176
     1
 40
1.0
176
     1
  0
VISUALSTYLE
  5
3F
102
{ACAD_REACTORS
330
29
102
}
330
29
100
AcDbVisualStyle
  2
JitterOff
 70
    20
177
     3
291
     1
 70
    58
 90
        2
176
     0
 90
        2
176
     0
 90
        0
176
     0
 90
        0
176
     0
 40
0.6
176
     0
 40
30.0
176
     0
 62
     7
420
 16777215
176
     0
 90
        1
176
     0
 90
        4
176
     0
 62
     7
176
     0
 62
   257
176
     0
 90
        1
176
     0
 90
        1
176
     0
 40
1.0
176
     0
 90
       10
176
     2
 62
     7
176
     0
 40
1.0
176
     0
 90
        1
176
     0
 90
        6
176
     0
 90
        2
176
     0
 62
     7
176
     0
 90
        5
176
     0
 90
        0
176
     0
 90
        0
176
     0
290
     0
176
     0
 90
        1
176
     0
 40
0.0
176
     0
 90
        0
176
     0
290
     0
176
     0
290
     1
176
     0
290
     1
176
     0
290
     0
176
     0
290
     0
176
     0
290
     0
176
     0
290
     0
176
     0
290
     0
176
     0
290
     0
176
     0
 90
       50
176
     0
 40
0.0
176
     0
 40
1.0
176
     0
 90
        0
176
     0
 62
    18
176
     0
 90
       50
176
     0
 90
        3
176
     0
 62
     5
420
      255
176
     0
290
     0
176
     0
 90
       50
176
     0
 90
       50
176
     0
 90
       50
176
     0
290
     0
176
     0
 90
       50
176
     0
 62
   256
176
     0
 40
1.0
176
     0
 90
        2
176
     0
  1
strokes_ogs.tif
176
     0
290
     0
176
     0
 40
1.0
176
     0
 40
1.0
176
     0
  0
VISUALSTYLE
  5
37
102
{ACAD_REACTORS
330
29
102
}
330
29
100
AcDbVisualStyle
  2
Linepattern
 70
    14
177
     3
291
     1
 70
    58
 90
        2
176
     1
 90
        2
176
     1
 90
        0
176
     1
 90
        0
176
     1
 40
0.6
176
     1
 40
30.0
176
     1
 62
     7
420
 16777215
176
     1
 90
        1
176
     1
 90
        4
176
     1
 62
     7
176
     1
 62
   257
176
     1
 90
        7
176
     1
 90
        7
176
     1
 40
1.0
176
     1
 90
        8
176
     1
 62
     7
176
     1
 40
1.0
176
     1
 90
        1
176
     1
 90
        6
176
     1
 90
        2
176
     1
 62
     7
176
     1
 90
        5
176
     1
 90
        0
176
     1
 90
        0
176
     1
290
     0
176
     1
 90
        1
176
     1
 40
0.0
176
     1
 90
        0
176
     1
290
     0
176
     1
290
     1
176
     1
290
     1
176
     1
290
     0
176
     1
290
     0
176
     1
290
     0
176
     1
290
     0
176
     1
290
     0
176
     1
290
     0
176
     1
 90
       50
176
     1
 40
0.0
176
     1
 40
1.0
176
     1
 90
        0
176
     1
 62
    18
176
     1
 90
       50
176
     1
 90
        3
176
     1
 62
     5
420
      255
176
     1
290
     0
176
     1
 90
       50
176
     1
 90
       50
176
     1
 90
       50
176
     1
290
     0
176
     1
 90
       50
176
     1
 62
   256
176
     0
 40
1.0
176
     0
 90
        2
176
     1
  1
strokes_ogs.tif
176
     1
290
     0
176
     1
 40
1.0
176
     1
 40
1.0
176
     1
  0
VISUALSTYLE
  5
40
102
{ACAD_REACTORS
330
29
102
}
330
29
100
AcDbVisualStyle
  2
OverhangOff
 70
    21
177
     3
291
     1
 70
    58
 90
        2
176
     0
 90
        2
176
     0
 90
        0
176
     0
 90
        0
176
     0
 40
0.6
176
     0
 40
30.0
176
     0
 62
     7
420
 16777215
176
     0
 90
        1
176
     0
 90
        4
176
     0
 62
     7
176
     0
 62
   257
176
     0
 90
        1
176
     0
 90
        1
176
     0
 40
1.0
176
     0
 90
        9
176
     2
 62
     7
176
     0
 40
1.0
176
     0
 90
        1
176
     0
 90
        6
176
     0
 90
        2
176
     0
 62
     7
176
     0
 90
        5
176
     0
 90
        0
176
     0
 90
        0
176
     0
290
     0
176
     0
 90
        1
176
     0
 40
0.0
176
     0
 90
        0
176
     0
290
     0
176
     0
290
     1
176
     0
290
     1
176
     0
290
     0
176
     0
290
     0
176
     0
290
     0
176
     0
290
     0
176
     0
290
     0
176
     0
290
     0
176
     0
 90
       50
176
     0
 40
0.0
176
     0
 40
1.0
176
     0
 90
        0
176
     0
 62
    18
176
     0
 90
       50
176
     0
 90
        3
176
     0
 62
     5
420
      255
176
     0
290
     0
176
     0
 90
       50
176
     0
 90
       50
176
     0
 90
       50
176
     0
290
     0
176
     0
 90
       50
176
     0
 62
   256
176
     0
 40
1.0
176
     0
 90
        2
176
     0
  1
strokes_ogs.tif
176
     0
290
     0
176
     0
 40
1.0
176
     0
 40
1.0
176
     0
  0
VISUALSTYLE
  5
33
102
{ACAD_REACTORS
330
29
102
}
330
29
100
AcDbVisualStyle
  2
Realistic
 70
     8
177
     3
291
     0
 70
    58
 90
        2
176
     1
 90
        3
176
     1
 90
        0
176
     1
 90
        2
176
     1
 40
0.6
176
     1
 40
30.0
176
     1
 62
     7
420
 16777215
176
     1
 90
        0
176
     1
 90
        0
176
     1
 62
     7
176
     1
 62
   257
176
     1
 90
        1
176
     1
 90
        1
176
     1
 40
1.0
176
     1
 90
        8
176
     1
 62
   257
176
     1
 40
1.0
176
     1
 90
        1
176
     1
 90
        6
176
     1
 90
        2
176
     1
 62
     7
176
     1
 90
        3
176
     1
 90
        0
176
     1
 90
        0
176
     1
290
     0
176
     1
 90
       13
176
     1
 40
0.0
176
     1
 90
        0
176
     1
290
     0
176
     1
290
     1
176
     1
290
     1
176
     1
290
     0
176
     1
290
     0
176
     1
290
     0
176
     1
290
     0
176
     1
290
     0
176
     1
290
     0
176
     1
 90
       50
176
     1
 40
0.0
176
     1
 40
1.0
176
     1
 90
        0
176
     1
 62
    18
176
     1
 90
       50
176
     1
 90
        3
176
     1
 62
     5
420
      255
176
     1
290
     0
176
     1
 90
       50
176
     1
 90
       50
176
     1
 90
       50
176
     1
290
     0
176
     1
 90
       50
176
     1
 62
   256
176
     0
 40
1.0
176
     0
 90
        2
176
     1
  1
strokes_ogs.tif
176
     1
290
     0
176
     1
 40
1.0
176
     1
 40
1.0
176
     1
  0
VISUALSTYLE
  5
3E
102
{ACAD_REACTORS
330
29
102
}
330
29
100
AcDbVisualStyle
  2
Shaded
 70
    27
177
     3
291
     0
 70
    58
 90
        2
176
     1
 90
        2
176
     1
 90
        1
176
     1
 90
        2
176
     1
 40
0.6
176
     1
 40
30.0
176
     1
 62
     7
420
 16777215
176
     1
 90
        0
176
     1
 90
        4
176
     1
 62
     7
176
     1
 62
   257
176
     1
 90
        1
176
     1
 90
        1
176
     1
 40
1.0
176
     1
 90
        8
176
     1
 62
   257
176
     1
 40
1.0
176
     1
 90
        1
176
     1
 90
        6
176
     1
 90
        2
176
     1
 62
     8
420
  7895160
176
     1
 90
        3
176
     1
 90
        0
176
     1
 90
        0
176
     1
290
     0
176
     1
 90
        5
176
     1
 40
0.0
176
     1
 90
        0
176
     1
290
     0
176
     1
290
     1
176
     1
290
     1
176
     1
290
     0
176
     1
290
     0
176
     1
290
     0
176
     1
290
     0
176
     1
290
     0
176
     1
290
     0
176
     1
 90
       50
176
     1
 40
0.0
176
     1
 40
1.0
176
     1
 90
        0
176
     1
 62
    18
176
     1
 90
       50
176
     1
 90
        3
176
     1
 62
     5
420
      255
176
     1
290
     0
176
     1
 90
       50
176
     1
 90
       50
176
     1
 90
       50
176
     1
290
     0
176
     1
 90
       50
176
     1
 62
   256
176
     0
 40
1.0
176
     0
 90
        2
176
     1
  1
strokes_ogs.tif
176
     1
290
     0
176
     1
 40
1.0
176
     1
 40
1.0
176
     1
  0
VISUALSTYLE
  5
3D
102
{ACAD_REACTORS
330
29
102
}
330
29
100
AcDbVisualStyle
  2
Shaded with edges
 70
    26
177
     3
291
     0
 70
    58
 90
        2
176
     1
 90
        2
176
     1
 90
        1
176
     1
 90
        2
176
     1
 40
0.6
176
     1
 40
30.0
176
     1
 62
     7
420
 16777215
176
     1
 90
        1
176
     1
 90
       10
176
     1
 62
     7
176
     1
 62
   257
176
     1
 90
        2
176
     1
 90
        1
176
     1
 40
1.0
176
     1
 90
        8
176
     1
 62
   257
176
     1
 40
1.0
176
     1
 90
        1
176
     1
 90
        6
176
     1
 90
        2
176
     1
 62
     7
176
     1
 90
        3
176
     1
 90
        0
176
     1
 90
        0
176
     1
290
     0
176
     1
 90
        5
176
     1
 40
0.0
176
     1
 90
        0
176
     1
290
     0
176
     1
290
     1
176
     1
290
     1
176
     1
290
     0
176
     1
290
     0
176
     1
290
     0
176
     1
290
     0
176
     1
290
     0
176
     1
290
     0
176
     1
 90
       50
176
     1
 40
0.0
176
     1
 40
1.0
176
     1
 90
        0
176
     1
 62
    18
176
     1
 90
       50
176
     1
 90
        3
176
     1
 62
     5
420
      255
176
     1
290
     0
176
     1
 90
       50
176
     1
 90
       50
176
     1
 90
       50
176
     1
290
     0
176
     1
 90
       50
176
     1
 62
   256
176
     0
 40
1.0
176
     0
 90
        2
176
     1
  1
strokes_ogs.tif
176
     1
290
     0
176
     1
 40
1.0
176
     1
 40
1.0
176
     1
  0
VISUALSTYLE
  5
3A
102
{ACAD_REACTORS
330
29
102
}
330
29
100
AcDbVisualStyle
  2
Shades of Gray
 70
    23
177
     3
291
     0
 70
    58
 90
        2
176
     1
 90
        2
176
     1
 90
        3
176
     1
 90
        0
176
     1
 40
0.6
176
     1
 40
30.0
176
     1
 62
     7
420
 16777215
176
     1
 90
        2
176
     1
 90
        2
176
     1
 62
     7
176
     1
 62
     7
176
     1
 90
        1
176
     1
 90
        1
176
     1
 40
40.0
176
     1
 90
        8
176
     1
 62
     7
176
     1
 40
1.0
176
     1
 90
        1
176
     1
 90
        6
176
     1
 90
        2
176
     1
 62
     7
176
     1
 90
        3
176
     1
 90
        0
176
     1
 90
        0
176
     1
290
     0
176
     1
 90
        1
176
     1
 40
0.0
176
     1
 90
        0
176
     1
290
     0
176
     1
290
     1
176
     1
290
     1
176
     1
290
     0
176
     1
290
     0
176
     1
290
     0
176
     1
290
     0
176
     1
290
     0
176
     1
290
     0
176
     1
 90
       50
176
     1
 40
0.0
176
     1
 40
1.0
176
     1
 90
        0
176
     1
 62
    18
176
     1
 90
       50
176
     1
 90
        3
176
     1
 62
     5
420
      255
176
     1
290
     0
176
     1
 90
       50
176
     1
 90
       50
176
     1
 90
       50
176
     1
290
     0
176
     1
 90
       50
176
     1
 62
   256
176
     0
 40
1.0
176
     0
 90
        2
176
     1
  1
strokes_ogs.tif
176
     1
290
     0
176
     1
 40
1.0
176
     1
 40
1.0
176
     1
  0
VISUALSTYLE
  5
3B
102
{ACAD_REACTORS
330
29
102
}
330
29
100
AcDbVisualStyle
  2
Sketchy
 70
    24
177
     3
291
     0
 70
    58
 90
        1
176
     1
 90
        2
176
     1
 90
        2
176
     1
 90
        0
176
     1
 40
0.6
176
     1
 40
30.0
176
     1
 62
     7
420
 16777215
176
     1
 90
        2
176
     1
 90
        2
176
     1
 62
     7
176
     1
 62
     7
176
     1
 90
        1
176
     1
 90
        1
176
     1
 40
40.0
176
     1
 90
       11
176
     1
 62
     7
176
     1
 40
1.0
176
     1
 90
        1
176
     1
 90
        6
176
     1
 90
        2
176
     1
 62
     7
176
     1
 90
        6
176
     1
 90
        0
176
     1
 90
        0
176
     1
290
     0
176
     1
 90
        1
176
     1
 40
0.0
176
     1
 90
        0
176
     1
290
     0
176
     1
290
     1
176
     1
290
     1
176
     1
290
     0
176
     1
290
     0
176
     1
290
     0
176
     1
290
     0
176
     1
290
     0
176
     1
290
     0
176
     1
 90
       50
176
     1
 40
0.0
176
     1
 40
1.0
176
     1
 90
        0
176
     1
 62
    18
176
     1
 90
       50
176
     1
 90
        3
176
     1
 62
     5
420
      255
176
     1
290
     0
176
     1
 90
       50
176
     1
 90
       50
176
     1
 90
       50
176
     1
290
     0
176
     1
 90
       50
176
     1
 62
   256
176
     0
 40
1.0
176
     0
 90
        2
176
     1
  1
strokes_ogs.tif
176
     1
290
     0
176
     1
 40
1.0
176
     1
 40
1.0
176
     1
  0
VISUALSTYLE
  5
36
102
{ACAD_REACTORS
330
29
102
}
330
29
100
AcDbVisualStyle
  2
Thicken
 70
    13
177
     3
291
     1
 70
    58
 90
        2
176
     1
 90
        2
176
     1
 90
        0
176
     1
 90
        0
176
     1
 40
0.6
176
     1
 40
30.0
176
     1
 62
     7
420
 16777215
176
     1
 90
        1
176
     1
 90
        4
176
     1
 62
     7
176
     1
 62
   257
176
     1
 90
        1
176
     1
 90
        1
176
     1
 40
1.0
176
     1
 90
       12
176
     1
 62
     7
176
     1
 40
1.0
176
     1
 90
        1
176
     1
 90
        6
176
     1
 90
        2
176
     1
 62
     7
176
     1
 90
        5
176
     1
 90
        0
176
     1
 90
        0
176
     1
290
     0
176
     1
 90
        1
176
     1
 40
0.0
176
     1
 90
        0
176
     1
290
     0
176
     1
290
     1
176
     1
290
     1
176
     1
290
     0
176
     1
290
     0
176
     1
290
     0
176
     1
290
     0
176
     1
290
     0
176
     1
290
     0
176
     1
 90
       50
176
     1
 40
0.0
176
     1
 40
1.0
176
     1
 90
        0
176
     1
 62
    18
176
     1
 90
       50
176
     1
 90
        3
176
     1
 62
     5
420
      255
176
     1
290
     0
176
     1
 90
       50
176
     1
 90
       50
176
     1
 90
       50
176
     1
290
     0
176
     1
 90
       50
176
     1
 62
   256
176
     0
 40
1.0
176
     0
 90
        2
176
     1
  1
strokes_ogs.tif
176
     1
290
     0
176
     1
 40
1.0
176
     1
 40
1.0
176
     1
  0
VISUALSTYLE
  5
30
102
{ACAD_REACTORS
330
29
102
}
330
29
100
AcDbVisualStyle
  2
Wireframe
 70
     5
177
     3
291
     0
 70
    58
 90
        0
176
     1
 90
        2
176
     1
 90
        0
176
     1
 90
        0
176
     1
 40
0.6
176
     1
 40
30.0
176
     1
 62
     7
420
 16777215
176
     1
 90
        1
176
     1
 90
        4
176
     1
 62
     7
176
     1
 62
   257
176
     1
 90
        1
176
     1
 90
        1
176
     1
 40
1.0
176
     1
 90
        0
176
     1
 62
   257
176
     1
 40
1.0
176
     1
 90
        1
176
     1
 90
        6
176
     1
 90
        2
176
     1
 62
     7
176
     1
 90
        3
176
     1
 90
        0
176
     1
 90
        0
176
     1
290
     0
176
     1
 90
        1
176
     1
 40
0.0
176
     1
 90
        0
176
     1
290
     0
176
     1
290
     1
176
     1
290
     1
176
     1
290
     0
176
     1
290
     0
176
     1
290
     0
176
     1
290
     0
176
     1
290
     0
176
     1
290
     0
176
     1
 90
       50
176
     1
 40
0.0
176
     1
 40
1.0
176
     1
 90
        0
176
     1
 62
    18
176
     1
 90
       50
176
     1
 90
        3
176
     1
 62
     5
420
      255
176
     1
290
     0
176
     1
 90
       50
176
     1
 90
       50
176
     1
 90
       50
176
     1
290
     0
176
     1
 90
       50
176
     1
 62
   256
176
     0
 40
1.0
176
     0
 90
        2
176
     1
  1
strokes_ogs.tif
176
     1
290
     0
176
     1
 40
1.0
176
     1
 40
1.0
176
     1
  0
VISUALSTYLE
  5
3C
102
{ACAD_REACTORS
330
29
102
}
330
29
100
AcDbVisualStyle
  2
X-Ray
 70
    25
177
     3
291
     0
 70
    58
 90
        2
176
     1
 90
        2
176
     1
 90
        1
176
     1
 90
        1
176
     1
 40
0.5
176
     1
 40
30.0
176
     1
 62
     7
420
 16777215
176
     1
 90
        1
176
     1
 90
        0
176
     1
 62
     7
176
     1
 62
   257
176
     1
 90
        1
176
     1
 90
        1
176
     1
 40
1.0
176
     1
 90
        8
176
     1
 62
     7
176
     1
 40
1.0
176
     1
 90
        1
176
     1
 90
        6
176
     1
 90
        2
176
     1
 62
     7
176
     1
 90
        3
176
     1
 90
        0
176
     1
 90
        0
176
     1
290
     0
176
     1
 90
       13
176
     1
 40
0.0
176
     1
 90
        0
176
     1
290
     0
176
     1
290
     1
176
     1
290
     1
176
     1
290
     0
176
     1
290
     0
176
     1
290
     0
176
     1
290
     0
176
     1
290
     0
176
     1
290
     0
176
     1
 90
       50
176
     1
 40
0.0
176
     1
 40
1.0
176
     1
 90
        0
176
     1
 62
    18
176
     1
 90
       50
176
     1
 90
        3
176
     1
 62
     5
420
      255
176
     1
290
     0
176
     1
 90
       50
176
     1
 90
       50
176
     1
 90
       50
176
     1
290
     0
176
     1
 90
       50
176
     1
 62
   256
176
     0
 40
1.0
176
     0
 90
        2
176
     1
  1
strokes_ogs.tif
176
     1
290
     0
176
     1
 40
1.0
176
     1
 40
1.0
176
     1
  0
DICTIONARYVAR
  5
2DC
102
{ACAD_REACTORS
330
2D7
102
}
330
2D7
100
DictionaryVariables
280
     0
  1
0
  0
DICTIONARYVAR
  5
2DD
102
{ACAD_REACTORS
330
2D7
102
}
330
2D7
100
DictionaryVariables
280
     0
  1
1:1
  0
DICTIONARYVAR
  5
2D9
102
{ACAD_REACTORS
330
2D7
102
}
330
2D7
100
DictionaryVariables
280
     0
  1
STANDARD
  0
DICTIONARYVAR
  5
2D8
102
{ACAD_REACTORS
330
2D7
102
}
330
2D7
100
DictionaryVariables
280
     0
  1
STANDARD
  0
DICTIONARYVAR
  5
2DA
102
{ACAD_REACTORS
330
2D7
102
}
330
2D7
100
DictionaryVariables
280
     0
  1
Imperial24
  0
DICTIONARYVAR
  5
2DB
102
{ACAD_REACTORS
330
2D7
102
}
330
2D7
100
DictionaryVariables
280
     0
  1
Imperial24
  0
DICTIONARY
  5
298
330
6B
100
AcDbDictionary
280
     1
281
     1
  3
ACAD_XREC_ROUNDTRIP
360
764
  0
DICTIONARY
  5
758
330
2E0
100
AcDbDictionary
280
     1
281
     1
  3
ACAD_XREC_ROUNDTRIP
360
784
  0
DICTIONARY
  5
1A
330
19
100
AcDbDictionary
280
     1
281
     1
  3
BUMPTILE
360
1C
  3
DIFFUSETILE
360
1B
  3
OPACITYTILE
360
1F
  3
REFLECTIONTILE
360
1E
  3
REFRACTIONTILE
360
20
  3
SPECULARTILE
360
1D
  0
DICTIONARY
  5
12
330
11
100
AcDbDictionary
280
     1
281
     1
  3
BUMPTILE
360
14
  3
DIFFUSETILE
360
13
  3
OPACITYTILE
360
17
  3
REFLECTIONTILE
360
16
  3
REFRACTIONTILE
360
18
  3
SPECULARTILE
360
15
  0
DICTIONARY
  5
22
330
21
100
AcDbDictionary
280
     1
281
     1
  3
BUMPTILE
360
24
  3
DIFFUSETILE
360
23
  3
OPACITYTILE
360
27
  3
REFLECTIONTILE
360
26
  3
REFRACTIONTILE
360
28
  3
SPECULARTILE
360
25
  0
DICTIONARY
  5
296
330
69
100
AcDbDictionary
280
     1
281
     1
  3
ACAD_XREC_ROUNDTRIP
360
763
  0
DICTIONARY
  5
756
330
2DF
100
AcDbDictionary
280
     1
281
     1
  3
ACAD_XREC_ROUNDTRIP
360
783
  0
DICTIONARY
  5
734
330
65
100
AcDbDictionary
280
     1
281
     1
  3
ACAD_ROUNDTRIP_2008_TABLESTYLE_CELLSTYLEMAP
360
762
  0
XRECORD
  5
764
102
{ACAD_REACTORS
330
298
102
}
330
298
100
AcDbXrecord
280
     1
102
DISPLAYNAME
  1
Imperial24
102
FLAGS
 90
        0
  0
XRECORD
  5
784
102
{ACAD_REACTORS
330
758
102
}
330
758
100
AcDbXrecord
280
     1
102
DISPLAYNAME
  1
Metric50
102
FLAGS
 90
        0
  0
XRECORD
  5
1C
102
{ACAD_REACTORS
330
1A
102
}
330
1A
100
AcDbXrecord
280
     1
270
     1
271
     1
  0
XRECORD
  5
1B
102
{ACAD_REACTORS
330
1A
102
}
330
1A
100
AcDbXrecord
280
     1
270
     1
271
     1
  0
XRECORD
  5
1F
102
{ACAD_REACTORS
330
1A
102
}
330
1A
100
AcDbXrecord
280
     1
270
     1
271
     1
  0
XRECORD
  5
1E
102
{ACAD_REACTORS
330
1A
102
}
330
1A
100
AcDbXrecord
280
     1
270
     1
271
     1
  0
XRECORD
  5
20
102
{ACAD_REACTORS
330
1A
102
}
330
1A
100
AcDbXrecord
280
     1
270
     1
271
     1
  0
XRECORD
  5
1D
102
{ACAD_REACTORS
330
1A
102
}
330
1A
100
AcDbXrecord
280
     1
270
     1
271
     1
  0
XRECORD
  5
14
102
{ACAD_REACTORS
330
12
102
}
330
12
100
AcDbXrecord
280
     1
270
     1
271
     1
  0
XRECORD
  5
13
102
{ACAD_REACTORS
330
12
102
}
330
12
100
AcDbXrecord
280
     1
270
     1
271
     1
  0
XRECORD
  5
17
102
{ACAD_REACTORS
330
12
102
}
330
12
100
AcDbXrecord
280
     1
270
     1
271
     1
  0
XRECORD
  5
16
102
{ACAD_REACTORS
330
12
102
}
330
12
100
AcDbXrecord
280
     1
270
     1
271
     1
  0
XRECORD
  5
18
102
{ACAD_REACTORS
330
12
102
}
330
12
100
AcDbXrecord
280
     1
270
     1
271
     1
  0
XRECORD
  5
15
102
{ACAD_REACTORS
330
12
102
}
330
12
100
AcDbXrecord
280
     1
270
     1
271
     1
  0
XRECORD
  5
24
102
{ACAD_REACTORS
330
22
102
}
330
22
100
AcDbXrecord
280
     1
270
     1
271
     1
  0
XRECORD
  5
23
102
{ACAD_REACTORS
330
22
102
}
330
22
100
AcDbXrecord
280
     1
270
     1
271
     1
  0
XRECORD
  5
27
102
{ACAD_REACTORS
330
22
102
}
330
22
100
AcDbXrecord
280
     1
270
     1
271
     1
  0
XRECORD
  5
26
102
{ACAD_REACTORS
330
22
102
}
330
22
100
AcDbXrecord
280
     1
270
     1
271
     1
  0
XRECORD
  5
28
102
{ACAD_REACTORS
330
22
102
}
330
22
100
AcDbXrecord
280
     1
270
     1
271
     1
  0
XRECORD
  5
25
102
{ACAD_REACTORS
330
22
102
}
330
22
100
AcDbXrecord
280
     1
270
     1
271
     1
  0
XRECORD
  5
763
102
{ACAD_REACTORS
330
296
102
}
330
296
100
AcDbXrecord
280
     1
102
DISPLAYNAME
  1
Imperial24
102
FLAGS
 90
        0
  0
XRECORD
  5
783
102
{ACAD_REACTORS
330
756
102
}
330
756
100
AcDbXrecord
280
     1
102
DISPLAYNAME
  1
Metric50
102
FLAGS
 90
        0
  0
CELLSTYLEMAP
  5
762
102
{ACAD_REACTORS
330
734
102
}
330
734
100
AcDbCellStyleMap
 90
        3
300
CELLSTYLE
  1
TABLEFORMAT_BEGIN
 90
        5
170
     1
 91
        0
 92
    32768
 62
   257
 93
        1
300
CONTENTFORMAT
  1
CONTENTFORMAT_BEGIN
 90
        0
 91
        0
 92
      512
 93
        0
300

 40
0.0
140
1.0
 94
        5
 62
     0
340
55
144
6.0
309
CONTENTFORMAT_END
171
     1
301
MARGIN
  1
CELLMARGIN_BEGIN
 40
1.5
 40
1.5
 40
1.5
 40
1.5
 40
0.18
 40
0.18
309
CELLMARGIN_END
 94
        6
 95
        1
302
GRIDFORMAT
  1
GRIDFORMAT_BEGIN
 90
        0
 91
        1
 62
     0
 92
       -2
340
5B
 93
        0
 40
1.125
309
GRIDFORMAT_END
 95
        2
302
GRIDFORMAT
  1
GRIDFORMAT_BEGIN
 90
        0
 91
        1
 62
     0
 92
       -2
340
5B
 93
        0
 40
1.125
309
GRIDFORMAT_END
 95
        4
302
GRIDFORMAT
  1
GRIDFORMAT_BEGIN
 90
        0
 91
        1
 62
     0
 92
       -2
340
5B
 93
        0
 40
1.125
309
GRIDFORMAT_END
 95
        8
302
GRIDFORMAT
  1
GRIDFORMAT_BEGIN
 90
        0
 91
        1
 62
     0
 92
       -2
340
5B
 93
        0
 40
1.125
309
GRIDFORMAT_END
 95
       16
302
GRIDFORMAT
  1
GRIDFORMAT_BEGIN
 90
        0
 91
        1
 62
     0
 92
       -2
340
5B
 93
        0
 40
1.125
309
GRIDFORMAT_END
 95
       32
302
GRIDFORMAT
  1
GRIDFORMAT_BEGIN
 90
        0
 91
        1
 62
     0
 92
       -2
340
5B
 93
        0
 40
1.125
309
GRIDFORMAT_END
309
TABLEFORMAT_END
  1
CELLSTYLE_BEGIN
 90
        1
 91
        1
300
_TITLE
309
CELLSTYLE_END
300
CELLSTYLE
  1
TABLEFORMAT_BEGIN
 90
        5
170
     1
 91
        0
 92
        0
 62
   257
 93
        1
300
CONTENTFORMAT
  1
CONTENTFORMAT_BEGIN
 90
        0
 91
        0
 92
      512
 93
        0
300

 40
0.0
140
1.0
 94
        5
 62
     0
340
55
144
4.5
309
CONTENTFORMAT_END
171
     1
301
MARGIN
  1
CELLMARGIN_BEGIN
 40
1.5
 40
1.5
 40
1.5
 40
1.5
 40
0.18
 40
0.18
309
CELLMARGIN_END
 94
        6
 95
        1
302
GRIDFORMAT
  1
GRIDFORMAT_BEGIN
 90
        0
 91
        1
 62
     0
 92
       -2
340
5B
 93
        0
 40
1.125
309
GRIDFORMAT_END
 95
        2
302
GRIDFORMAT
  1
GRIDFORMAT_BEGIN
 90
        0
 91
        1
 62
     0
 92
       -2
340
5B
 93
        0
 40
1.125
309
GRIDFORMAT_END
 95
        4
302
GRIDFORMAT
  1
GRIDFORMAT_BEGIN
 90
        0
 91
        1
 62
     0
 92
       -2
340
5B
 93
        0
 40
1.125
309
GRIDFORMAT_END
 95
        8
302
GRIDFORMAT
  1
GRIDFORMAT_BEGIN
 90
        0
 91
        1
 62
     0
 92
       -2
340
5B
 93
        0
 40
1.125
309
GRIDFORMAT_END
 95
       16
302
GRIDFORMAT
  1
GRIDFORMAT_BEGIN
 90
        0
 91
        1
 62
     0
 92
       -2
340
5B
 93
        0
 40
1.125
309
GRIDFORMAT_END
 95
       32
302
GRIDFORMAT
  1
GRIDFORMAT_BEGIN
 90
        0
 91
        1
 62
     0
 92
       -2
340
5B
 93
        0
 40
1.125
309
GRIDFORMAT_END
309
TABLEFORMAT_END
  1
CELLSTYLE_BEGIN
 90
        2
 91
        1
300
_HEADER
309
CELLSTYLE_END
300
CELLSTYLE
  1
TABLEFORMAT_BEGIN
 90
        5
170
     1
 91
        0
 92
        0
 62
   257
 93
        1
300
CONTENTFORMAT
  1
CONTENTFORMAT_BEGIN
 90
        0
 91
        0
 92
      512
 93
        0
300

 40
0.0
140
1.0
 94
        2
 62
     0
340
55
144
4.5
309
CONTENTFORMAT_END
171
     1
301
MARGIN
  1
CELLMARGIN_BEGIN
 40
1.5
 40
1.5
 40
1.5
 40
1.5
 40
0.18
 40
0.18
309
CELLMARGIN_END
 94
        6
 95
        1
302
GRIDFORMAT
  1
GRIDFORMAT_BEGIN
 90
        0
 91
        1
 62
     0
 92
       -2
340
5B
 93
        0
 40
1.125
309
GRIDFORMAT_END
 95
        2
302
GRIDFORMAT
  1
GRIDFORMAT_BEGIN
 90
        0
 91
        1
 62
     0
 92
       -2
340
5B
 93
        0
 40
1.125
309
GRIDFORMAT_END
 95
        4
302
GRIDFORMAT
  1
GRIDFORMAT_BEGIN
 90
        0
 91
        1
 62
     0
 92
       -2
340
5B
 93
        0
 40
1.125
309
GRIDFORMAT_END
 95
        8
302
GRIDFORMAT
  1
GRIDFORMAT_BEGIN
 90
        0
 91
        1
 62
     0
 92
       -2
340
5B
 93
        0
 40
1.125
309
GRIDFORMAT_END
 95
       16
302
GRIDFORMAT
  1
GRIDFORMAT_BEGIN
 90
        0
 91
        1
 62
     0
 92
       -2
340
5B
 93
        0
 40
1.125
309
GRIDFORMAT_END
 95
       32
302
GRIDFORMAT
  1
GRIDFORMAT_BEGIN
 90
        0
 91
        1
 62
     0
 92
       -2
340
5B
 93
        0
 40
1.125
309
GRIDFORMAT_END
309
TABLEFORMAT_END
  1
CELLSTYLE_BEGIN
 90
        3
 91
        2
300
_DATA
309
CELLSTYLE_END
  0
ENDSEC
  0
SECTION
  2
ACDSDATA
 70
     2
 71
     6
  0
ACDSSCHEMA
 90
        0
  1
AcDb_Thumbnail_Schema
  2
AcDbDs::ID
280
    10
 91
        8
  2
Thumbnail_Data
280
    15
 91
        0
101
ACDSRECORD
 95
        0
 90
        1
  2
AcDbDs::TreatedAsObjectData
280
     1
291
     1
101
ACDSRECORD
 95
        0
 90
        2
  2
AcDbDs::Legacy
280
     1
291
     1
101
ACDSRECORD
  1
AcDbDs::ID
 90
        3
  2
AcDs:Indexable
280
     1
291
     1
101
ACDSRECORD
  1
AcDbDs::ID
 90
        4
  2
AcDbDs::HandleAttribute
280
     7
282
     1
  0
ACDSSCHEMA
 90
        1
  1
AcDbDs::TreatedAsObjectDataSchema
  2
AcDbDs::TreatedAsObjectData
280
     1
 91
        0
  0
ACDSSCHEMA
 90
        2
  1
AcDbDs::LegacySchema
  2
AcDbDs::Legacy
280
     1
 91
        0
  0
ACDSSCHEMA
 90
        3
  1
AcDbDs::IndexedPropertySchema
  2
AcDs:Indexable
280
     1
 91
        0
  0
ACDSSCHEMA
 90
        4
  1
AcDbDs::HandleAttributeSchema
  2
AcDbDs::HandleAttribute
280
     7
 91
        1
284
     1
  0
ACDSRECORD
 90
        0
  2
AcDbDs::ID
280
    10
320
73
  2
Thumbnail_Data
280
    15
 94
     1632
310
89504E470D0A1A0A0000000D4948445200000100000000890803000000F46416F000000300504C5445000000000000C8C8C80000000000000000000000000000000000000000000000000000330000660000990000CC0000FF0033000033330033660033990033CC0033FF0066000066330066660066990066CC0066FF0099
310
000099330099660099990099CC0099FF00CC0000CC3300CC6600CC9900CCCC00CCFF00FF0000FF3300FF6600FF9900FFCC00FFFF3300003300333300663300993300CC3300FF3333003333333333663333993333CC3333FF3366003366333366663366993366CC3366FF3399003399333399663399993399CC3399FF33CC00
310
33CC3333CC6633CC9933CCCC33CCFF33FF0033FF3333FF6633FF9933FFCC33FFFF6600006600336600666600996600CC6600FF6633006633336633666633996633CC6633FF6666006666336666666666996666CC6666FF6699006699336699666699996699CC6699FF66CC0066CC3366CC6666CC9966CCCC66CCFF66FF0066
310
FF3366FF6666FF9966FFCC66FFFF9900009900339900669900999900CC9900FF9933009933339933669933999933CC9933FF9966009966339966669966999966CC9966FF9999009999339999669999999999CC9999FF99CC0099CC3399CC6699CC9999CCCC99CCFF99FF0099FF3399FF6699FF9999FFCC99FFFFCC0000CC00
310
33CC0066CC0099CC00CCCC00FFCC3300CC3333CC3366CC3399CC33CCCC33FFCC6600CC6633CC6666CC6699CC66CCCC66FFCC9900CC9933CC9966CC9999CC99CCCC99FFCCCC00CCCC33CCCC66CCCC99CCCCCCCCCCFFCCFF00CCFF33CCFF66CCFF99CCFFCCCCFFFFFF0000FF0033FF0066FF0099FF00CCFF00FFFF3300FF3333
310
FF3366FF3399FF33CCFF33FFFF6600FF6633FF6666FF6699FF66CCFF66FFFF9900FF9933FF9966FF9999FF99CCFF99FFFFCC00FFCC33FFCC66FFCC99FFCCCCFFCCFFFFFF00FFFF33FFFF66FFFF99FFFFCCFFFFFF0000000D0D0D1A1A1A2828283535354343435050505D5D5D6B6B6B787878868686939393A1A1A1AEAEAEBB
310
BBBBC9C9C9D6D6D6E4E4E4F1F1F1FFFFFF00000000000000000000000000000000000000000000000000000000000008F1915C000002D34944415478DAED9CE96EDC300C06F5FEEFFBFD0FDAF5419D96B306625233051AB45E07E62C451D969D120000000000000000003C8BFEB378F83B4B869F548A582BFC94D44E882504
310
7C7E0C1B46680159220C0B446C0126D4B188C0028A50871E420B98F6105CC030F5FFF59C8B086825C427FCC50464B95F8D1D0208B851E5FB6307CFE3803DA92734DCCD1A274D206BD543092B0818770CC1046C393F1660332296803DFAAAE9ABE8F6CF321949800DA818F428AFFA26F05D5AC8C5802CC4ACD3CB5B48040147
310
8C53F39E6802CCB076DCEB9BF5804002CE2F5FB383FAA24ABA1690857F6F56235301E536FCB2E6EB570DC8E97478BF70D3B3FFF6ABF4B948263BA5FD4E80CF74D8047CDAF0330226A64FAF12F009F971015EC6C63AFE98D1FD435F9E5F010F356497028A89EE571EDC09909D103F50D77D09B0E1B72BC1ED74F024A09C090D
310
B648CC6BF023C086AF2EB7D3C1D138A09BFB5F79F021200FFF7A15E046B3908BF8A7CB5B3640984A071702EE5477FB994B0F6E041C3701BAE93ECAE9BE072793A162D1FBA20B18D5C686062F02B45D6CAF104AD9CA7FE7630D0F7ED60426E68032B78C667E93BBC5A1EBAB9D0C4AA66375B534A6F9E632D9B5A6144E40529A
310
182296BD4A9436D0DC43DDB2E07E857C5003359A0C1EB7151CDF23BB18E75F97C1101B26477DD9542F900233572B1110DA80566E01179DC5320F1795F571D527CC167EB40E0000000000000000000000005E4E7E2FCF1E38B6B69D47AB1DA2CAFF3A4FB4BB83CC61BD58407181DBCE66551FD9E3554780CEA3E7AF79F17B85
310
3A026C94F9B1FD1FCAA355EBC4F243F1046C8FD6354E34BBE37D093037B795BA026C70AA7655E74D47F57FB92882E682D548802C49AA5767A4F23CA5B7BE5041A9539F95FA02CC16D05A801A0A1D0A6877768D6FB514A02AEFEBDAE84040D98DD52DA0CE91B25254B5F195DBE53A2F092907328D04A8AA447662F1C079A877
310
8B010000000000000000000000FC253F421A8201F95EB36F0000000049454E44AE4260820D196A085987D07EFF5F00FD04E8692AD153991480C86BCAD5B8C93A43B703305E2C3588CBFED5EC5554F2108BBAC3100455D40FAACE7268503ABD810000000049454E44AE426082
  0
ENDSEC
  0
EOF
