  0
SECTION
  2
HEADER
  9
$ACADVER
  1
AC1027
  9
$ACADMAINTVER
 70
    55
  9
$DWGCODEPAGE
  3
ANSI_932
  9
$LASTSAVEDBY
  1
User
  9
$REQUIREDVERSIONS
160
                 0
  9
$INSBASE
 10
0.0000094929055194
 20
-0.0000021391570044
 30
0.0
  9
$EXTMIN
 10
122.9585699647832
 20
903.6445083839453
 30
-0.000000000000003
  9
$EXTMAX
 10
457.4506437437885
 20
1029.092648284442
 30
0.0000000000000125
  9
$LIMMIN
 10
0.0000094929055194
 20
0.0
  9
$LIMMAX
 10
408.1800094929055
 20
285.2399978608428
  9
$ORTHOMODE
 70
     0
  9
$REGENMODE
 70
     1
  9
$FILLMODE
 70
     1
  9
$QTEXTMODE
 70
     0
  9
$MIRRTEXT
 70
     0
  9
$LTSCALE
 40
10.0
  9
$ATTMODE
 70
     1
  9
$TEXTSIZE
 40
3.0
  9
$TRACEWID
 40
1.0
  9
$TEXTSTYLE
  7
STANDARD
  9
$CLAYER
  8
OBJECT1
  9
$CELTYPE
  6
BYLAYER
  9
$CECOLOR
 62
   256
  9
$CELTSCALE
 40
1.0
  9
$DISPSILH
 70
     0
  9
$DIMSCALE
 40
4.0
  9
$DIMASZ
 40
2.5
  9
$DIMEXO
 40
1.25
  9
$DIMDLI
 40
7.0
  9
$DIMRND
 40
0.0
  9
$DIMDLE
 40
0.0
  9
$DIMEXE
 40
1.25
  9
$DIMTP
 40
0.0
  9
$DIMTM
 40
0.0
  9
$DIMTXT
 40
3.0
  9
$DIMCEN
 40
3.0
  9
$DIMTSZ
 40
0.0
  9
$DIMTOL
 70
     0
  9
$DIMLIM
 70
     0
  9
$DIMTIH
 70
     0
  9
$DIMTOH
 70
     0
  9
$DIMSE1
 70
     0
  9
$DIMSE2
 70
     0
  9
$DIMTAD
 70
     3
  9
$DIMZIN
 70
     8
  9
$DIMBLK
  1

  9
$DIMASO
 70
     1
  9
$DIMSHO
 70
     1
  9
$DIMPOST
  1

  9
$DIMAPOST
  1

  9
$DIMALT
 70
     0
  9
$DIMALTD
 70
     2
  9
$DIMALTF
 40
25.4
  9
$DIMLFAC
 40
1.0
  9
$DIMTOFL
 70
     1
  9
$DIMTVP
 40
0.0
  9
$DIMTIX
 70
     0
  9
$DIMSOXD
 70
     0
  9
$DIMSAH
 70
     1
  9
$DIMBLK1
  1
OPEN
  9
$DIMBLK2
  1
OPEN
  9
$DIMSTYLE
  2
STANDARD
  9
$DIMCLRD
 70
     1
  9
$DIMCLRE
 70
     1
  9
$DIMCLRT
 70
     2
  9
$DIMTFAC
 40
1.0
  9
$DIMGAP
 40
1.0
  9
$DIMJUST
 70
     0
  9
$DIMSD1
 70
     0
  9
$DIMSD2
 70
     0
  9
$DIMTOLJ
 70
     1
  9
$DIMTZIN
 70
     0
  9
$DIMALTZ
 70
     0
  9
$DIMALTTZ
 70
     0
  9
$DIMUPT
 70
     0
  9
$DIMDEC
 70
     1
  9
$DIMTDEC
 70
     1
  9
$DIMALTU
 70
     2
  9
$DIMALTTD
 70
     2
  9
$DIMTXSTY
  7
STANDARD
  9
$DIMAUNIT
 70
     0
  9
$DIMADEC
 70
     2
  9
$DIMALTRND
 40
0.0
  9
$DIMAZIN
 70
     2
  9
$DIMDSEP
 70
    46
  9
$DIMATFIT
 70
     3
  9
$DIMFRAC
 70
     0
  9
$DIMLDRBLK
  1
OPEN
  9
$DIMLUNIT
 70
     2
  9
$DIMLWD
 70
    -2
  9
$DIMLWE
 70
    -2
  9
$DIMTMOVE
 70
     0
  9
$DIMFXL
 40
1.0
  9
$DIMFXLON
 70
     0
  9
$DIMJOGANG
 40
0.7853981633974483
  9
$DIMTFILL
 70
     0
  9
$DIMTFILLCLR
 70
     0
  9
$DIMARCSYM
 70
     0
  9
$DIMLTYPE
  6

  9
$DIMLTEX1
  6

  9
$DIMLTEX2
  6

  9
$DIMTXTDIRECTION
 70
     0
  9
$LUNITS
 70
     2
  9
$LUPREC
 70
     4
  9
$SKETCHINC
 40
1.0
  9
$FILLETRAD
 40
10.0
  9
$AUNITS
 70
     0
  9
$AUPREC
 70
     0
  9
$MENU
  1
acad
  9
$ELEVATION
 40
0.0
  9
$PELEVATION
 40
0.0
  9
$THICKNESS
 40
0.0
  9
$LIMCHECK
 70
     0
  9
$CHAMFERA
 40
10.0
  9
$CHAMFERB
 40
10.0
  9
$CHAMFERC
 40
20.0
  9
$CHAMFERD
 40
0.0
  9
$SKPOLY
 70
     0
  9
$TDCREATE
 40
2455971.778741852
  9
$TDUCREATE
 40
2455971.403741852
  9
$TDUPDATE
 40
2459248.651497708
  9
$TDUUPDATE
 40
2459248.276497708
  9
$TDINDWG
 40
0.5505595139
  9
$TDUSRTIMER
 40
0.5505594097
  9
$USRTIMER
 70
     1
  9
$ANGBASE
 50
0.0
  9
$ANGDIR
 70
     0
  9
$PDMODE
 70
     0
  9
$PDSIZE
 40
0.0
  9
$PLINEWID
 40
0.0
  9
$SPLFRAME
 70
     0
  9
$SPLINETYPE
 70
     6
  9
$SPLINESEGS
 70
     8
  9
$HANDSEED
  5
ADA8
  9
$SURFTAB1
 70
     6
  9
$SURFTAB2
 70
     6
  9
$SURFTYPE
 70
     6
  9
$SURFU
 70
     6
  9
$SURFV
 70
     6
  9
$UCSBASE
  2

  9
$UCSNAME
  2

  9
$UCSORG
 10
0.0
 20
0.0
 30
0.0
  9
$UCSXDIR
 10
1.0
 20
0.0
 30
0.0
  9
$UCSYDIR
 10
0.0
 20
1.0
 30
0.0
  9
$UCSORTHOREF
  2

  9
$UCSORTHOVIEW
 70
     0
  9
$UCSORGTOP
 10
0.0
 20
0.0
 30
0.0
  9
$UCSORGBOTTOM
 10
0.0
 20
0.0
 30
0.0
  9
$UCSORGLEFT
 10
0.0
 20
0.0
 30
0.0
  9
$UCSORGRIGHT
 10
0.0
 20
0.0
 30
0.0
  9
$UCSORGFRONT
 10
0.0
 20
0.0
 30
0.0
  9
$UCSORGBACK
 10
0.0
 20
0.0
 30
0.0
  9
$PUCSBASE
  2

  9
$PUCSNAME
  2

  9
$PUCSORG
 10
0.0
 20
0.0
 30
0.0
  9
$PUCSXDIR
 10
1.0
 20
0.0
 30
0.0
  9
$PUCSYDIR
 10
0.0
 20
1.0
 30
0.0
  9
$PUCSORTHOREF
  2

  9
$PUCSORTHOVIEW
 70
     0
  9
$PUCSORGTOP
 10
0.0
 20
0.0
 30
0.0
  9
$PUCSORGBOTTOM
 10
0.0
 20
0.0
 30
0.0
  9
$PUCSORGLEFT
 10
0.0
 20
0.0
 30
0.0
  9
$PUCSORGRIGHT
 10
0.0
 20
0.0
 30
0.0
  9
$PUCSORGFRONT
 10
0.0
 20
0.0
 30
0.0
  9
$PUCSORGBACK
 10
0.0
 20
0.0
 30
0.0
  9
$USERI1
 70
     0
  9
$USERI2
 70
     0
  9
$USERI3
 70
     0
  9
$USERI4
 70
     0
  9
$USERI5
 70
     0
  9
$USERR1
 40
0.0
  9
$USERR2
 40
0.0
  9
$USERR3
 40
0.0
  9
$USERR4
 40
0.0
  9
$USERR5
 40
0.0
  9
$WORLDVIEW
 70
     1
  9
$SHADEDGE
 70
     3
  9
$SHADEDIF
 70
    70
  9
$TILEMODE
 70
     1
  9
$MAXACTVP
 70
    48
  9
$PINSBASE
 10
0.0
 20
0.0
 30
0.0
  9
$PLIMCHECK
 70
     0
  9
$PEXTMIN
 10
1.000000000000000E+20
 20
1.000000000000000E+20
 30
1.000000000000000E+20
  9
$PEXTMAX
 10
-1.000000000000000E+20
 20
-1.000000000000000E+20
 30
-1.000000000000000E+20
  9
$PLIMMIN
 10
0.0
 20
0.0
  9
$PLIMMAX
 10
420.0
 20
297.0
  9
$UNITMODE
 70
     0
  9
$VISRETAIN
 70
     1
  9
$PLINEGEN
 70
     0
  9
$PSLTSCALE
 70
     1
  9
$TREEDEPTH
 70
  3020
  9
$CMLSTYLE
  2
STANDARD
  9
$CMLJUST
 70
     0
  9
$CMLSCALE
 40
20.0
  9
$PROXYGRAPHICS
 70
     1
  9
$MEASUREMENT
 70
     1
  9
$CELWEIGHT
370
    -1
  9
$ENDCAPS
280
     0
  9
$JOINSTYLE
280
     0
  9
$LWDISPLAY
290
     0
  9
$INSUNITS
 70
     0
  9
$HYPERLINKBASE
  1

  9
$STYLESHEET
  1
TAGAI1.CTB
  9
$XEDIT
290
     1
  9
$CEPSNTYPE
380
     0
  9
$PSTYLEMODE
290
     1
  9
$FINGERPRINTGUID
  2
{8B4E85C4-259A-11D8-AF91-00C04F101805}
  9
$VERSIONGUID
  2
{B331FD89-5FC5-489A-B738-0820960921E9}
  9
$EXTNAMES
290
     1
  9
$PSVPSCALE
 40
0.0
  9
$OLESTARTUP
290
     0
  9
$SORTENTS
280
    96
  9
$INDEXCTL
280
     0
  9
$HIDETEXT
280
     0
  9
$XCLIPFRAME
280
     2
  9
$HALOGAP
280
     0
  9
$OBSCOLOR
 70
   257
  9
$OBSLTYPE
280
     0
  9
$INTERSECTIONDISPLAY
280
     0
  9
$INTERSECTIONCOLOR
 70
   257
  9
$DIMASSOC
280
     1
  9
$PROJECTNAME
  1

  9
$CAMERADISPLAY
290
     0
  9
$LENSLENGTH
 40
50.0
  9
$CAMERAHEIGHT
 40
0.0
  9
$STEPSPERSEC
 40
2.0
  9
$STEPSIZE
 40
6.0
  9
$3DDWFPREC
 40
2.0
  9
$PSOLWIDTH
 40
0.25
  9
$PSOLHEIGHT
 40
4.0
  9
$LOFTANG1
 40
1.570796326794896
  9
$LOFTANG2
 40
1.570796326794896
  9
$LOFTMAG1
 40
0.0
  9
$LOFTMAG2
 40
0.0
  9
$LOFTPARAM
 70
     7
  9
$LOFTNORMALS
280
     1
  9
$LATITUDE
 40
37.795
  9
$LONGITUDE
 40
-122.394
  9
$NORTHDIRECTION
 40
0.0
  9
$TIMEZONE
 70
 -8000
  9
$LIGHTGLYPHDISPLAY
280
     1
  9
$TILEMODELIGHTSYNCH
280
     1
  9
$CMATERIAL
347
57AE
  9
$SOLIDHIST
280
     0
  9
$SHOWHIST
280
     1
  9
$DWFFRAME
280
     2
  9
$DGNFRAME
280
     0
  9
$REALWORLDSCALE
290
     1
  9
$INTERFERECOLOR
 62
     1
  9
$INTERFEREOBJVS
345
57D0
  9
$INTERFEREVPVS
346
57CD
  9
$CSHADOW
280
     0
  9
$SHADOWPLANELOCATION
 40
0.0
  0
ENDSEC
  0
SECTION
  2
CLASSES
  0
CLASS
  1
DICTIONARYVAR
  2
AcDbDictionaryVar
  3
ObjectDBX Classes
 90
        0
 91
       13
280
     0
281
     0
  0
CLASS
  1
ACDBDICTIONARYWDFLT
  2
AcDbDictionaryWithDefault
  3
ObjectDBX Classes
 90
        0
 91
        1
280
     0
281
     0
  0
CLASS
  1
PLOTSETTINGS
  2
AcDbPlotSettings
  3
ObjectDBX Classes
 90
        0
 91
        6
280
     0
281
     0
  0
CLASS
  1
MATERIAL
  2
AcDbMaterial
  3
ObjectDBX Classes
 90
     1153
 91
        3
280
     0
281
     0
  0
CLASS
  1
VISUALSTYLE
  2
AcDbVisualStyle
  3
ObjectDBX Classes
 90
     4095
 91
       25
280
     0
281
     0
  0
CLASS
  1
TABLESTYLE
  2
AcDbTableStyle
  3
ObjectDBX Classes
 90
     4095
 91
        1
280
     0
281
     0
  0
CLASS
  1
SCALE
  2
AcDbScale
  3
ObjectDBX Classes
 90
     1153
 91
       17
280
     0
281
     0
  0
CLASS
  1
MLEADERSTYLE
  2
AcDbMLeaderStyle
  3
ACDB_MLEADERSTYLE_CLASS
 90
     4095
 91
        1
280
     0
281
     0
  0
CLASS
  1
ACDBSECTIONVIEWSTYLE
  2
AcDbSectionViewStyle
  3
ObjectDBX Classes
 90
     1025
 91
        1
280
     0
281
     0
  0
CLASS
  1
ACDBDETAILVIEWSTYLE
  2
AcDbDetailViewStyle
  3
ObjectDBX Classes
 90
     1025
 91
        1
280
     0
281
     0
  0
CLASS
  1
CELLSTYLEMAP
  2
AcDbCellStyleMap
  3
ObjectDBX Classes
 90
     1152
 91
        2
280
     0
281
     0
  0
CLASS
  1
SORTENTSTABLE
  2
AcDbSortentsTable
  3
ObjectDBX Classes
 90
        0
 91
        2
280
     0
281
     0
  0
ENDSEC
  0
SECTION
  2
TABLES
  0
TABLE
  2
VPORT
  5
8
102
{ACAD_XDICTIONARY
360
5826
102
}
330
0
100
AcDbSymbolTable
 70
     1
  0
VPORT
  5
57AB
330
8
100
AcDbSymbolTableRecord
100
AcDbViewportTableRecord
  2
*Active
 70
     0
 10
0.0
 20
0.0
 11
1.0
 21
1.0
 12
290.2046068542859
 22
966.3685783341939
 13
0.0
 23
0.0
 14
10.0
 24
10.0
 15
10.0
 25
10.0
 16
0.0
 26
0.0
 36
1.0
 17
0.0
 27
0.0
 37
0.0
 40
180.0202838446282
 41
1.865577889447236
 42
50.0
 43
0.0
 44
0.0
 50
0.0
 51
0.0
 71
     0
 72
   100
 73
     1
 74
     1
 75
     0
 76
     0
 77
     0
 78
     0
281
     0
 65
     1
110
0.0
120
0.0
130
0.0
111
1.0
121
0.0
131
0.0
112
0.0
122
1.0
132
0.0
 79
     0
146
0.0
348
57CC
 60
     3
 61
     5
292
     1
282
     1
141
0.0
142
0.0
 63
   250
421
  3355443
1001
ACAD_NAV_VCDISPLAY
1070
     3
  0
ENDTAB
  0
TABLE
  2
LTYPE
  5
5
330
0
100
AcDbSymbolTable
 70
     8
  0
LTYPE
  5
12
330
5
100
AcDbSymbolTableRecord
100
AcDbLinetypeTableRecord
  2
BYBLOCK
 70
     0
  3

 72
    65
 73
     0
 40
0.0
  0
LTYPE
  5
13
330
5
100
AcDbSymbolTableRecord
100
AcDbLinetypeTableRecord
  2
BYLAYER
 70
     0
  3

 72
    65
 73
     0
 40
0.0
  0
LTYPE
  5
14
330
5
100
AcDbSymbolTableRecord
100
AcDbLinetypeTableRecord
  2
CONTINUOUS
 70
     0
  3
Solid line
 72
    65
 73
     0
 40
0.0
  0
LTYPE
  5
326
330
5
100
AcDbSymbolTableRecord
100
AcDbLinetypeTableRecord
  2
HIDDEN
 70
     0
  3
Hidden __ __ __ __ __ __ __ __ __ __ __ __ __ _
 72
    65
 73
     2
 40
9.524999999999996
 49
6.349999999999998
 74
     0
 49
-3.174999999999998
 74
     0
  0
LTYPE
  5
327
330
5
100
AcDbSymbolTableRecord
100
AcDbLinetypeTableRecord
  2
CENTER
 70
     0
  3
Center ____ _ ____ _ ____ _ ____ _ ____ _ ____
 72
    65
 73
     4
 40
2.0
 49
1.25
 74
     0
 49
-0.25
 74
     0
 49
0.25
 74
     0
 49
-0.25
 74
     0
  0
LTYPE
  5
328
330
5
100
AcDbSymbolTableRecord
100
AcDbLinetypeTableRecord
  2
PHANTOM
 70
     0
  3
Phantom ______  __  __  ______  __  __  ______
 72
    65
 73
     6
 40
2.5
 49
1.25
 74
     0
 49
-0.25
 74
     0
 49
0.25
 74
     0
 49
-0.25
 74
     0
 49
0.25
 74
     0
 49
-0.25
 74
     0
  0
LTYPE
  5
60E8
330
5
100
AcDbSymbolTableRecord
100
AcDbLinetypeTableRecord
  2
GEN7A
 70
     0
  3
__ . __ . __
 72
    65
 73
     4
 40
6.875
 49
4.75
 74
     0
 49
-0.875
 74
     0
 49
0.375
 74
     0
 49
-0.875
 74
     0
  0
LTYPE
  5
9369
330
5
100
AcDbSymbolTableRecord
100
AcDbLinetypeTableRecord
  2
HIDDEN2
 70
     0
  3
Hidden (.5x) _ _ _ _ _ _ _ _ _ _ _ _ _ _ _ _ _
 72
    65
 73
     2
 40
4.762499999999998
 49
3.174999999999998
 74
     0
 49
-1.587499999999999
 74
     0
  0
LTYPE
  5
936A
330
5
100
AcDbSymbolTableRecord
100
AcDbLinetypeTableRecord
  2
GEN7
 70
     0
  3
____ . ____ . ____ . ____ . ____ . ____ . ____
 72
    65
 73
     4
 40
13.75
 49
9.75
 74
     0
 49
-1.5
 74
     0
 49
1.0
 74
     0
 49
-1.5
 74
     0
  0
ENDTAB
  0
TABLE
  2
LAYER
  5
2
102
{ACAD_XDICTIONARY
360
2886
102
}
330
0
100
AcDbSymbolTable
 70
    23
  0
LAYER
  5
E
102
{ACAD_XDICTIONARY
360
5800
102
}
330
2
100
AcDbSymbolTableRecord
100
AcDbLayerTableRecord
  2
0
 70
     0
 62
     7
  6
CONTINUOUS
370
    -3
390
75D
347
57BE
348
0
  0
LAYER
  5
32A
102
{ACAD_XDICTIONARY
360
5802
102
}
330
2
100
AcDbSymbolTableRecord
100
AcDbLayerTableRecord
  2
IMAGINE
 70
     0
 62
     6
  6
PHANTOM
370
    -3
390
75D
347
57BE
348
0
  0
LAYER
  5
32B
330
2
100
AcDbSymbolTableRecord
100
AcDbLayerTableRecord
  2
DEFPOINTS
 70
     0
 62
     7
  6
CONTINUOUS
290
     0
370
    -3
390
75D
347
57BE
348
0
  0
LAYER
  5
32C
102
{ACAD_XDICTIONARY
360
5804
102
}
330
2
100
AcDbSymbolTableRecord
100
AcDbLayerTableRecord
  2
OBJECT1
 70
     0
 62
     7
  6
CONTINUOUS
370
    -3
390
75D
347
57BE
348
0
  0
LAYER
  5
32D
102
{ACAD_XDICTIONARY
360
5806
102
}
330
2
100
AcDbSymbolTableRecord
100
AcDbLayerTableRecord
  2
-TEXT
 70
     0
 62
     2
  6
CONTINUOUS
370
    -3
390
75D
347
57BE
348
0
  0
LAYER
  5
32E
102
{ACAD_XDICTIONARY
360
5808
102
}
330
2
100
AcDbSymbolTableRecord
100
AcDbLayerTableRecord
  2
CENTER
 70
     0
 62
     4
  6
CENTER
370
    -3
390
75D
347
57BE
348
0
  0
LAYER
  5
32F
102
{ACAD_XDICTIONARY
360
580A
102
}
330
2
100
AcDbSymbolTableRecord
100
AcDbLayerTableRecord
  2
PARTS
 70
     0
 62
     3
  6
CONTINUOUS
370
    -3
390
75D
347
57BE
348
0
  0
LAYER
  5
330
102
{ACAD_XDICTIONARY
360
580C
102
}
330
2
100
AcDbSymbolTableRecord
100
AcDbLayerTableRecord
  2
DIM
 70
     0
 62
     1
  6
CONTINUOUS
370
    -3
390
75D
347
57BE
348
0
  0
LAYER
  5
331
102
{ACAD_XDICTIONARY
360
580E
102
}
330
2
100
AcDbSymbolTableRecord
100
AcDbLayerTableRecord
  2
HIDE
 70
     0
 62
     2
  6
HIDDEN
370
    -3
390
75D
347
57BE
348
0
  0
LAYER
  5
11B8
102
{ACAD_XDICTIONARY
360
5810
102
}
330
2
100
AcDbSymbolTableRecord
100
AcDbLayerTableRecord
  2
図面枠
 70
     0
 62
     7
  6
CONTINUOUS
370
    -3
390
75D
347
57BE
348
0
  0
LAYER
  5
138B
102
{ACAD_XDICTIONARY
360
5812
102
}
330
2
100
AcDbSymbolTableRecord
100
AcDbLayerTableRecord
  2
履歴
 70
     0
 62
    -7
  6
CONTINUOUS
370
    -3
390
75D
347
57BE
348
0
  0
LAYER
  5
4696
102
{ACAD_XDICTIONARY
360
4697
102
}
330
2
100
AcDbSymbolTableRecord
100
AcDbLayerTableRecord
  2
OBJECT
 70
     0
 62
     7
  6
CONTINUOUS
370
    -3
390
75D
347
57BE
348
0
  0
LAYER
  5
469A
102
{ACAD_XDICTIONARY
360
5816
102
}
330
2
100
AcDbSymbolTableRecord
100
AcDbLayerTableRecord
  2
PV-5415
 70
     2
 62
     7
  6
CONTINUOUS
370
    -3
390
75D
347
57BE
348
0
  0
LAYER
  5
59EF
102
{ACAD_XDICTIONARY
360
59F0
102
}
330
2
100
AcDbSymbolTableRecord
100
AcDbLayerTableRecord
  2
1
 70
     0
 62
     1
  6
CONTINUOUS
370
    -3
390
75D
347
57BE
348
0
  0
LAYER
  5
60E9
102
{ACAD_XDICTIONARY
360
60EA
102
}
330
2
100
AcDbSymbolTableRecord
100
AcDbLayerTableRecord
  2
7AN
 70
     0
 62
     4
  6
GEN7A
370
    -3
390
75D
347
57BE
348
0
  0
LAYER
  5
796B
102
{ACAD_XDICTIONARY
360
796C
102
}
330
2
100
AcDbSymbolTableRecord
100
AcDbLayerTableRecord
  2
OBJECT2
 70
     0
 62
     5
  6
CONTINUOUS
370
    -3
390
75D
347
57BE
348
0
  0
LAYER
  5
796D
102
{ACAD_XDICTIONARY
360
796E
102
}
330
2
100
AcDbSymbolTableRecord
100
AcDbLayerTableRecord
  2
01.本体
 70
     0
 62
     3
  6
CONTINUOUS
370
    -3
390
75D
347
57BE
348
0
1001
AcAecLayerStandard
1000

1000

1001
AcCmTransparency
1071
        0
  0
LAYER
  5
936B
102
{ACAD_XDICTIONARY
360
936C
102
}
330
2
100
AcDbSymbolTableRecord
100
AcDbLayerTableRecord
  2
HIDDEN
 70
     0
 62
     2
  6
HIDDEN2
370
    -3
390
75D
347
57BE
348
0
  0
LAYER
  5
936D
102
{ACAD_XDICTIONARY
360
936E
102
}
330
2
100
AcDbSymbolTableRecord
100
AcDbLayerTableRecord
  2
1：主線
 70
     0
 62
     7
  6
CONTINUOUS
370
    -3
390
75D
347
57BE
348
0
  0
LAYER
  5
936F
102
{ACAD_XDICTIONARY
360
9370
102
}
330
2
100
AcDbSymbolTableRecord
100
AcDbLayerTableRecord
  2
9：寸法線
 70
     0
 62
     3
  6
CONTINUOUS
370
    -3
390
75D
347
57BE
348
0
  0
LAYER
  5
9371
102
{ACAD_XDICTIONARY
360
9372
102
}
330
2
100
AcDbSymbolTableRecord
100
AcDbLayerTableRecord
  2
3：中心線
 70
     0
 62
     4
  6
GEN7
370
    -3
390
75D
347
57BE
348
0
  0
LAYER
  5
9373
102
{ACAD_XDICTIONARY
360
9374
102
}
330
2
100
AcDbSymbolTableRecord
100
AcDbLayerTableRecord
  2
2：副線
 70
     0
 62
     5
  6
CONTINUOUS
370
    -3
390
75D
347
57BE
348
0
  0
LAYER
  5
AD98
102
{ACAD_XDICTIONARY
360
AD99
102
}
330
2
100
AcDbSymbolTableRecord
100
AcDbLayerTableRecord
  2
7：文字
 70
     0
 62
     2
  6
CONTINUOUS
370
    -3
390
75D
347
57BE
348
0
  0
ENDTAB
  0
TABLE
  2
STYLE
  5
3
330
0
100
AcDbSymbolTable
 70
     4
  0
STYLE
  5
F
330
3
100
AcDbSymbolTableRecord
100
AcDbTextStyleTableRecord
  2
STANDARD
 70
     0
 40
0.0
 41
1.0
 50
0.0
 71
     0
 42
3.0
  3
isocp.shx
  4
bigfont.shx
  0
STYLE
  5
333
330
3
100
AcDbSymbolTableRecord
100
AcDbTextStyleTableRecord
  2
JX_FONT
 70
     0
 40
1.0
 41
1.0
 50
0.0
 71
     0
 42
1.0
  3
monotxt
  4
bigfont
  0
STYLE
  5
469B
330
3
100
AcDbSymbolTableRecord
100
AcDbTextStyleTableRecord
  2
BIGFONT
 70
     0
 40
4.0
 41
1.0
 50
0.0
 71
     0
 42
4.0
  3
txt
  4
bigfont
  0
STYLE
  5
A0E3
330
3
100
AcDbSymbolTableRecord
100
AcDbTextStyleTableRecord
  2
スタイル1
 70
     0
 40
10.0
 41
1.0
 50
0.0
 71
     0
 42
10.0
  3
isocp.shx
  4
bigfont.shx
  0
ENDTAB
  0
TABLE
  2
VIEW
  5
6
330
0
100
AcDbSymbolTable
 70
     0
  0
ENDTAB
  0
TABLE
  2
UCS
  5
7
330
0
100
AcDbSymbolTable
 70
     0
  0
ENDTAB
  0
TABLE
  2
APPID
  5
9
330
0
100
AcDbSymbolTable
 70
    19
  0
APPID
  5
10
330
9
100
AcDbSymbolTableRecord
100
AcDbRegAppTableRecord
  2
ACAD
 70
     0
  0
APPID
  5
24
330
9
100
AcDbSymbolTableRecord
100
AcDbRegAppTableRecord
  2
CONTENTTABDATA
 70
     0
  0
APPID
  5
25
330
9
100
AcDbSymbolTableRecord
100
AcDbRegAppTableRecord
  2
CONTENTCURRENTTAB
 70
     0
  0
APPID
  5
469D
330
9
100
AcDbSymbolTableRecord
100
AcDbRegAppTableRecord
  2
GENIUS_GENODEF_13
 70
     0
  0
APPID
  5
469E
330
9
100
AcDbSymbolTableRecord
100
AcDbRegAppTableRecord
  2
GENIUS_GENOBJ-N-REC_13
 70
     0
  0
APPID
  5
469F
330
9
100
AcDbSymbolTableRecord
100
AcDbRegAppTableRecord
  2
GENIUS_GENREC_14
 70
     0
  0
APPID
  5
5820
330
9
100
AcDbSymbolTableRecord
100
AcDbRegAppTableRecord
  2
ACAD_PSEXT
 70
     0
  0
APPID
  5
5821
330
9
100
AcDbSymbolTableRecord
100
AcDbRegAppTableRecord
  2
ACAD_NAV_VCDISPLAY
 70
     0
  0
APPID
  5
5870
330
9
100
AcDbSymbolTableRecord
100
AcDbRegAppTableRecord
  2
ACAD_MLEADERVER
 70
     0
  0
APPID
  5
58E3
330
9
100
AcDbSymbolTableRecord
100
AcDbRegAppTableRecord
  2
ACAD_EXEMPT_FROM_CAD_STANDARDS
 70
     0
  0
APPID
  5
60EC
330
9
100
AcDbSymbolTableRecord
100
AcDbRegAppTableRecord
  2
ACAD_DSTYLE_DIMBREAK
 70
     0
  0
APPID
  5
60ED
330
9
100
AcDbSymbolTableRecord
100
AcDbRegAppTableRecord
  2
ACAD_DSTYLE_DIMJAG
 70
     0
  0
APPID
  5
60EE
330
9
100
AcDbSymbolTableRecord
100
AcDbRegAppTableRecord
  2
ACAD_DSTYLE_DIMTALN
 70
     0
  0
APPID
  5
6C6A
330
9
100
AcDbSymbolTableRecord
100
AcDbRegAppTableRecord
  2
AcadAnnoMonitorAlertIconDisabled
 70
     0
  0
APPID
  5
6E52
330
9
100
AcDbSymbolTableRecord
100
AcDbRegAppTableRecord
  2
ACAD_DSTYLE_DIMRADIAL_EXTENSION
 70
     0
  0
APPID
  5
7970
330
9
100
AcDbSymbolTableRecord
100
AcDbRegAppTableRecord
  2
AcAecLayerStandard
 70
     0
  0
APPID
  5
7971
330
9
100
AcDbSymbolTableRecord
100
AcDbRegAppTableRecord
  2
AcCmTransparency
 70
     0
  0
APPID
  5
7972
330
9
100
AcDbSymbolTableRecord
100
AcDbRegAppTableRecord
  2
GradientColor1ACI
 70
     0
  0
APPID
  5
7973
330
9
100
AcDbSymbolTableRecord
100
AcDbRegAppTableRecord
  2
GradientColor2ACI
 70
     0
  0
ENDTAB
  0
TABLE
  2
DIMSTYLE
  5
A
330
0
100
AcDbSymbolTable
 70
     9
100
AcDbDimStyleTable
 71
     2
340
1D
340
60EB
  0
DIMSTYLE
105
1D
330
A
100
AcDbSymbolTableRecord
100
AcDbDimStyleTableRecord
  2
STANDARD
 70
     0
 41
2.5
 42
1.25
 43
7.0
 44
1.25
 73
     0
 74
     0
 77
     3
 78
     8
 79
     2
140
3.0
141
3.0
147
1.0
172
     1
173
     1
176
     1
177
     1
178
     2
179
     2
271
     2
272
     2
289
     0
340
F
341
36
343
36
344
36
  0
DIMSTYLE
105
469C
330
A
100
AcDbSymbolTableRecord
100
AcDbDimStyleTableRecord
  2
STANDARD$0
 70
     0
 40
2.0
 41
2.5
 42
1.0
 43
7.0
 44
1.0
 73
     0
 74
     0
 77
     1
 78
     8
140
3.0
141
0.0
147
1.25
172
     1
176
     1
177
     1
178
     2
340
F
341
36
342
36
  0
DIMSTYLE
105
59F1
330
A
100
AcDbSymbolTableRecord
100
AcDbDimStyleTableRecord
  2
STANDARDX2
 70
     0
 41
2.5
 42
1.25
 43
7.0
 44
1.25
 73
     0
 74
     0
 77
     3
 78
     8
 79
     2
140
3.0
141
3.0
144
0.5
147
1.0
172
     1
173
     1
176
     1
177
     1
178
     1
179
     2
271
     2
272
     2
289
     0
340
F
341
36
343
36
344
36
  0
DIMSTYLE
105
59F2
330
A
100
AcDbSymbolTableRecord
100
AcDbDimStyleTableRecord
  2
STANDARDX3
 70
     0
 41
2.5
 42
1.25
 43
7.0
 44
1.25
 73
     0
 74
     0
 77
     3
 78
     8
 79
     2
140
3.0
141
3.0
144
0.333333333333333
147
1.0
172
     1
173
     1
176
     1
177
     1
178
     3
179
     2
271
     2
272
     2
289
     0
340
F
341
36
343
36
344
36
  0
DIMSTYLE
105
59F3
330
A
100
AcDbSymbolTableRecord
100
AcDbDimStyleTableRecord
  2
STANDARDX4
 70
     0
 41
2.5
 42
1.25
 43
7.0
 44
1.25
 73
     0
 74
     0
 77
     3
 78
     8
 79
     2
140
3.0
141
3.0
144
0.25
147
1.0
172
     1
173
     1
176
     1
177
     1
178
     4
179
     2
271
     2
272
     2
289
     0
340
F
341
36
343
36
344
36
  0
DIMSTYLE
105
59F4
330
A
100
AcDbSymbolTableRecord
100
AcDbDimStyleTableRecord
  2
STANDARDX5
 70
     0
 41
2.5
 42
1.25
 43
7.0
 44
1.25
 73
     0
 74
     0
 77
     3
 78
     8
 79
     2
140
3.0
141
3.0
144
0.2
147
1.0
172
     1
173
     1
176
     1
177
     1
178
     6
179
     2
271
     2
272
     2
289
     0
340
F
341
36
343
36
344
36
  0
DIMSTYLE
105
60EB
330
A
100
AcDbSymbolTableRecord
100
AcDbDimStyleTableRecord
  2
STANDARD++$0
 70
     0
 40
2.0
 41
2.5
 42
1.0
 43
7.0
 44
1.0
 73
     0
 74
     0
 77
     1
 78
     8
140
3.0
141
0.0
147
1.25
172
     1
176
     1
177
     1
178
     2
340
F
341
36
342
36
1001
ACAD_DSTYLE_DIMBREAK
1070
   391
1040
3.75
1001
ACAD_DSTYLE_DIMJAG
1070
   388
1040
1.5
1001
ACAD_DSTYLE_DIMTALN
1070
   392
1070
     0
  0
DIMSTYLE
105
796F
330
A
100
AcDbSymbolTableRecord
100
AcDbDimStyleTableRecord
  2
STANDARD$7
 70
     0
 40
2.0
 41
2.5
 42
1.25
 43
7.0
 44
1.25
 73
     0
 74
     0
 77
     3
 78
     8
 79
     2
140
3.0
141
3.0
147
1.0
172
     1
173
     1
176
     1
177
     1
178
     2
179
     2
271
     2
272
     2
340
F
341
36
343
36
344
36
1001
ACAD_DSTYLE_DIMBREAK
1070
   391
1040
3.75
1001
ACAD_DSTYLE_DIMJAG
1070
   388
1040
1.5
1001
ACAD_DSTYLE_DIMTALN
1070
   392
1070
     0
  0
DIMSTYLE
105
AB21
330
A
100
AcDbSymbolTableRecord
100
AcDbDimStyleTableRecord
  2
ISO-25
 70
     0
 41
2.5
 42
0.625
 43
3.75
 44
1.25
 73
     0
 74
     0
 77
     1
 78
     8
140
2.5
141
2.5
143
0.03937007874016
147
0.625
171
     3
172
     1
271
     2
272
     2
274
     3
278
    44
283
     0
284
     8
340
F
  0
ENDTAB
  0
TABLE
  2
BLOCK_RECORD
  5
1
330
0
100
AcDbSymbolTable
 70
    24
  0
BLOCK_RECORD
  5
18
102
{ACAD_XDICTIONARY
360
5B07
102
}
330
1
100
AcDbSymbolTableRecord
100
AcDbBlockTableRecord
  2
*MODEL_SPACE
340
760
 70
     0
280
     1
281
     0
  0
BLOCK_RECORD
  5
15
330
1
100
AcDbSymbolTableRecord
100
AcDbBlockTableRecord
  2
*PAPER_SPACE
340
761
 70
     0
280
     1
281
     0
  0
BLOCK_RECORD
  5
36
330
1
100
AcDbSymbolTableRecord
100
AcDbBlockTableRecord
  2
_OPEN
340
0
102
{BLKREFS
331
A971
331
A972
331
A97A
331
A97B
331
A983
331
A984
331
A98C
331
A98D
331
A995
331
A996
331
A99E
331
A99F
331
A9A7
331
A9A8
331
A9B0
331
A9B1
331
A9B9
331
A9BF
331
A9C0
331
A9C8
331
A9C9
331
A9D1
331
A9D2
331
A9DA
331
A9DB
331
A9E3
331
A9EB
331
A9EC
331
A9F6
331
A9F7
331
AAC2
331
AAC3
331
A967
331
A968
102
}
 70
     0
280
     1
281
     0
  0
BLOCK_RECORD
  5
2203
330
1
100
AcDbSymbolTableRecord
100
AcDbBlockTableRecord
  2
INABA_A3
340
0
310
2800000020000000200000000100080000000000000400000000000000000000000000000000000000000000000080000080000000808000800000008000800080800000C0C0C000C0DCC000F0CAA6000020400000206000002080000020A0000020C0000020E00000400000004020000040400000406000004080000040A0
310
000040C0000040E00000600000006020000060400000606000006080000060A0000060C0000060E00000800000008020000080400000806000008080000080A0000080C0000080E00000A0000000A0200000A0400000A0600000A0800000A0A00000A0C00000A0E00000C0000000C0200000C0400000C0600000C0800000C0
310
A00000C0C00000C0E00000E0000000E0200000E0400000E0600000E0800000E0A00000E0C00000E0E00040000000400020004000400040006000400080004000A0004000C0004000E00040200000402020004020400040206000402080004020A0004020C0004020E000404000004040200040404000404060004040800040
310
40A0004040C0004040E00040600000406020004060400040606000406080004060A0004060C0004060E00040800000408020004080400040806000408080004080A0004080C0004080E00040A0000040A0200040A0400040A0600040A0800040A0A00040A0C00040A0E00040C0000040C0200040C0400040C0600040C08000
310
40C0A00040C0C00040C0E00040E0000040E0200040E0400040E0600040E0800040E0A00040E0C00040E0E00080000000800020008000400080006000800080008000A0008000C0008000E00080200000802020008020400080206000802080008020A0008020C0008020E00080400000804020008040400080406000804080
310
008040A0008040C0008040E00080600000806020008060400080606000806080008060A0008060C0008060E00080800000808020008080400080806000808080008080A0008080C0008080E00080A0000080A0200080A0400080A0600080A0800080A0A00080A0C00080A0E00080C0000080C0200080C0400080C0600080C0
310
800080C0A00080C0C00080C0E00080E0000080E0200080E0400080E0600080E0800080E0A00080E0C00080E0E000C0000000C0002000C0004000C0006000C0008000C000A000C000C000C000E000C0200000C0202000C0204000C0206000C0208000C020A000C020C000C020E000C0400000C0402000C0404000C0406000C0
310
408000C040A000C040C000C040E000C0600000C0602000C0604000C0606000C0608000C060A000C060C000C060E000C0800000C0802000C0804000C0806000C0808000C080A000C080C000C080E000C0A00000C0A02000C0A04000C0A06000C0A08000C0A0A000C0A0C000C0A0E000C0C00000C0C02000C0C04000C0C06000
310
C0C08000C0C0A000F0FBFF00A4A0A000808080000000FF0000FF000000FFFF00FF000000FF00FF00FFFF0000FFFFFF0000000000000000000000000000000000000000000000000000000000000000000000000000000000000000000000000000000000000000000000000000000000000000000000000000000000000000
310
000000000000000000000000000000000000000000000000000000000000000000000000000000000000000000000000000000000000000000000000000000000000000000000000000000000000000000000000000000000000000000000000000000000000000000000000000000000000A2FFFFFFFFFFFFFFFFFFFFFFFF
310
FFFFFFFFFFFFFFFFFFFFFFFFFFFFFFFFA20000A2FFFFFF000000000000000000000000FFFFFFFFFFFFFFFFFFFFFFFFFFA20000A2FFFFFF000000000000000000000000FFFFFFFFFFFFFFFFFFFFFFFFFFA20000A2FFFFFF000000000000000000000000000000000000000000000000FFA20000A2FFFFFF0000000000000000
310
00000000000000000000000000000000FFA20000A2FF0000000000000000000000000000000000000000000000000000FFA20000A2FF0000000000000000000000000000000000000000000000000000FFA20000A2FF0000000000000000000000000000000000000000000000000000FFA20000A2FF000000000000000000
310
0000000000000000000000000000000000FFA20000A2FF0000000000000000000000000000000000000000000000000000FFA20000A2FF0000000000000000000000000000000000000000000000000000FFA20000A2FF0000000000000000000000000000000000000000000000000000FFA20000A2FF0000000000000000
310
000000000000000000000000000000000000FFA20000A2FF0000000000000000000000000000000000000000000000000000FFA20000A2FF0000000000000000000000000000000000000000000000000000FFA20000A2FF0000000000000000000000000000000000000000000000000000FFA20000A2FF00000000000000
310
00000000000000000000000000000000000000FFA20000A2FF0000000000000000000000000000000000000000000000000000FFA20000A2FF0000000000000000000000000000000000000000000000000000FFA20000A2FFFFFFFFFFFFFFFFFFFFFFFFFFFFFFFFFFFFFFFFFFFFFFFFFFFFFFFFA200000000000000000000
310
00000000000000000000000000000000000000000000000000000000000000000000000000000000000000000000000000000000000000000000000000000000000000000000000000000000000000000000000000000000000000000000000000000000000000000000000000000000000000000000000000000000000000
310
0000000000000000000000000000000000000000000000000000000000000000000000000000000000000000000000000000000000000000
 70
     4
280
     1
281
     0
  0
BLOCK_RECORD
  5
4538
330
1
100
AcDbSymbolTableRecord
100
AcDbBlockTableRecord
  2
SW_CENTERMARKSYMBOL_11
340
0
 70
     0
280
     1
281
     0
  0
BLOCK_RECORD
  5
453F
330
1
100
AcDbSymbolTableRecord
100
AcDbBlockTableRecord
  2
SW_CENTERMARKSYMBOL_12
340
0
 70
     0
280
     1
281
     0
  0
BLOCK_RECORD
  5
4546
330
1
100
AcDbSymbolTableRecord
100
AcDbBlockTableRecord
  2
A$C537908AB
340
0
 70
     0
280
     1
281
     0
  0
BLOCK_RECORD
  5
944B
330
1
100
AcDbSymbolTableRecord
100
AcDbBlockTableRecord
  2
*D5
340
0
 70
     0
280
     1
281
     0
  0
BLOCK_RECORD
  5
9457
330
1
100
AcDbSymbolTableRecord
100
AcDbBlockTableRecord
  2
*D6
340
0
 70
     0
280
     1
281
     0
  0
BLOCK_RECORD
  5
9463
330
1
100
AcDbSymbolTableRecord
100
AcDbBlockTableRecord
  2
*D7
340
0
 70
     0
280
     1
281
     0
  0
BLOCK_RECORD
  5
946F
330
1
100
AcDbSymbolTableRecord
100
AcDbBlockTableRecord
  2
*D8
340
0
 70
     0
280
     1
281
     0
  0
BLOCK_RECORD
  5
947B
330
1
100
AcDbSymbolTableRecord
100
AcDbBlockTableRecord
  2
*D9
340
0
 70
     0
280
     1
281
     0
  0
BLOCK_RECORD
  5
9487
330
1
100
AcDbSymbolTableRecord
100
AcDbBlockTableRecord
  2
*D10
340
0
 70
     0
280
     1
281
     0
  0
BLOCK_RECORD
  5
9493
330
1
100
AcDbSymbolTableRecord
100
AcDbBlockTableRecord
  2
*D11
340
0
 70
     0
280
     1
281
     0
  0
BLOCK_RECORD
  5
9556
330
1
100
AcDbSymbolTableRecord
100
AcDbBlockTableRecord
  2
*D12
340
0
 70
     0
280
     1
281
     0
  0
BLOCK_RECORD
  5
A5A1
330
1
100
AcDbSymbolTableRecord
100
AcDbBlockTableRecord
  2
*D13
340
0
 70
     0
280
     1
281
     0
  0
BLOCK_RECORD
  5
A5AD
330
1
100
AcDbSymbolTableRecord
100
AcDbBlockTableRecord
  2
*D14
340
0
 70
     0
280
     1
281
     0
  0
BLOCK_RECORD
  5
A5B6
330
1
100
AcDbSymbolTableRecord
100
AcDbBlockTableRecord
  2
*D15
340
0
 70
     0
280
     1
281
     0
  0
BLOCK_RECORD
  5
A5C2
330
1
100
AcDbSymbolTableRecord
100
AcDbBlockTableRecord
  2
*D16
340
0
 70
     0
280
     1
281
     0
  0
BLOCK_RECORD
  5
A5CE
330
1
100
AcDbSymbolTableRecord
100
AcDbBlockTableRecord
  2
*D17
340
0
 70
     0
280
     1
281
     0
  0
BLOCK_RECORD
  5
A5DA
330
1
100
AcDbSymbolTableRecord
100
AcDbBlockTableRecord
  2
*D18
340
0
 70
     0
280
     1
281
     0
  0
BLOCK_RECORD
  5
A5E6
330
1
100
AcDbSymbolTableRecord
100
AcDbBlockTableRecord
  2
*D19
340
0
 70
     0
280
     1
281
     0
  0
BLOCK_RECORD
  5
A5EF
330
1
100
AcDbSymbolTableRecord
100
AcDbBlockTableRecord
  2
*D20
340
0
 70
     0
280
     1
281
     0
  0
BLOCK_RECORD
  5
A5FD
330
1
100
AcDbSymbolTableRecord
100
AcDbBlockTableRecord
  2
*D21
340
0
 70
     0
280
     1
281
     0
  0
BLOCK_RECORD
  5
A60B
330
1
100
AcDbSymbolTableRecord
100
AcDbBlockTableRecord
  2
*D22
340
0
 70
     0
280
     1
281
     0
  0
ENDTAB
  0
ENDSEC
  0
SECTION
  2
BLOCKS
  0
BLOCK
  5
19
330
18
100
AcDbEntity
  8
0
100
AcDbBlockBegin
  2
*MODEL_SPACE
 70
     0
 10
0.0
 20
0.0
 30
0.0
  3
*MODEL_SPACE
  1

  0
ENDBLK
  5
1A
330
18
100
AcDbEntity
  8
0
100
AcDbBlockEnd
  0
BLOCK
  5
16
330
15
100
AcDbEntity
 67
     1
  8
0
100
AcDbBlockBegin
  2
*PAPER_SPACE
 70
     0
 10
0.0
 20
0.0
 30
0.0
  3
*PAPER_SPACE
  1

  0
ENDBLK
  5
17
330
15
100
AcDbEntity
 67
     1
  8
0
100
AcDbBlockEnd
  0
BLOCK
  5
3A
330
36
100
AcDbEntity
  8
0
 48
0.3
100
AcDbBlockBegin
  2
_OPEN
 70
     0
 10
0.0
 20
0.0
 30
0.0
  3
_OPEN
  1

  0
LINE
  5
37
330
36
100
AcDbEntity
  8
0
  6
ByBlock
 62
     0
 48
0.3
100
AcDbLine
 10
-1.0
 20
0.1666666666666666
 30
0.0
 11
0.0
 21
0.0
 31
0.0
  0
LINE
  5
38
330
36
100
AcDbEntity
  8
0
  6
ByBlock
 62
     0
 48
0.3
100
AcDbLine
 10
0.0
 20
0.0
 30
0.0
 11
-1.0
 21
-0.1666666666666666
 31
0.0
  0
LINE
  5
39
330
36
100
AcDbEntity
  8
0
  6
ByBlock
 62
     0
 48
0.3
100
AcDbLine
 10
0.0
 20
0.0
 30
0.0
 11
-1.0
 21
0.0
 31
0.0
  0
ENDBLK
  5
3B
330
36
100
AcDbEntity
  8
0
 48
0.3
100
AcDbBlockEnd
  0
BLOCK
  5
2204
330
2203
100
AcDbEntity
  8
0
100
AcDbBlockBegin
  2
INABA_A3
 70
     2
 10
0.0
 20
0.0
 30
0.0
  3
INABA_A3
  1

  0
ATTDEF
  5
273C
330
2203
100
AcDbEntity
  8
履歴
100
AcDbText
 10
4.804027329292117
 20
1.792711298597622
 30
0.0
 40
3.0
  1
2003/3/20
100
AcDbAttributeDefinition
280
     0
  3
日付
  2
DAY
 70
     0
280
     0
  0
ATTDEF
  5
273D
330
2203
100
AcDbEntity
  8
図面枠
100
AcDbText
 10
341.7583216175437
 20
26.92201685075395
 30
0.0
 40
3.0
  1
PD-45-530SW-11
 72
     4
 11
357.0583216175437
 21
28.42201685075395
 31
0.0
100
AcDbAttributeDefinition
280
     0
  3
名称1
  2
TITLE_1
 70
     0
280
     0
  0
ATTDEF
  5
273E
330
2203
100
AcDbEntity
  8
図面枠
100
AcDbText
 10
335.7394098249709
 20
33.26221300103873
 30
0.0
 40
2.0
  1
田上
100
AcDbAttributeDefinition
280
     0
  3
名称2
  2
TITLE2
 70
     0
280
     0
  0
ATTDEF
  5
273F
330
2203
100
AcDbEntity
  8
図面枠
100
AcDbText
 10
333.983449069733
 20
12.53587344739387
 30
0.0
 40
2.799999999999998
  1
田上
 72
     4
 11
337.063449069733
 21
13.93587344739387
 31
0.0
100
AcDbAttributeDefinition
280
     0
  3
図面番号
  2
DRAWNING_NO
 70
     0
280
     0
  0
ATTDEF
  5
2740
330
2203
100
AcDbEntity
  8
図面枠
100
AcDbText
 10
371.3357572928162
 20
12.53587344739387
 30
0.0
 40
2.799999999999998
  1
田上
 72
     4
 11
374.4157572928162
 21
13.93587344739387
 31
0.0
100
AcDbAttributeDefinition
280
     0
  3
型式
  2
MODEL
 70
     0
280
     0
  0
ATTDEF
  5
2741
330
2203
100
AcDbEntity
  8
図面枠
100
AcDbText
 10
306.6727276417195
 20
19.66393622387111
 30
0.0
 40
2.799999999999998
  1
田上
 72
     4
 11
309.7527276417195
 21
21.06393622387111
 31
0.0
100
AcDbAttributeDefinition
280
     0
  3
尺度
  2
SCALE
 70
     0
280
     0
  0
ATTDEF
  5
2742
330
2203
100
AcDbEntity
  8
図面枠
100
AcDbText
 10
289.3779221794205
 20
26.56593308748109
 30
0.0
 40
3.0
  1
田上
 72
     1
 11
292.6779221794205
 21
26.56593308748109
 31
0.0
100
AcDbAttributeDefinition
280
     0
  3
製図
  2
DRAWN
 70
     0
280
     0
  0
ATTDEF
  5
2743
330
2203
100
AcDbEntity
  8
図面枠
100
AcDbText
 10
269.6279221794205
 20
26.56593308748109
 30
0.0
 40
3.0
  1
田上
 72
     1
 11
272.9279221794205
 21
26.56593308748109
 31
0.0
100
AcDbAttributeDefinition
280
     0
  3
設計
  2
DESIGN
 70
     0
280
     0
  0
ATTDEF
  5
2744
330
2203
100
AcDbEntity
  8
図面枠
100
AcDbText
 10
249.8779221794205
 20
26.56593308748109
 30
0.0
 40
3.0
  1
田上
 72
     1
 11
253.1779221794205
 21
26.56593308748109
 31
0.0
100
AcDbAttributeDefinition
280
     0
  3
検図
  2
CHECK
 70
     0
280
     0
  0
ATTDEF
  5
2745
330
2203
100
AcDbEntity
  8
図面枠
100
AcDbText
 10
230.1279221794205
 20
26.56593308748109
 30
0.0
 40
3.0
  1
田上
 72
     1
 11
233.4279221794205
 21
26.56593308748109
 31
0.0
100
AcDbAttributeDefinition
280
     0
  3
承認
  2
APPROVE
 70
     0
280
     0
  0
ATTDEF
  5
2746
330
2203
100
AcDbEntity
  8
履歴
100
AcDbText
 10
21.26962706202095
 20
12.05614926659427
 30
0.0
 40
3.0
  1
田上
100
AcDbAttributeDefinition
280
     0
  3
履歴A
  2
HISTORY_A
 70
     0
280
     0
  0
ATTDEF
  5
2747
330
2203
100
AcDbEntity
  8
履歴
100
AcDbText
 10
21.26962706202095
 20
17.05614926659427
 30
0.0
 40
3.0
  1
田上
100
AcDbAttributeDefinition
280
     0
  3
履歴B
  2
HISTORY_B
 70
     0
280
     0
  0
ATTDEF
  5
2748
330
2203
100
AcDbEntity
  8
履歴
100
AcDbText
 10
21.26962706202095
 20
22.05614926659428
 30
0.0
 40
3.0
  1
田上
100
AcDbAttributeDefinition
280
     0
  3
履歴C
  2
HISTORY_C
 70
     0
280
     0
  0
ATTDEF
  5
2749
330
2203
100
AcDbEntity
  8
履歴
100
AcDbText
 10
21.26962706202095
 20
27.05614926659428
 30
0.0
 40
3.0
  1
田上
100
AcDbAttributeDefinition
280
     0
  3
履歴D
  2
HISTORY_D
 70
     0
280
     0
  0
ATTDEF
  5
274A
330
2203
100
AcDbEntity
  8
履歴
100
AcDbText
 10
21.26962706202095
 20
32.05614926659428
 30
0.0
 40
3.0
  1
田上
100
AcDbAttributeDefinition
280
     0
  3
履歴E
  2
HISTORY_E
 70
     0
280
     0
  0
ATTDEF
  5
274B
330
2203
100
AcDbEntity
  8
履歴
100
AcDbText
 10
21.26962706202095
 20
37.05614926659428
 30
0.0
 40
3.0
  1
田上
100
AcDbAttributeDefinition
280
     0
  3
履歴F
  2
HISTORY_F
 70
     0
280
     0
  0
ATTDEF
  5
274C
330
2203
100
AcDbEntity
  8
履歴
100
AcDbText
 10
21.26962706202095
 20
42.05614926659428
 30
0.0
 40
3.0
  1
田上
100
AcDbAttributeDefinition
280
     0
  3
履歴G
  2
HISTORY_G
 70
     0
280
     0
  0
ATTDEF
  5
274D
330
2203
100
AcDbEntity
  8
履歴
100
AcDbText
 10
21.26962706202095
 20
47.05614926659428
 30
0.0
 40
3.0
  1
田上
100
AcDbAttributeDefinition
280
     0
  3
履歴H
  2
HISTORY_H
 70
     0
280
     0
  0
ATTDEF
  5
274E
330
2203
100
AcDbEntity
  8
履歴
100
AcDbText
 10
21.26962706202095
 20
52.05614926659428
 30
0.0
 40
3.0
  1
田上
100
AcDbAttributeDefinition
280
     0
  3
履歴H
  2
HISTORY_I
 70
     0
280
     0
  0
ATTDEF
  5
274F
330
2203
100
AcDbEntity
  8
履歴
100
AcDbText
 10
21.26962706202095
 20
57.05614926659428
 30
0.0
 40
3.0
  1
田上
100
AcDbAttributeDefinition
280
     0
  3
履歴I
  2
HISTORY_J
 70
     0
280
     0
  0
LWPOLYLINE
  5
2750
330
2203
100
AcDbEntity
  8
DEFPOINTS
 62
   137
100
AcDbPolyline
 90
        4
 70
     1
 43
0.0
 10
0.0
 20
0.0
 10
408.18
 20
0.0
 10
408.18
 20
285.2399999999999
 10
0.0
 20
285.2399999999999
  0
SOLID
  5
2751
330
2203
100
AcDbEntity
  8
図面枠
100
AcDbTrace
 10
394.0521657161253
 20
7.075379784683192
 30
0.0
 11
393.5529221794207
 21
7.574623321387846
 31
0.0
 12
13.62859074716996
 22
7.075379784683192
 32
0.0
 13
14.12783428387465
 23
7.574623321387846
 33
0.0
  0
SOLID
  5
2752
330
2203
100
AcDbEntity
  8
図面枠
100
AcDbTrace
 10
13.62859074716996
 20
278.6638637520214
 30
0.0
 11
14.12783428387465
 21
278.1646202153167
 31
0.0
 12
394.0521657161253
 22
278.6638637520214
 32
0.0
 13
393.5529221794207
 23
278.1646202153167
 33
0.0
  0
SOLID
  5
2753
330
2203
100
AcDbEntity
  8
図面枠
100
AcDbTrace
 10
13.62859074716996
 20
7.075379784683192
 30
0.0
 11
14.12783428387465
 21
7.574623321387846
 31
0.0
 12
13.62859074716996
 22
278.6638637520214
 32
0.0
 13
14.12783428387465
 23
278.1646202153167
 33
0.0
  0
SOLID
  5
2754
330
2203
100
AcDbEntity
  8
図面枠
100
AcDbTrace
 10
394.0521657161253
 20
278.6638637520214
 30
0.0
 11
393.5529221794207
 21
278.1646202153167
 31
0.0
 12
394.0521657161253
 22
7.075379784683192
 32
0.0
 13
393.5529221794207
 23
7.574623321387846
 33
0.0
  0
LINE
  5
2755
330
2203
100
AcDbEntity
  8
図面枠
100
AcDbLine
 10
317.5529221794207
 20
22.57462332138786
 30
0.0
 11
393.5529221794206
 21
22.57462332138786
 31
0.0
  0
LINE
  5
2756
330
2203
100
AcDbEntity
  8
図面枠
100
AcDbLine
 10
223.5529221794205
 20
37.57462332138786
 30
0.0
 11
393.5529221794206
 21
37.57462332138786
 31
0.0
  0
LINE
  5
2757
330
2203
100
AcDbEntity
  8
図面枠
100
AcDbLine
 10
317.5529221794207
 20
7.574623321387846
 30
0.0
 11
317.5529221794207
 21
37.57462332138786
 31
0.0
  0
LINE
  5
2758
330
2203
100
AcDbEntity
  8
図面枠
100
AcDbLine
 10
302.5529221794205
 20
37.57462332138786
 30
0.0
 11
302.5529221794205
 21
7.574623321387846
 31
0.0
  0
LINE
  5
2759
330
2203
100
AcDbEntity
  8
図面枠
100
AcDbLine
 10
223.5529221794205
 20
7.574623321387846
 30
0.0
 11
223.5529221794205
 21
37.57462332138786
 31
0.0
  0
LINE
  5
275A
330
2203
100
AcDbEntity
  8
図面枠
100
AcDbLine
 10
244.1390776861418
 20
16.22257502528505
 30
0.0
 11
246.1042036861414
 21
13.41608402528523
 31
0.0
  0
LINE
  5
275B
330
2203
100
AcDbEntity
  8
図面枠
100
AcDbLine
 10
243.4792036861414
 20
15.25412852528525
 30
0.0
 11
245.3528701861416
 21
16.56608402528509
 31
0.0
  0
ARC
  5
275C
330
2203
100
AcDbEntity
  8
図面枠
100
AcDbCircle
 10
226.6792036861417
 20
16.30358402528516
 30
0.0
 40
0.2625
100
AcDbArc
 50
44.99999999999971
 51
180.0
  0
LINE
  5
275D
330
2203
100
AcDbEntity
  8
図面枠
100
AcDbLine
 10
226.4167036861414
 20
13.41608402528523
 30
0.0
 11
226.4167036861414
 21
16.30358402528516
 31
0.0
  0
LINE
  5
275E
330
2203
100
AcDbEntity
  8
図面枠
100
AcDbLine
 10
224.9003416861425
 20
16.56608402528509
 30
0.0
 11
224.9003416861425
 21
13.41608402528523
 31
0.0
  0
LINE
  5
275F
330
2203
100
AcDbEntity
  8
図面枠
100
AcDbLine
 10
234.6252691861415
 20
16.22257502528505
 30
0.0
 11
236.5903966861416
 21
13.41608402528523
 31
0.0
  0
LINE
  5
2760
330
2203
100
AcDbEntity
  8
図面枠
100
AcDbLine
 10
233.3055226861412
 20
16.22257502528505
 30
0.0
 11
231.3403966861416
 21
13.41608402528523
 31
0.0
  0
LINE
  5
2761
330
2203
100
AcDbEntity
  8
図面枠
100
AcDbLine
 10
230.6167036861417
 20
13.67858402528516
 30
0.0
 11
230.6167036861417
 21
16.56608402528509
 31
0.0
  0
LINE
  5
2762
330
2203
100
AcDbEntity
  8
図面枠
100
AcDbLine
 10
226.8555766861415
 20
16.49800502528542
 30
0.0
 11
230.1778321861422
 21
13.48416302528524
 31
0.0
  0
ARC
  5
2763
330
2203
100
AcDbEntity
  8
図面枠
100
AcDbCircle
 10
230.3542036861415
 20
13.67858402528516
 30
0.0
 40
0.2625
100
AcDbArc
 50
227.7867300000003
 51
0.0
  0
LINE
  5
2764
330
2203
100
AcDbEntity
  8
図面枠
100
AcDbLine
 10
233.9653966861416
 20
15.25412852528525
 30
0.0
 11
235.8390631861417
 21
16.56608402528509
 31
0.0
  0
ARC
  5
2765
330
2203
100
AcDbEntity
  8
図面枠
100
AcDbCircle
 10
233.9653966861416
 20
15.76052702528518
 30
0.0
 40
0.8055569999999999
100
AcDbArc
 50
34.99999999999984
 51
145.0000000000001
  0
ARC
  5
2766
330
2203
100
AcDbEntity
  8
図面枠
100
AcDbCircle
 10
239.557611186142
 20
14.20358402528536
 30
0.0
 40
0.7875000000000001
100
AcDbArc
 50
270.0
 51
51.39531799999993
  0
LINE
  5
2767
330
2203
100
AcDbEntity
  8
図面枠
100
AcDbLine
 10
240.8542036861414
 20
13.41608402528523
 30
0.0
 11
242.8193311861416
 21
16.22257502528505
 31
0.0
  0
LINE
  5
2768
330
2203
100
AcDbEntity
  8
図面枠
100
AcDbLine
 10
237.1792036861417
 20
16.56608402528509
 30
0.0
 11
237.1792036861417
 21
13.41608402528523
 31
0.0
  0
LINE
  5
2769
330
2203
100
AcDbEntity
  8
図面枠
100
AcDbLine
 10
237.1792036861417
 20
13.41608402528523
 30
0.0
 11
239.557611186142
 21
13.41608402528523
 31
0.0
  0
LINE
  5
276A
330
2203
100
AcDbEntity
  8
図面枠
100
AcDbLine
 10
239.557611186142
 20
16.56608402528509
 30
0.0
 11
237.1792036861417
 21
16.56608402528509
 31
0.0
  0
LINE
  5
276B
330
2203
100
AcDbEntity
  8
図面枠
100
AcDbLine
 10
238.754203686142
 20
14.99108402528516
 30
0.0
 11
239.557611186142
 21
14.99108402528516
 31
0.0
  0
ARC
  5
276C
330
2203
100
AcDbEntity
  8
図面枠
100
AcDbCircle
 10
239.557611186142
 20
15.7785840252853
 30
0.0
 40
0.7875000000000001
100
AcDbArc
 50
270.0
 51
90.0
  0
ARC
  5
276D
330
2203
100
AcDbEntity
  8
図面枠
100
AcDbCircle
 10
243.4792036861414
 20
15.76052702528518
 30
0.0
 40
0.8055569999999999
100
AcDbArc
 50
34.99999999999984
 51
145.0000000000001
  0
TEXT
  5
276E
330
2203
100
AcDbEntity
  8
図面枠
100
AcDbText
 10
247.5647041418997
 20
15.21551532138774
 30
0.0
 40
4.0
  1
株式会社 因幡電機製作所
 41
0.9789911996157989
  7
JX_FONT
 72
     5
 11
300.5607610811016
 21
15.21551532138774
 31
0.0
100
AcDbText
  0
TEXT
  5
276F
330
2203
100
AcDbEntity
  8
図面枠
100
AcDbText
 10
249.1644646134095
 20
10.32355232138771
 30
0.0
 40
2.0
  1
INABA ELECTRIC WORK CO., LTD.
 41
1.252231573578152
 72
     5
 11
298.2644646134089
 21
10.32355232138771
 31
0.0
100
AcDbText
  0
TEXT
  5
2770
330
2203
100
AcDbEntity
  8
図面枠
100
AcDbText
 10
307.0448633044352
 20
8.843123321387976
 30
0.0
 40
3.5
  1
mm
 41
1.073907801268937
 72
     5
 11
313.3829091794206
 21
8.843123321387976
 31
0.0
100
AcDbText
  0
LINE
  5
2771
330
2203
100
AcDbEntity
  8
図面枠
100
AcDbLine
 10
302.5529221794205
 20
17.57462332138785
 30
0.0
 11
317.5529221794207
 21
17.57462332138785
 31
0.0
  0
TEXT
  5
2772
330
2203
100
AcDbEntity
  8
図面枠
100
AcDbText
 10
308.6292161794209
 20
14.19967632138783
 30
0.0
 40
2.0
  1
UNITS
 41
1.194829028061643
 72
     5
 11
316.7292161794205
 21
14.19967632138783
 31
0.0
100
AcDbText
  0
TEXT
  5
2773
330
2203
100
AcDbEntity
  8
図面枠
100
AcDbText
 10
303.8064931794207
 20
14.19967632138783
 30
0.0
 40
2.5
  1
単位
 41
0.75
  7
JX_FONT
 72
     5
 11
307.8064931794207
 21
14.19967632138783
 31
0.0
100
AcDbText
  0
TEXT
  5
2774
330
2203
100
AcDbEntity
  8
図面枠
100
AcDbText
 10
244.5564931794207
 20
34.19967632138783
 30
0.0
 40
2.5
  1
検図
 41
0.7741935483870968
  7
JX_FONT
 72
     5
 11
248.5564931794207
 21
34.19967632138783
 31
0.0
100
AcDbText
  0
LINE
  5
2775
330
2203
100
AcDbEntity
  8
図面枠
100
AcDbLine
 10
302.5529221794205
 20
33.57462332138786
 30
0.0
 11
223.5529221794205
 21
33.57462332138786
 31
0.0
  0
LINE
  5
2776
330
2203
100
AcDbEntity
  8
図面枠
100
AcDbLine
 10
223.5529221794205
 20
22.57462332138786
 30
0.0
 11
302.5529221794205
 21
22.57462332138786
 31
0.0
  0
TEXT
  5
2777
330
2203
100
AcDbEntity
  8
図面枠
100
AcDbText
 10
224.8064931794207
 20
34.19967632138783
 30
0.0
 40
2.5
  1
承認
 41
0.75
  7
JX_FONT
 72
     5
 11
228.8064931794207
 21
34.19967632138783
 31
0.0
100
AcDbText
  0
LINE
  5
2778
330
2203
100
AcDbEntity
  8
図面枠
100
AcDbLine
 10
243.3029221794205
 20
22.57462332138786
 30
0.0
 11
243.3029221794205
 21
37.57462332138786
 31
0.0
  0
TEXT
  5
2779
330
2203
100
AcDbEntity
  8
図面枠
100
AcDbText
 10
229.4729194180687
 20
34.19967632138783
 30
0.0
 40
2.0
  1
APPROVED BY
 41
0.7606486127167568
 72
     5
 11
242.6321404180686
 21
34.19967632138783
 31
0.0
100
AcDbText
  0
TEXT
  5
277A
330
2203
100
AcDbEntity
  8
図面枠
100
AcDbText
 10
269.1406179317272
 20
34.19967632138783
 30
0.0
 40
2.0
  1
DESIGNED BY
 41
0.8381669426751557
 72
     5
 11
282.2998389317271
 21
34.19967632138783
 31
0.0
100
AcDbText
  0
LINE
  5
277B
330
2203
100
AcDbEntity
  8
図面枠
100
AcDbLine
 10
263.0529221794205
 20
37.57462332138786
 30
0.0
 11
263.0529221794205
 21
22.57462332138786
 31
0.0
  0
TEXT
  5
277C
330
2203
100
AcDbEntity
  8
図面枠
100
AcDbText
 10
249.8937121794207
 20
34.19967632138783
 30
0.0
 40
2.0
  1
CHECKED BY
 41
0.8132514615907119
 72
     5
 11
261.8566411794201
 21
34.19967632138783
 31
0.0
100
AcDbText
  0
TEXT
  5
277D
330
2203
100
AcDbEntity
  8
図面枠
100
AcDbText
 10
264.3064931794207
 20
34.19967632138783
 30
0.0
 40
2.5
  1
設計
 41
0.75
  7
JX_FONT
 72
     5
 11
268.3064931794207
 21
34.19967632138783
 31
0.0
100
AcDbText
  0
TEXT
  5
277E
330
2203
100
AcDbEntity
  8
図面枠
100
AcDbText
 10
290.0040941794206
 20
34.19967632138783
 30
0.0
 40
2.0
  1
DRAWN BY
 41
0.9007633587786395
 72
     5
 11
301.8040941794208
 21
34.19967632138783
 31
0.0
100
AcDbText
  0
LINE
  5
277F
330
2203
100
AcDbEntity
  8
図面枠
100
AcDbLine
 10
282.8029221794206
 20
22.57462332138786
 30
0.0
 11
282.8029221794206
 21
37.57462332138786
 31
0.0
  0
TEXT
  5
2780
330
2203
100
AcDbEntity
  8
図面枠
100
AcDbText
 10
284.0564931794207
 20
34.19967632138783
 30
0.0
 40
2.5
  1
製図
 41
0.7741935483870968
  7
JX_FONT
 72
     5
 11
288.0564931794207
 21
34.19967632138783
 31
0.0
100
AcDbText
  0
LINE
  5
2781
330
2203
100
AcDbEntity
  8
図面枠
100
AcDbLine
 10
316.5529221794205
 20
34.94873132138784
 30
0.0
 11
316.5529221794205
 21
29.94873132138783
 31
0.0
  0
LINE
  5
2782
330
2203
100
AcDbEntity
  8
図面枠
100
AcDbLine
 10
310.5529221794205
 20
30.94873132138783
 30
0.0
 11
310.5529221794205
 21
33.94873132138783
 31
0.0
  0
CIRCLE
  5
2783
330
2203
100
AcDbEntity
  8
図面枠
100
AcDbCircle
 10
306.0529221794205
 20
32.44873132138784
 30
0.0
 40
2.5
  0
CIRCLE
  5
2784
330
2203
100
AcDbEntity
  8
図面枠
100
AcDbCircle
 10
306.0529221794205
 20
32.44873132138784
 30
0.0
 40
1.5
  0
LINE
  5
2785
330
2203
100
AcDbEntity
  8
図面枠
100
AcDbLine
 10
317.5529221794207
 20
27.57462332138786
 30
0.0
 11
302.5529221794205
 21
27.57462332138786
 31
0.0
  0
LINE
  5
2786
330
2203
100
AcDbEntity
  8
図面枠
100
AcDbLine
 10
316.9624321794211
 20
32.44873132138784
 30
0.0
 11
303.2491101794204
 21
32.44873132138784
 31
0.0
  0
TEXT
  5
2787
330
2203
100
AcDbEntity
  8
0
100
AcDbText
 10
308.6292161794209
 20
24.19967632138783
 30
0.0
 40
2.0
  1
SCALE
 41
1.109589041095839
 72
     5
 11
316.7292161794205
 21
24.19967632138783
 31
0.0
100
AcDbText
  0
TEXT
  5
2788
330
2203
100
AcDbEntity
  8
図面枠
100
AcDbText
 10
303.8064931794207
 20
24.19967632138783
 30
0.0
 40
2.5
  1
尺度
 41
0.75
  7
JX_FONT
 72
     5
 11
307.8064931794207
 21
24.19967632138783
 31
0.0
100
AcDbText
  0
LINE
  5
2789
330
2203
100
AcDbEntity
  8
図面枠
100
AcDbLine
 10
316.5529221794205
 20
29.94873132138783
 30
0.0
 11
310.5529221794205
 21
30.94873132138783
 31
0.0
  0
LINE
  5
278A
330
2203
100
AcDbEntity
  8
図面枠
100
AcDbLine
 10
310.5529221794205
 20
33.94873132138783
 30
0.0
 11
316.5529221794205
 21
34.94873132138784
 31
0.0
  0
TEXT
  5
278B
330
2203
100
AcDbEntity
  8
0
100
AcDbText
 10
368.1893971794208
 20
19.19967632138783
 30
0.0
 40
2.0
  1
MODEL
 41
1.213333333333275
 72
     5
 11
377.2893971794204
 21
19.19967632138783
 31
0.0
100
AcDbText
  0
TEXT
  5
278C
330
2203
100
AcDbEntity
  8
0
100
AcDbText
 10
358.5354661794212
 20
19.19967632138783
 30
0.0
 40
2.5
  1
型 式
 41
0.8780487804878049
  7
JX_FONT
 72
     5
 11
364.5354661794212
 21
19.19967632138783
 31
0.0
100
AcDbText
  0
TEXT
  5
278D
330
2203
100
AcDbEntity
  8
図面枠
100
AcDbText
 10
319.5354661794211
 20
19.19967632138783
 30
0.0
 40
2.5
  1
図面番号
 41
0.7058823529411763
  7
JX_FONT
 72
     5
 11
327.5354661794211
 21
19.19967632138783
 31
0.0
100
AcDbText
  0
TEXT
  5
278E
330
2203
100
AcDbEntity
  8
図面枠
100
AcDbText
 10
329.1893971794209
 20
19.19967632138783
 30
0.0
 40
2.0
  1
DRAWNING NO.
 41
1.156069306358364
 72
     5
 11
349.1893961794206
 21
19.19967632138783
 31
0.0
100
AcDbText
  0
LINE
  5
278F
330
2203
100
AcDbEntity
  8
図面枠
100
AcDbLine
 10
356.5529221794207
 20
22.57462332138786
 30
0.0
 11
356.5529221794207
 21
7.574623321387846
 31
0.0
  0
TEXT
  5
2790
330
2203
100
AcDbEntity
  8
図面枠
100
AcDbText
 10
324.8868451794208
 20
33.25460432138785
 30
0.0
 40
2.0
  1
TITLE
 41
0.8678571428570782
  7
JX_FONT
 72
     5
 11
332.9868451794202
 21
33.25460432138785
 31
0.0
100
AcDbText
  0
TEXT
  5
2791
330
2203
100
AcDbEntity
  8
図面枠
100
AcDbText
 10
319.5354661794211
 20
33.25460432138785
 30
0.0
 40
2.5
  1
名称
 41
0.75
  7
JX_FONT
 72
     5
 11
323.5354661794211
 21
33.25460432138785
 31
0.0
100
AcDbText
  0
ENDBLK
  5
2205
330
2203
100
AcDbEntity
  8
0
100
AcDbBlockEnd
  0
BLOCK
  5
453D
330
4538
100
AcDbEntity
  8
0
100
AcDbBlockBegin
  2
SW_CENTERMARKSYMBOL_11
 70
     0
 10
0.0
 20
0.0
 30
0.0
  3
SW_CENTERMARKSYMBOL_11
  1

  0
LINE
  5
4539
330
4538
100
AcDbEntity
  8
0
  6
Continuous
 62
     7
370
     0
100
AcDbLine
 10
0.0
 20
0.0
 30
0.0
 11
0.0
 21
2.500000000000002
 31
0.0
  0
LINE
  5
453A
330
4538
100
AcDbEntity
  8
0
  6
Continuous
 62
     7
370
     0
100
AcDbLine
 10
0.0
 20
0.0
 30
0.0
 11
-2.500000000000002
 21
0.0
 31
0.0
  0
LINE
  5
453B
330
4538
100
AcDbEntity
  8
0
  6
Continuous
 62
     7
370
     0
100
AcDbLine
 10
0.0
 20
0.0
 30
0.0
 11
0.0
 21
-2.500000000000002
 31
0.0
  0
LINE
  5
453C
330
4538
100
AcDbEntity
  8
0
  6
Continuous
 62
     7
370
     0
100
AcDbLine
 10
0.0
 20
0.0
 30
0.0
 11
2.500000000000002
 21
0.0
 31
0.0
  0
ENDBLK
  5
453E
330
4538
100
AcDbEntity
  8
0
100
AcDbBlockEnd
  0
BLOCK
  5
4544
330
453F
100
AcDbEntity
  8
0
100
AcDbBlockBegin
  2
SW_CENTERMARKSYMBOL_12
 70
     0
 10
0.0
 20
0.0
 30
0.0
  3
SW_CENTERMARKSYMBOL_12
  1

  0
LINE
  5
4540
330
453F
100
AcDbEntity
  8
0
  6
Continuous
 62
     7
370
     0
100
AcDbLine
 10
0.0
 20
0.0
 30
0.0
 11
0.0
 21
2.500000000000002
 31
0.0
  0
LINE
  5
4541
330
453F
100
AcDbEntity
  8
0
  6
Continuous
 62
     7
370
     0
100
AcDbLine
 10
0.0
 20
0.0
 30
0.0
 11
-2.500000000000002
 21
0.0
 31
0.0
  0
LINE
  5
4542
330
453F
100
AcDbEntity
  8
0
  6
Continuous
 62
     7
370
     0
100
AcDbLine
 10
0.0
 20
0.0
 30
0.0
 11
0.0
 21
-2.500000000000002
 31
0.0
  0
LINE
  5
4543
330
453F
100
AcDbEntity
  8
0
  6
Continuous
 62
     7
370
     0
100
AcDbLine
 10
0.0
 20
0.0
 30
0.0
 11
2.500000000000002
 21
0.0
 31
0.0
  0
ENDBLK
  5
4545
330
453F
100
AcDbEntity
  8
0
100
AcDbBlockEnd
  0
BLOCK
  5
4587
330
4546
100
AcDbEntity
  8
0
100
AcDbBlockBegin
  2
A$C537908AB
 70
     0
 10
0.0
 20
0.0
 30
0.0
  3
A$C537908AB
  1

  0
MTEXT
  5
4547
102
{ACAD_REACTORS
330
4548
102
}
330
4546
100
AcDbEntity
  8
DIM
 62
     2
100
AcDbMText
 10
124.2667113857205
 20
120.8855046303246
 30
0.0
 40
12.0
 41
0.0
 46
0.0
 71
     6
 72
     1
  1
電線VCTF0.75x2C
 73
     1
 44
1.0
  0
LEADER
  5
4548
330
4546
100
AcDbEntity
  8
DIM
100
AcDbLeader
  3
STANDARD
 73
     0
 75
     1
 40
12.00236220472441
 41
118.2
 76
     3
 10
176.0353728804316
 20
152.9247164200786
 30
0.0
 10
127.7667113857205
 20
113.8843235279624
 30
0.0
 10
125.2667113857205
 20
113.8843235279624
 30
0.0
340
4547
1001
ACAD
1000
DSTYLE
1002
{
1070
   147
1040
1.0
1070
    77
1070
     1
1002
}
  0
SPLINE
  5
4549
330
4546
100
AcDbEntity
  8
OBJECT
100
AcDbSpline
210
0.0
220
0.0
230
1.0
 70
     8
 71
     3
 72
    20
 73
    16
 74
     0
 42
0.000000001
 43
0.0000000001
 40
44.25436732437768
 40
44.25436732437768
 40
44.25436732437768
 40
44.25436732437768
 40
52.78353234110987
 40
52.78353234110987
 40
60.25946446349942
 40
60.25946446349942
 40
66.75456405476976
 40
66.75456405476976
 40
71.22117140340447
 40
71.22117140340447
 40
77.07780623898329
 40
77.07780623898329
 40
82.93444107456211
 40
82.93444107456211
 40
85.21465917469702
 40
85.21465917469702
 40
85.21465917469702
 40
85.21465917469702
 10
177.4607045591151
 20
91.53222757415026
 30
0.0
 10
178.0284484334202
 20
94.34378446573393
 30
0.0
 10
178.5811883730161
 20
97.16828377276645
 30
0.0
 10
179.5225405668007
 20
102.4980044664316
 30
0.0
 10
179.9229013350318
 20
104.9996342029014
 30
0.0
 10
180.5506868538691
 20
109.7010476244925
 30
0.0
 10
180.7938992858489
 20
111.897385797868
 30
0.0
 10
181.0938591186454
 20
115.6239771293073
 30
0.0
 10
181.1851107352722
 20
117.148025671541
 30
0.0
 10
181.3115723727651
 20
120.6838291221033
 30
0.0
 10
181.3178432025951
 20
122.6873239346816
 30
0.0
 10
181.2458728060137
 20
126.6722912019979
 30
0.0
 10
181.1678862395097
 20
128.6560484248959
 30
0.0
 10
181.0334040898233
 20
131.3982519763314
 30
0.0
 10
180.9928636668178
 20
132.1651931246044
 30
0.0
 10
180.9507951275636
 20
140.5201929818856
 30
0.0
  0
SPLINE
  5
454A
330
4546
100
AcDbEntity
  8
OBJECT
100
AcDbSpline
210
0.0
220
0.0
230
1.0
 70
     8
 71
     3
 72
    14
 73
    10
 74
     0
 42
0.000000001
 43
0.0000000001
 40
42.33415501075244
 40
42.33415501075244
 40
42.33415501075244
 40
42.33415501075244
 40
53.13270917662343
 40
53.13270917662343
 40
65.45289213169272
 40
65.45289213169272
 40
85.81979631164385
 40
85.81979631164385
 40
90.46378502619223
 40
90.46378502619223
 40
90.46378502619223
 40
90.46378502619223
 10
170.7047204573578
 20
90.63459148319379
 30
0.0
 10
171.2399940388709
 20
94.17819265398472
 30
0.0
 10
171.8011628989146
 20
97.71529070780205
 30
0.0
 10
173.0719908313061
 20
105.2765016485541
 30
0.0
 10
173.7901314695841
 20
109.3032081522778
 30
0.0
 10
175.7643173566416
 20
119.9851656431887
 30
0.0
 10
177.0653707135425
 20
126.6394710795343
 30
0.0
 10
178.6666846625821
 20
134.8214933324763
 30
0.0
 10
178.9639041869318
 20
136.3411874875061
 30
0.0
 10
179.3965478304594
 20
140.5972153741886
 30
0.0
  0
SPLINE
  5
454B
330
4546
100
AcDbEntity
  8
OBJECT
100
AcDbSpline
210
0.0
220
0.0
230
1.0
 70
     8
 71
     3
 72
     9
 73
     5
 74
     0
 42
0.000000001
 43
0.0000000001
 40
43.45941037462288
 40
43.45941037462288
 40
43.45941037462288
 40
43.45941037462288
 40
71.65114032561607
 40
83.97657737650755
 40
83.97657737650755
 40
83.97657737650755
 40
83.97657737650755
 10
174.3614854448155
 20
91.34317678525915
 30
0.0
 10
176.2397511927388
 20
100.5970956690475
 30
0.0
 10
178.719246466871
 20
113.9053207236536
 30
0.0
 10
178.2364533477325
 20
127.4126371496492
 30
0.0
 10
178.0218289996142
 20
131.5261549707026
 30
0.0
  0
LINE
  5
454C
330
4546
100
AcDbEntity
  8
OBJECT
100
AcDbLine
 10
170.39654082477
 20
148.7738504910393
 30
0.0
 11
141.6977211426483
 21
22.68238970019155
 31
0.0
  0
LINE
  5
454D
330
4546
100
AcDbEntity
  8
OBJECT
100
AcDbLine
 10
167.9081677072636
 20
149.2942008062729
 30
0.0
 11
143.5628500312486
 21
39.64336678635522
 31
0.0
  0
SPLINE
  5
454E
330
4546
100
AcDbEntity
  8
OBJECT
100
AcDbSpline
210
0.0
220
0.0
230
1.0
 70
     8
 71
     3
 72
    10
 73
     6
 74
     0
 42
0.000000001
 43
0.0000000001
 40
18.7748988020087
 40
18.7748988020087
 40
18.7748988020087
 40
18.7748988020087
 40
51.9388787782521
 40
88.15716378284745
 40
92.79853970903214
 40
92.79853970903214
 40
92.79853970903214
 40
92.79853970903214
 10
164.5260044569136
 20
67.74411682262715
 30
0.0
 10
165.9226469741761
 20
78.71278381218664
 30
0.0
 10
169.0743967225576
 20
101.6238337188119
 30
0.0
 10
173.8561754691841
 20
125.8423661936271
 30
0.0
 10
176.4677974381107
 20
139.2092638592234
 30
0.0
 10
176.7644596976329
 20
140.7276513254796
 30
0.0
  0
MTEXT
  5
454F
102
{ACAD_REACTORS
330
4550
102
}
330
4546
100
AcDbEntity
  8
DIM
 62
     2
100
AcDbMText
 10
212.1192610500866
 20
26.282707782003
 30
0.0
 40
12.0
 41
0.0
 46
0.0
 71
     7
 72
     1
  1
防水コネクター
 73
     1
 44
1.0
  0
LEADER
  5
4550
330
4546
100
AcDbEntity
  8
DIM
100
AcDbLeader
  3
STANDARD
 73
     0
 74
     0
 75
     1
 40
12.0
 41
95.99999999999999
 76
     3
 10
172.9533462187278
 20
37.81546276482558
 30
0.0
 10
208.6192610500866
 20
25.282707782003
 30
0.0
 10
211.1192610500866
 20
25.282707782003
 30
0.0
340
454F
1001
ACAD
1000
DSTYLE
1002
{
1070
   147
1040
1.0
1070
    77
1070
     1
1002
}
  0
MTEXT
  5
4551
330
4546
100
AcDbEntity
  8
DIM
 62
     2
100
AcDbMText
 10
126.1999892671265
 20
90.75137294091865
 30
0.0
 40
12.0
 41
0.0
 46
0.0
 71
     6
 72
     1
  1
{\L防水コネクター加工\P器具外4.0m付}
 73
     1
 44
1.0
  0
LEADER
  5
4552
330
4546
100
AcDbEntity
  8
DIM
100
AcDbLeader
  3
STANDARD
 73
     0
 75
     1
 40
12.0
 41
54.40000000000001
 76
     3
 10
149.0099262172407
 20
64.1768912493563
 30
0.0
 10
106.1390988835728
 20
42.14243504366432
 30
0.0
 10
103.6390988835728
 20
42.14243504366432
 30
0.0
340
4553
1001
ACAD
1000
DSTYLE
1002
{
1070
   147
1040
1.0
1070
    77
1070
     1
1002
}
  0
MTEXT
  5
4553
102
{ACAD_REACTORS
330
4552
102
}
330
4546
100
AcDbEntity
  8
DIM
 62
     2
100
AcDbMText
 10
102.6390988835728
 20
43.14243504366433
 30
0.0
 40
12.0
 41
0.0
 46
0.0
 71
     9
 72
     1
  1
アース線
 73
     1
 44
1.0
  0
SPLINE
  5
4554
330
4546
100
AcDbEntity
  8
OBJECT
100
AcDbSpline
210
0.0
220
0.0
230
1.0
 70
  1064
 71
     3
 72
    10
 73
     6
 74
     4
 42
0.000000001
 43
0.0000000001
 44
0.0000000001
 40
0.0
 40
0.0
 40
0.0
 40
0.0
 40
5.903986043162881
 40
16.4623650589425
 40
19.08235350172108
 40
19.08235350172108
 40
19.08235350172108
 40
19.08235350172108
 10
145.47178283623
 20
38.99742417074347
 30
0.0
 10
143.6054157973339
 20
39.67712761365064
 30
0.0
 10
138.4013358243019
 20
41.5723770480418
 30
0.0
 10
131.7763666119565
 20
40.38185975018345
 30
0.0
 10
127.5870706309311
 20
41.76556023670186
 30
0.0
 10
126.7541975843887
 20
42.04065343730852
 30
0.0
 11
145.47178283623
 21
38.99742417074347
 31
0.0
 11
139.8069202777815
 21
40.66066900892886
 31
0.0
 11
129.2680711478688
 21
41.30256187989224
 31
0.0
 11
126.7541975843887
 21
42.04065343730852
 31
0.0
  0
LINE
  5
4555
330
4546
100
AcDbEntity
  8
OBJECT
100
AcDbLine
 10
140.9698098671041
 20
30.8117048438814
 30
0.0
 11
138.8301808038559
 21
23.52432039445938
 31
0.0
  0
LINE
  5
4556
330
4546
100
AcDbEntity
  8
OBJECT
100
AcDbLine
 10
141.6977211426483
 20
22.68238970019155
 30
0.0
 11
138.8301808038568
 21
23.52432039446302
 31
0.0
  0
LINE
  5
4557
330
4546
100
AcDbEntity
  8
OBJECT
100
AcDbLine
 10
139.4847612099938
 20
15.14524689472404
 30
0.0
 11
136.6172208711987
 21
15.98717758899573
 31
0.0
  0
LINE
  5
4558
330
4546
100
AcDbEntity
  8
OBJECT
100
AcDbLine
 10
139.4847612099938
 20
15.14524689472404
 30
0.0
 11
135.0380073760234
 21
0.0000026574606977
 31
0.0
  0
LINE
  5
4559
330
4546
100
AcDbEntity
  8
OBJECT
100
AcDbLine
 10
141.1828308463427
 20
22.83356523511901
 30
0.0
 11
138.9698709136846
 21
15.2964224296449
 31
0.0
  0
LINE
  5
455A
330
4546
100
AcDbEntity
  8
OBJECT
100
AcDbLine
 10
139.3450711001651
 20
23.3731448595351
 30
0.0
 11
137.132111167507
 21
15.83600205406054
 31
0.0
  0
LINE
  5
455B
330
4546
100
AcDbEntity
  8
OBJECT1
100
AcDbLine
 10
135.0380073760234
 20
0.0000026574606977
 30
0.0
 11
132.1704670372346
 21
0.8419333517296648
 31
0.0
  0
LINE
  5
455C
330
4546
100
AcDbEntity
  8
OBJECT
100
AcDbLine
 10
136.6172208711987
 20
15.98717758899573
 30
0.0
 11
132.1704670372355
 21
0.8419333517314838
 31
0.0
  0
SPLINE
  5
455D
330
4546
100
AcDbEntity
  8
OBJECT
100
AcDbSpline
210
0.0
220
0.0
230
1.0
 70
  1080
 71
     3
 72
     8
 73
     4
 74
     2
 42
0.000000001
 43
0.0000000001
 44
0.0000000001
 40
0.0
 40
0.0
 40
0.0
 40
0.0
 40
2.773820995653309
 40
2.773820995653309
 40
2.773820995653309
 40
2.773820995653309
 10
137.399285210742
 20
31.7986757890815
 30
0.0
 10
138.2254400255914
 20
31.38350555451396
 30
0.0
 10
139.0515948404408
 20
30.96833531994642
 30
0.0
 10
139.8777496552902
 20
30.55316508537888
 30
0.0
 11
137.399285210742
 21
31.7986757890815
 31
0.0
 11
139.8777496552902
 21
30.55316508537888
 31
0.0
  0
LINE
  5
455E
330
4546
100
AcDbEntity
  8
OBJECT
100
AcDbLine
 10
129.1204382062942
 20
35.73547934865582
 30
0.0
 11
132.1359690047775
 21
34.85009757933466
 31
0.0
  0
LINE
  5
455F
330
4546
100
AcDbEntity
  8
OBJECT
100
AcDbLine
 10
131.6805821250109
 20
39.44455585129225
 30
0.0
 11
130.7349463354603
 21
36.22380527076683
 31
0.0
  0
LINE
  5
4560
330
4546
100
AcDbEntity
  8
OBJECT
100
AcDbLine
 10
128.3334642187046
 20
36.92889788219003
 30
0.0
 11
133.0612774140136
 21
35.54077755060865
 31
0.0
  0
SPLINE
  5
4561
330
4546
100
AcDbEntity
  8
OBJECT
100
AcDbSpline
210
0.0
220
0.0
230
1.0
 70
  1064
 71
     3
 72
     9
 73
     5
 74
     3
 42
0.000000001
 43
0.0000000001
 44
0.0000000001
 40
0.0
 40
0.0
 40
0.0
 40
0.0
 40
6.56463896549222
 40
9.212156035957654
 40
9.212156035957654
 40
9.212156035957654
 40
9.212156035957654
 10
126.7541975843878
 20
42.04065343730488
 30
0.0
 10
126.0155566535819
 20
39.97630059407133
 30
0.0
 10
124.979022040651
 20
37.07939482284674
 30
0.0
 10
124.3437350110789
 20
34.07300846971379
 30
0.0
 10
124.1611574202443
 20
33.20899149483128
 30
0.0
 11
126.7541975843878
 21
42.04065343730488
 31
0.0
 11
124.7420313291986
 21
35.79199984563118
 31
0.0
 11
124.1611574202443
 21
33.20899149483128
 31
0.0
  0
LINE
  5
4562
330
4546
100
AcDbEntity
  8
OBJECT
100
AcDbLine
 10
129.3481093015734
 20
34.706276211177
 30
0.0
 11
131.2549880953456
 21
34.14640273180675
 31
0.0
  0
SPLINE
  5
4563
330
4546
100
AcDbEntity
  8
OBJECT
100
AcDbSpline
210
0.0
220
0.0
230
1.0
 70
  1064
 71
     3
 72
    10
 73
     6
 74
     4
 42
0.000000001
 43
0.0000000001
 44
0.0000000001
 40
0.0
 40
0.0
 40
0.0
 40
0.0
 40
5.903986043163815
 40
16.46236505894229
 40
19.08235350172171
 40
19.08235350172171
 40
19.08235350172171
 40
19.08235350172171
 10
142.8787426720864
 20
30.16576222827329
 30
0.0
 10
141.01237563319
 20
30.84546567118076
 30
0.0
 10
135.808295660158
 20
32.74071510557246
 30
0.0
 10
129.1833264478124
 20
31.55019780770947
 30
0.0
 10
124.994030466787
 20
32.93389829422812
 30
0.0
 10
124.1611574202443
 20
33.20899149483493
 30
0.0
 11
142.8787426720864
 21
30.16576222827329
 31
0.0
 11
137.213880113637
 21
31.8290070664589
 31
0.0
 11
126.6750309837252
 21
32.47089993741841
 31
0.0
 11
124.1611574202443
 21
33.20899149483493
 31
0.0
  0
SPLINE
  5
4564
330
4546
100
AcDbEntity
  8
OBJECT
100
AcDbSpline
210
0.0
220
0.0
230
1.0
 70
     8
 71
     3
 72
     9
 73
     5
 74
     0
 42
0.000000001
 43
0.0000000001
 40
18.7916821828819
 40
18.7916821828819
 40
18.7916821828819
 40
18.7916821828819
 40
28.98844643005793
 40
31.08121315500807
 40
31.08121315500807
 40
31.08121315500807
 40
31.08121315500807
 10
169.8539310764858
 20
67.01077304221715
 30
0.0
 10
170.3592287757151
 20
70.37302560638548
 30
0.0
 10
171.0198039126421
 20
74.42119785129604
 30
0.0
 10
171.7762611788584
 20
78.46166662662081
 30
0.0
 10
171.9073335576918
 20
79.14952592549477
 30
0.0
  0
LINE
  5
4565
330
4546
100
AcDbEntity
  8
OBJECT
100
AcDbLine
 10
162.9702508760492
 20
67.95825306995467
 30
0.0
 11
174.8581698464677
 21
66.32198214105253
 31
0.0
  0
LINE
  5
4566
330
4546
100
AcDbEntity
  8
OBJECT
100
AcDbLine
 10
168.2045805138332
 20
39.983232189837
 30
0.0
 11
170.1859003422364
 21
39.71052036835335
 31
0.0
  0
LINE
  5
4567
330
4546
100
AcDbEntity
  8
OBJECT
100
AcDbLine
 10
170.1859003422355
 20
39.71052036834993
 30
0.0
 11
168.8223412348175
 21
29.80392122633833
 31
0.0
  0
ARC
  5
4568
330
4546
100
AcDbEntity
  8
OBJECT
100
AcDbCircle
 10
226.2410846402977
 20
76.40529557405122
 30
0.0
 40
57.33027654503381
100
AcDbArc
 50
165.6290582355651
 51
178.0745670286854
  0
LINE
  5
4569
330
4546
100
AcDbEntity
  8
OBJECT
100
AcDbLine
 10
158.2618128328095
 20
48.41776660740783
 30
0.0
 11
174.1123714600335
 21
46.23607203553837
 31
0.0
  0
LINE
  5
456A
330
4546
100
AcDbEntity
  8
OBJECT
100
AcDbLine
 10
155.9437623501981
 20
31.5765480659822
 30
0.0
 11
171.7943209774221
 21
29.39485349411274
 31
0.0
  0
LINE
  5
456B
330
4546
100
AcDbEntity
  8
OBJECT
100
AcDbLine
 10
161.1697737426893
 20
32.87608834067595
 30
0.0
 11
167.1137332278981
 21
32.05795287622499
 31
0.0
  0
LINE
  5
456C
330
4546
100
AcDbEntity
  8
OBJECT
100
AcDbLine
 10
162.2606210286235
 20
40.80136765428477
 30
0.0
 11
161.1697737426893
 21
32.87608834067595
 31
0.0
  0
SPLINE
  5
456D
330
4546
100
AcDbEntity
  8
OBJECT
100
AcDbSpline
210
0.0
220
0.0
230
1.0
 70
     8
 71
     3
 72
     8
 73
     4
 74
     0
 42
0.000000001
 43
0.0000000001
 40
18.74444944456909
 40
18.74444944456909
 40
18.74444944456909
 40
18.74444944456909
 40
29.86036725792173
 40
29.86036725792173
 40
29.86036725792173
 40
29.86036725792173
 10
167.4981370867958
 20
67.33502804676826
 30
0.0
 10
167.9653472727737
 20
71.00484569635593
 30
0.0
 10
168.4446124623896
 20
74.67072856443954
 30
0.0
 10
168.9431767547394
 20
78.33152522497876
 30
0.0
  0
LINE
  5
456E
330
4546
100
AcDbEntity
  8
OBJECT
100
AcDbLine
 10
161.9879092071401
 20
38.82004782588519
 30
0.0
 11
167.9318686923493
 21
38.001912361434
 31
0.0
  0
LINE
  5
456F
330
4546
100
AcDbEntity
  8
OBJECT
100
AcDbLine
 10
168.9142103612585
 20
67.14011760550372
 30
0.0
 11
166.1870921464215
 21
47.32691932147321
 31
0.0
  0
LINE
  5
4570
330
4546
100
AcDbEntity
  8
OBJECT
100
AcDbLine
 10
168.2045805138327
 20
39.98323218983358
 30
0.0
 11
167.1137332278981
 21
32.05795287622499
 31
0.0
  0
LINE
  5
4571
330
4546
100
AcDbEntity
  8
OBJECT
100
AcDbLine
 10
158.2618128328095
 20
48.41776660740783
 30
0.0
 11
155.9437623501981
 21
31.5765480659822
 31
0.0
  0
LINE
  5
4572
330
4546
100
AcDbEntity
  8
OBJECT
100
AcDbLine
 10
160.2793012002203
 20
41.07407947576843
 30
0.0
 11
158.9157420928027
 21
31.16748033375683
 31
0.0
  0
LINE
  5
4573
330
4546
100
AcDbEntity
  8
OBJECT
100
AcDbLine
 10
160.2793012002203
 20
41.07407947576843
 30
0.0
 11
162.2606210286235
 21
40.80136765428477
 31
0.0
  0
LINE
  5
4574
330
4546
100
AcDbEntity
  8
OBJECT
100
AcDbLine
 10
162.9702508760492
 20
67.95825306995467
 30
0.0
 11
160.2431326612122
 21
48.14505478592416
 31
0.0
  0
SPLINE
  5
4575
330
4546
100
AcDbEntity
  8
OBJECT
100
AcDbSpline
210
0.0
220
0.0
230
1.0
 70
     8
 71
     3
 72
    10
 73
     6
 74
     0
 42
0.000000001
 43
0.0000000001
 40
18.82911303833393
 40
18.82911303833393
 40
18.82911303833393
 40
18.82911303833393
 40
26.17880098289077
 40
26.17880098289077
 40
32.23497331904071
 40
32.23497331904071
 40
32.23497331904071
 40
32.23497331904071
 10
172.8261445070202
 20
66.60167314483968
 30
0.0
 10
173.1878800015874
 20
69.0071275708631
 30
0.0
 10
173.5711981006816
 20
71.40733079791906
 30
0.0
 10
174.3252293872938
 20
75.77459870569757
 30
0.0
 10
174.6886827019429
 20
77.74207408265779
 30
0.0
 10
175.0712450478827
 20
79.71576981543009
 30
0.0
  0
LINE
  5
4576
330
4546
100
AcDbEntity
  8
OBJECT
100
AcDbLine
 10
174.8581698464677
 20
66.32198214105253
 30
0.0
 11
172.1310516316306
 21
46.50878385702203
 31
0.0
  0
LINE
  5
4577
330
4546
100
AcDbEntity
  8
OBJECT
100
AcDbLine
 10
174.1123714600335
 20
46.23607203553837
 30
0.0
 11
171.7943209774221
 21
29.39485349411274
 31
0.0
  0
SPLINE
  5
4578
330
4546
100
AcDbEntity
  8
OBJECT
100
AcDbSpline
210
0.0
220
0.0
230
1.0
 70
  1064
 71
     3
 72
     9
 73
     5
 74
     3
 42
0.000000001
 43
0.0000000001
 44
0.0000000001
 40
0.0
 40
0.0
 40
0.0
 40
0.0
 40
6.632271220841131
 40
12.05581173512192
 40
12.05581173512192
 40
12.05581173512192
 40
12.05581173512192
 10
175.0712450478827
 20
79.71576981542987
 30
0.0
 10
175.5268038547547
 20
81.87912900250227
 30
0.0
 10
176.354895925638
 20
85.81157540077901
 30
0.0
 10
177.1175912767044
 20
89.75720820342699
 30
0.0
 10
177.4607045591151
 20
91.53222757415049
 30
0.0
 11
175.0712450478827
 21
79.71576981542987
 31
0.0
 11
176.4181295630897
 21
86.2098381588871
 31
0.0
 11
177.4607045591151
 21
91.53222757415049
 31
0.0
  0
ARC
  5
4579
330
4546
100
AcDbEntity
  8
OBJECT
100
AcDbCircle
 10
85.08459834982113
 20
102.9676731057968
 30
0.0
 40
90.03050307578314
100
AcDbArc
 50
344.659403391428
 51
352.5814120083696
  0
LINE
  5
457A
330
4546
100
AcDbEntity
  8
OBJECT
100
AcDbLine
 10
190.1408467015226
 20
177.9072792386
 30
0.0
 11
196.537901447853
 21
171.2846367693487
 31
0.0
  0
SPLINE
  5
457B
330
4546
100
AcDbEntity
  8
OBJECT
100
AcDbSpline
210
0.0
220
0.0
230
1.0
 70
     8
 71
     3
 72
    38
 73
    34
 74
     0
 42
0.000000001
 43
0.0000000001
 40
46.92617658515457
 40
46.92617658515457
 40
46.92617658515457
 40
46.92617658515457
 40
49.92941835029778
 40
49.92941835029778
 40
52.27734703774846
 40
52.27734703774846
 40
54.62527572519912
 40
54.62527572519912
 40
59.115905278311
 40
59.115905278311
 40
63.60653483142289
 40
63.60653483142289
 40
68.09716438453476
 40
68.09716438453476
 40
71.11141044184589
 40
71.11141044184589
 40
74.125656499157
 40
74.125656499157
 40
76.24512252727566
 40
76.24512252727566
 40
78.36458855539429
 40
78.36458855539429
 40
80.48405458351295
 40
80.48405458351295
 40
81.00779733271664
 40
81.00779733271664
 40
81.53154008192037
 40
81.53154008192037
 40
82.57902558032778
 40
82.57902558032778
 40
84.60025801079554
 40
84.60025801079554
 40
86.49989337323722
 40
86.49989337323722
 40
86.49989337323722
 40
86.49989337323722
 10
194.3068805122152
 20
175.8819142502341
 30
0.0
 10
194.943154475377
 20
176.2163373727385
 30
0.0
 10
195.6419348046961
 20
176.5387803527787
 30
0.0
 10
197.0087816634423
 20
177.0912027853289
 30
0.0
 10
197.6464715940819
 20
177.3243290632349
 30
0.0
 10
199.0352064144858
 20
177.7868162978554
 30
0.0
 10
199.7818165685044
 20
178.0149186300964
 30
0.0
 10
202.0715875963233
 20
178.6721649486073
 30
0.0
 10
203.7184618784258
 20
179.0936321790775
 30
0.0
 10
207.1551549071492
 20
179.9732491538038
 30
0.0
 10
208.9449322979067
 20
180.4313116754065
 30
0.0
 10
212.5695058333968
 20
181.4855269626685
 30
0.0
 10
214.404790129036
 20
182.0793432761293
 30
0.0
 10
217.4646374282097
 20
183.3340386820673
 30
0.0
 10
218.6929848200602
 20
183.9093375176203
 30
0.0
 10
221.1246189937096
 20
185.3007642313148
 30
0.0
 10
222.3310297482381
 20
186.1181911551298
 30
0.0
 10
224.2896569338291
 20
187.8305963738731
 30
0.0
 10
225.0693381082724
 20
188.6319824325348
 30
0.0
 10
226.4929261790357
 20
190.4475602005773
 30
0.0
 10
227.1350938517717
 20
191.4628705658135
 30
0.0
 10
228.1845075419078
 20
193.6670650301923
 30
0.0
 10
228.5895466201491
 20
194.8540110443994
 30
0.0
 10
228.9166113548249
 20
196.3793482416133
 30
0.0
 10
228.9726203116279
 20
196.6837853578781
 30
0.0
 10
229.0655946047678
 20
197.2738726423233
 30
0.0
 10
229.1032701350114
 20
197.5623735102692
 30
0.0
 10
229.1951462192638
 20
198.4087493697759
 30
0.0
 10
229.2284453847883
 20
198.9474797030159
 30
0.0
 10
229.2756421610352
 20
200.4590396669851
 30
0.0
 10
229.2442469448352
 20
201.3712344084056
 30
0.0
 10
229.1509387722799
 20
203.0069165227956
 30
0.0
 10
229.0898707116539
 20
203.7384596530064
 30
0.0
 10
229.0349824489526
 20
204.4058347971436
 30
0.0
  0
SPLINE
  5
457C
330
4546
100
AcDbEntity
  8
OBJECT
100
AcDbSpline
210
0.0
220
0.0
230
1.0
 70
     8
 71
     3
 72
    10
 73
     6
 74
     0
 42
0.000000001
 43
0.0000000001
 40
41.62756689186281
 40
41.62756689186281
 40
41.62756689186281
 40
41.62756689186281
 40
51.30612173564641
 40
80.66223348883202
 40
86.49989337323722
 40
86.49989337323722
 40
86.49989337323722
 40
86.49989337323722
 10
186.2659239696245
 20
180.0714318684356
 30
0.0
 10
188.637692345113
 20
182.0954435307788
 30
0.0
 10
200.0943791491813
 20
188.1660342771674
 30
0.0
 10
222.2474693782924
 20
189.3350290483931
 30
0.0
 10
221.2305768623496
 20
201.6992168729321
 30
0.0
 10
221.0619029075315
 20
204.4058347971436
 30
0.0
  0
SPLINE
  5
457D
330
4546
100
AcDbEntity
  8
OBJECT1
100
AcDbSpline
210
0.0
220
0.0
230
1.0
 70
     8
 71
     3
 72
    46
 73
    42
 74
     0
 42
0.000000001
 43
0.0000000001
 40
0.0
 40
0.0
 40
0.0
 40
0.0
 40
5.962007079915362
 40
5.962007079915362
 40
17.36695687897762
 40
17.36695687897762
 40
26.94339865054186
 40
26.94339865054186
 40
34.42374012829152
 40
34.42374012829152
 40
37.89795529048566
 40
37.89795529048566
 40
41.7612778721786
 40
41.7612778721786
 40
45.62460045387154
 40
45.62460045387154
 40
53.67176389277236
 40
53.67176389277236
 40
56.97173065776174
 40
56.97173065776174
 40
59.37693922938145
 40
59.37693922938145
 40
60.73429536374989
 40
60.73429536374989
 40
62.09165149811832
 40
62.09165149811832
 40
64.3199723388641
 40
64.3199723388641
 40
66.17880347950529
 40
66.17880347950529
 40
67.67383499675699
 40
67.67383499675699
 40
68.43888973520048
 40
68.43888973520048
 40
68.90748744247182
 40
68.90748744247182
 40
69.37608514974316
 40
69.37608514974316
 40
70.31328056428583
 40
70.31328056428583
 40
71.70603658236578
 40
71.70603658236578
 40
71.70603658236578
 40
71.70603658236578
 10
170.3714137717438
 20
148.8670956367633
 30
0.0
 10
170.7569664994644
 20
151.0906960682387
 30
0.0
 10
171.1408779277862
 20
153.3044543998483
 30
0.0
 10
172.3209444000877
 20
159.6494893180178
 30
0.0
 10
173.1749906549812
 20
163.6868222160422
 30
0.0
 10
175.1609664596249
 20
170.5288347030962
 30
0.0
 10
176.2266366215881
 20
173.4256776937986
 30
0.0
 10
178.528644774813
 20
177.9911981208646
 30
0.0
 10
179.6749909246137
 20
179.7890034657545
 30
0.0
 10
181.5968462711062
 20
182.0756325276682
 30
0.0
 10
182.2422544679774
 20
182.7502693396371
 30
0.0
 10
183.6911300433456
 20
184.0657001469209
 30
0.0
 10
184.4998661212739
 20
184.6873177532735
 30
0.0
 10
186.2805363164111
 20
185.8550805590942
 30
0.0
 10
187.2463369605134
 20
186.4001240843388
 30
0.0
 10
190.4255011528384
 20
188.0191574990961
 30
0.0
 10
192.8572686882557
 20
189.0224676742118
 30
0.0
 10
196.4966509820347
 20
190.6070627594479
 30
0.0
 10
197.57996972205
 20
191.0888290388055
 30
0.0
 10
199.4789649742797
 20
191.9869438656366
 30
0.0
 10
200.2875659433576
 20
192.3856380554403
 30
0.0
 10
201.5588062733527
 20
193.0512211975615
 30
0.0
 10
202.0180604527441
 20
193.2994965523731
 30
0.0
 10
202.9402508498233
 20
193.8170532053308
 30
0.0
 10
203.4093669650829
 20
194.0899665765662
 30
0.0
 10
204.6452033764863
 20
194.8598423139175
 30
0.0
 10
205.4102869727694
 20
195.3868767573382
 30
0.0
 10
206.7327434635536
 20
196.5049745829591
 30
0.0
 10
207.3050327615497
 20
197.0718188791084
 30
0.0
 10
208.2142545551965
 20
198.2547389281933
 30
0.0
 10
208.5750042519676
 20
198.8412679807455
 30
0.0
 10
208.994974252998
 20
199.8248770530449
 30
0.0
 10
209.1150631549522
 20
200.1742303066492
 30
0.0
 10
209.2640582311978
 20
200.7593430758474
 30
0.0
 10
209.3099694947095
 20
200.9878644650689
 30
0.0
 10
209.3782469662874
 20
201.4303389577559
 30
0.0
 10
209.4016212683741
 20
201.6469048466931
 30
0.0
 10
209.4479921543175
 20
202.2812280239034
 30
0.0
 10
209.4476898010325
 20
202.6835827738623
 30
0.0
 10
209.4124907646405
 20
203.634540623342
 30
0.0
 10
209.3612293351757
 20
204.160465715089
 30
0.0
 10
209.315746289451
 20
204.6412755712986
 30
0.0
  0
SPLINE
  5
457E
330
4546
100
AcDbEntity
  8
OBJECT1
100
AcDbSpline
210
0.0
220
0.0
230
1.0
 70
  1064
 71
     3
 72
    11
 73
     7
 74
     5
 42
0.000000001
 43
0.0000000001
 44
0.0000000001
 40
0.0
 40
0.0
 40
0.0
 40
0.0
 40
39.92709910816593
 40
60.67512931846493
 40
68.63501554244471
 40
71.70603658236565
 40
71.70603658236565
 40
71.70603658236565
 40
71.70603658236565
 10
167.9081677072636
 20
149.2942008062729
 30
0.0
 10
170.4901844282729
 20
164.1854804734118
 30
0.0
 10
174.4139405224801
 20
186.8149812311136
 30
0.0
 10
197.1420477945733
 20
192.6379140376452
 30
0.0
 10
207.2873822262264
 20
199.5375405431476
 30
0.0
 10
206.9271473732041
 20
203.3456511286097
 30
0.0
 10
206.8268574526674
 20
204.4058347971436
 30
0.0
 11
167.9081677072636
 21
149.2942008062729
 31
0.0
 11
182.6555914825044
 21
186.3979302035554
 31
0.0
 11
201.198367926218
 21
195.706324230773
 31
0.0
 11
206.8268574526674
 21
201.3348137572227
 31
0.0
 11
206.8268574526674
 21
204.4058347971436
 31
0.0
  0
LINE
  5
457F
330
4546
100
AcDbEntity
  8
OBJECT
100
AcDbLine
 10
189.6756045431266
 20
175.8159194091299
 30
0.0
 11
190.1408467015226
 21
177.9072792386
 31
0.0
  0
LINE
  5
4580
330
4546
100
AcDbEntity
  8
OBJECT
100
AcDbLine
 10
189.5116088808063
 20
178.2732793962745
 30
0.0
 11
189.9768510392023
 21
180.3646392257446
 31
0.0
  0
LINE
  5
4581
330
4546
100
AcDbEntity
  8
OBJECT
100
AcDbLine
 10
189.9768510392023
 20
180.3646392257446
 30
0.0
 11
196.3739057855327
 21
173.7419967564933
 31
0.0
  0
LINE
  5
4582
330
4546
100
AcDbEntity
  8
OBJECT
100
AcDbLine
 10
176.3271387676226
 20
140.749323233354
 30
0.0
 11
184.317333606165
 21
140.3533605557426
 31
0.0
  0
SPLINE
  5
4583
330
4546
100
AcDbEntity
  8
OBJECT
100
AcDbSpline
210
0.0
220
0.0
230
1.0
 70
     8
 71
     3
 72
     9
 73
     5
 74
     0
 42
0.000000001
 43
0.0000000001
 40
0.0
 40
0.0
 40
0.0
 40
0.0
 40
18.54143570528357
 40
39.38295681319571
 40
39.38295681319571
 40
39.38295681319571
 40
39.38295681319571
 10
176.3271387676226
 20
140.749323233354
 30
0.0
 10
176.0055352767549
 20
146.868584430934
 30
0.0
 10
175.322433029813
 20
159.8662078784147
 30
0.0
 10
180.0499553361641
 20
173.6857066340822
 30
0.0
 10
184.6912428466471
 20
178.5773218717634
 30
0.0
  0
LINE
  5
4584
330
4546
100
AcDbEntity
  8
OBJECT
100
AcDbLine
 10
181.3719880300468
 20
180.4162330469175
 30
0.0
 11
189.6756045431266
 21
175.8159194091299
 31
0.0
  0
LINE
  5
4585
330
4546
100
AcDbEntity
  8
OBJECT
100
AcDbLine
 10
181.2079923677265
 20
182.8735930340622
 30
0.0
 11
189.5116088808063
 21
178.2732793962745
 31
0.0
  0
SPLINE
  5
4586
330
4546
100
AcDbEntity
  8
OBJECT
100
AcDbSpline
210
0.0
220
0.0
230
1.0
 70
     8
 71
     3
 72
    28
 73
    24
 74
     0
 42
0.000000001
 43
0.0000000001
 40
0.0
 40
0.0
 40
0.0
 40
0.0
 40
2.153821297628818
 40
2.153821297628818
 40
6.461463892886453
 40
6.461463892886453
 40
13.90163367398686
 40
13.90163367398686
 40
18.67284848461855
 40
18.67284848461855
 40
23.44406329525024
 40
23.44406329525024
 40
29.74260966789631
 40
29.74260966789631
 40
36.04115604054238
 40
36.04115604054238
 40
38.6524079340557
 40
38.6524079340557
 40
40.26335926709689
 40
40.26335926709689
 40
43.48526193317932
 40
43.48526193317932
 40
44.524589645615
 40
44.524589645615
 40
44.524589645615
 40
44.524589645615
 10
184.3182706764187
 20
140.3723373808884
 30
0.0
 10
184.2787548018218
 20
141.8800205090712
 30
0.0
 10
184.2417780482728
 20
142.5837692674033
 30
0.0
 10
184.1374608910532
 20
144.6746560362957
 30
0.0
 10
184.0768440437232
 20
146.041398876737
 30
0.0
 10
183.9719657048085
 20
149.7018903669013
 30
0.0
 10
183.9722279840753
 20
151.9460173896142
 30
0.0
 10
184.1760397922167
 20
155.5427515615561
 30
0.0
 10
184.3061772118763
 20
156.925964062753
 30
0.0
 10
184.6959573789371
 20
159.6723270605939
 30
0.0
 10
184.9573639264527
 20
161.0458864438803
 30
0.0
 10
185.7189492899774
 20
164.1400163399874
 30
0.0
 10
186.2698424197546
 20
165.8302735948518
 30
0.0
 10
187.5752513492243
 20
168.8956109556225
 30
0.0
 10
188.3294017949565
 20
170.2681569069075
 30
0.0
 10
189.4856586326582
 20
171.8986532008305
 30
0.0
 10
189.8351519955254
 20
172.3392942777036
 30
0.0
 10
190.4132591348238
 20
172.9902510131389
 30
0.0
 10
190.6369021445106
 20
173.2241874229949
 30
0.0
 10
191.3161955397121
 20
173.8836407099757
 30
0.0
 10
191.8045464504084
 20
174.2913720578058
 30
0.0
 10
192.5252653958646
 20
174.8088601410527
 30
0.0
 10
192.7069277965319
 20
174.9332800754898
 30
0.0
 10
192.8949694327389
 20
175.0560342690699
 30
0.0
  0
ENDBLK
  5
4588
330
4546
100
AcDbEntity
  8
0
100
AcDbBlockEnd
  0
BLOCK
  5
944C
330
944B
100
AcDbEntity
  8
0
100
AcDbBlockBegin
  2
*D5
 70
     1
 10
0.0
 20
0.0
 30
0.0
  3
*D5
  1

  0
LINE
  5
A964
330
944B
100
AcDbEntity
  8
OBJECT
 62
     1
440
 16777216
 48
2.0
370
    -2
100
AcDbLine
 10
437.5142232583621
 20
396.0797155073619
 30
-0.0000000000009095
 11
193.585148838807
 21
396.079715507362
 31
-0.0000000000009095
  0
LINE
  5
A965
330
944B
100
AcDbEntity
  8
OBJECT
 62
     1
440
 16777216
 48
2.0
370
    -2
100
AcDbLine
 10
487.7642232583683
 20
699.5696711709787
 30
-0.0000000000009095
 11
193.585148838807
 21
699.5696711709788
 31
-0.0000000000009095
  0
LINE
  5
A966
330
944B
100
AcDbEntity
  8
OBJECT
 62
     1
440
 16777216
 48
2.0
370
    -2
100
AcDbLine
 10
197.585148838807
 20
406.0797155073619
 30
-0.0000000000009095
 11
197.585148838807
 21
689.5696711709788
 31
-0.0000000000009095
  0
INSERT
  5
A967
330
944B
100
AcDbEntity
  8
OBJECT
 62
     1
440
 16777216
 48
2.0
370
    -2
100
AcDbBlockReference
  2
_OPEN
 10
197.585148838807
 20
396.079715507362
 30
-0.0000000000009095
 41
10.0
 42
10.0
 43
10.0
 50
270.0
  0
INSERT
  5
A968
330
944B
100
AcDbEntity
  8
OBJECT
 62
     1
440
 16777216
 48
2.0
370
    -2
100
AcDbBlockReference
  2
_OPEN
 10
197.585148838807
 20
699.5696711709788
 30
-0.0000000000009095
 41
10.0
 42
10.0
 43
10.0
 50
90.0
  0
MTEXT
  5
A969
330
944B
100
AcDbEntity
  8
OBJECT
 62
     2
440
 16777216
 48
2.0
100
AcDbMText
 10
186.5851488388069
 20
547.8246933391703
 30
-0.0000000000009095
 40
12.0
 41
0.0
 46
0.0
 71
     5
 72
     1
  1
\A1;303
 11
0.0000000000000001
 21
1.0
 31
0.0
 73
     1
 44
1.0
  0
POINT
  5
A96A
330
944B
100
AcDbEntity
  8
DEFPOINTS
 62
     0
440
 16777216
 48
2.0
100
AcDbPoint
 10
441.5142232583621
 20
396.0797155073619
 30
-0.000000000001819
  0
POINT
  5
A96B
330
944B
100
AcDbEntity
  8
DEFPOINTS
 62
     0
440
 16777216
 48
2.0
100
AcDbPoint
 10
491.7642232583683
 20
699.5696711709787
 30
0.0
  0
POINT
  5
A96C
330
944B
100
AcDbEntity
  8
DEFPOINTS
 62
     0
440
 16777216
 48
2.0
100
AcDbPoint
 10
197.585148838807
 20
699.5696711709788
 30
-0.0000000000009095
  0
ENDBLK
  5
944D
330
944B
100
AcDbEntity
  8
0
100
AcDbBlockEnd
  0
BLOCK
  5
9458
330
9457
100
AcDbEntity
  8
0
100
AcDbBlockBegin
  2
*D6
 70
     1
 10
0.0
 20
0.0
 30
0.0
  3
*D6
  1

  0
LINE
  5
A96D
330
9457
100
AcDbEntity
  8
9：寸法線
 62
     1
440
 16777216
370
    -2
100
AcDbLine
 10
447.2142232583682
 20
392.0797155073619
 30
0.0
 11
447.2142232583682
 21
314.0935110325008
 31
0.0
  0
LINE
  5
A96E
330
9457
100
AcDbEntity
  8
9：寸法線
 62
     1
440
 16777216
370
    -2
100
AcDbLine
 10
536.3142232583686
 20
392.0797155073619
 30
0.0
 11
536.3142232583686
 21
314.0935110325008
 31
0.0
  0
LINE
  5
A96F
330
9457
100
AcDbEntity
  8
9：寸法線
 62
     1
440
 16777216
370
    -2
100
AcDbLine
 10
457.2142232583683
 20
318.0935110325008
 30
0.0
 11
526.3142232583686
 21
318.0935110325008
 31
0.0
  0
LINE
  5
A970
330
9457
100
AcDbEntity
  8
9：寸法線
 62
     1
440
 16777216
370
    -2
100
AcDbLine
 10
536.3142232583686
 20
318.0935110325008
 30
0.0
 11
711.7561552242997
 21
318.0935110325008
 31
0.0
  0
INSERT
  5
A971
330
9457
100
AcDbEntity
  8
9：寸法線
 62
     1
440
 16777216
370
    -2
100
AcDbBlockReference
  2
_OPEN
 10
447.2142232583682
 20
318.0935110325008
 30
0.0
 41
10.0
 42
10.0
 43
10.0
 50
180.0
  0
INSERT
  5
A972
330
9457
100
AcDbEntity
  8
9：寸法線
 62
     1
440
 16777216
370
    -2
100
AcDbBlockReference
  2
_OPEN
 10
536.3142232583686
 20
318.0935110325008
 30
0.0
 41
10.0
 42
10.0
 43
10.0
  0
MTEXT
  5
A973
330
9457
100
AcDbEntity
  8
9：寸法線
 62
     2
440
 16777216
100
AcDbMText
 10
629.0351892413342
 20
329.0935110325008
 30
0.0
 40
12.0
 41
0.0
 46
0.0
 71
     5
 72
     1
  1
\A1;適合径：φ48.6～φ89.1
 73
     1
 44
1.0
  0
POINT
  5
A974
330
9457
100
AcDbEntity
  8
DEFPOINTS
 62
     0
440
 16777216
100
AcDbPoint
 10
447.2142232583682
 20
396.0797155073619
 30
0.0
  0
POINT
  5
A975
330
9457
100
AcDbEntity
  8
DEFPOINTS
 62
     0
440
 16777216
100
AcDbPoint
 10
536.3142232583686
 20
396.0797155073619
 30
0.0
  0
POINT
  5
A976
330
9457
100
AcDbEntity
  8
DEFPOINTS
 62
     0
440
 16777216
100
AcDbPoint
 10
536.3142232583686
 20
318.0935110325008
 30
0.0
  0
ENDBLK
  5
9459
330
9457
100
AcDbEntity
  8
0
100
AcDbBlockEnd
  0
BLOCK
  5
9464
330
9463
100
AcDbEntity
  8
0
100
AcDbBlockBegin
  2
*D7
 70
     1
 10
0.0
 20
0.0
 30
0.0
  3
*D7
  1

  0
LINE
  5
A977
330
9463
100
AcDbEntity
  8
9：寸法線
 62
     1
440
 16777216
370
    -2
100
AcDbLine
 10
437.7642232583747
 20
396.0797155073619
 30
0.0
 11
303.0179758348868
 21
396.079715507362
 31
0.0
  0
LINE
  5
A978
330
9463
100
AcDbEntity
  8
9：寸法線
 62
     1
440
 16777216
370
    -2
100
AcDbLine
 10
442.7642232583748
 20
526.079715507361
 30
0.0
 11
303.0179758348868
 21
526.079715507361
 31
0.0
  0
LINE
  5
A979
330
9463
100
AcDbEntity
  8
9：寸法線
 62
     1
440
 16777216
370
    -2
100
AcDbLine
 10
307.0179758348869
 20
406.0797155073619
 30
0.0
 11
307.0179758348869
 21
516.079715507361
 31
0.0
  0
INSERT
  5
A97A
330
9463
100
AcDbEntity
  8
9：寸法線
 62
     1
440
 16777216
370
    -2
100
AcDbBlockReference
  2
_OPEN
 10
307.0179758348869
 20
396.079715507362
 30
0.0
 41
10.0
 42
10.0
 43
10.0
 50
270.0
  0
INSERT
  5
A97B
330
9463
100
AcDbEntity
  8
9：寸法線
 62
     1
440
 16777216
370
    -2
100
AcDbBlockReference
  2
_OPEN
 10
307.0179758348869
 20
526.079715507361
 30
0.0
 41
10.0
 42
10.0
 43
10.0
 50
90.0
  0
MTEXT
  5
A97C
330
9463
100
AcDbEntity
  8
9：寸法線
 62
     2
440
 16777216
100
AcDbMText
 10
296.0150756807686
 20
461.079715507361
 30
0.0
 40
12.0
 41
0.0
 46
0.0
 71
     5
 72
     1
  1
\A1;{\W0.8;φ89.1挿入長：130}
 11
0.0000000000000001
 21
1.0
 31
0.0
 73
     1
 44
1.0
  0
POINT
  5
A97D
330
9463
100
AcDbEntity
  8
DEFPOINTS
 62
     0
440
 16777216
100
AcDbPoint
 10
441.7642232583747
 20
396.0797155073619
 30
0.0
  0
POINT
  5
A97E
330
9463
100
AcDbEntity
  8
DEFPOINTS
 62
     0
440
 16777216
100
AcDbPoint
 10
446.7642232583748
 20
526.079715507361
 30
0.0
  0
POINT
  5
A97F
330
9463
100
AcDbEntity
  8
DEFPOINTS
 62
     0
440
 16777216
100
AcDbPoint
 10
307.0179758348869
 20
526.079715507361
 30
0.0
  0
ENDBLK
  5
9465
330
9463
100
AcDbEntity
  8
0
100
AcDbBlockEnd
  0
BLOCK
  5
9470
330
946F
100
AcDbEntity
  8
0
100
AcDbBlockBegin
  2
*D8
 70
     1
 10
0.0
 20
0.0
 30
0.0
  3
*D8
  1

  0
LINE
  5
A980
330
946F
100
AcDbEntity
  8
OBJECT2
 62
     1
440
 16777216
370
    -2
100
AcDbLine
 10
380.1588411857374
 20
396.079715507362
 30
0.0
 11
250.6666047934095
 21
396.079715507362
 31
0.0
  0
LINE
  5
A981
330
946F
100
AcDbEntity
  8
OBJECT2
 62
     1
440
 16777216
370
    -2
100
AcDbLine
 10
456.2642232583676
 20
566.0797155073619
 30
0.0
 11
250.6666047934096
 21
566.079715507362
 31
0.0
  0
LINE
  5
A982
330
946F
100
AcDbEntity
  8
OBJECT2
 62
     1
440
 16777216
370
    -2
100
AcDbLine
 10
254.6666047934095
 20
406.0797155073619
 30
0.0
 11
254.6666047934095
 21
556.079715507362
 31
0.0
  0
INSERT
  5
A983
330
946F
100
AcDbEntity
  8
OBJECT2
 62
     1
440
 16777216
370
    -2
100
AcDbBlockReference
  2
_OPEN
 10
254.6666047934095
 20
396.079715507362
 30
0.0
 41
10.0
 42
10.0
 43
10.0
 50
270.0
  0
INSERT
  5
A984
330
946F
100
AcDbEntity
  8
OBJECT2
 62
     1
440
 16777216
370
    -2
100
AcDbBlockReference
  2
_OPEN
 10
254.6666047934095
 20
566.079715507362
 30
0.0
 41
10.0
 42
10.0
 43
10.0
 50
90.0
  0
MTEXT
  5
A985
330
946F
100
AcDbEntity
  8
OBJECT2
 62
     2
440
 16777216
100
AcDbMText
 10
243.6666047934095
 20
477.5362403650488
 30
0.0
 40
12.0
 41
0.0
 46
0.0
 71
     5
 72
     1
  1
\A1;φ60.5挿入長：170
 11
0.0000000000000001
 21
1.0
 31
0.0
 73
     1
 44
1.0
  0
POINT
  5
A986
330
946F
100
AcDbEntity
  8
DEFPOINTS
 62
     0
440
 16777216
100
AcDbPoint
 10
384.1588411857374
 20
396.0797155073619
 30
0.0
  0
POINT
  5
A987
330
946F
100
AcDbEntity
  8
DEFPOINTS
 62
     0
440
 16777216
100
AcDbPoint
 10
460.2642232583674
 20
566.0797155073619
 30
0.0
  0
POINT
  5
A988
330
946F
100
AcDbEntity
  8
DEFPOINTS
 62
     0
440
 16777216
100
AcDbPoint
 10
254.6666047934095
 20
566.079715507362
 30
0.0
  0
ENDBLK
  5
9471
330
946F
100
AcDbEntity
  8
0
100
AcDbBlockEnd
  0
BLOCK
  5
947C
330
947B
100
AcDbEntity
  8
0
100
AcDbBlockBegin
  2
*D9
 70
     1
 10
0.0
 20
0.0
 30
0.0
  3
*D9
  1

  0
LINE
  5
A989
330
947B
100
AcDbEntity
  8
OBJECT2
 62
     1
440
 16777216
370
    -2
100
AcDbLine
 10
374.3850258371131
 20
566.0797155073619
 30
0.0
 11
220.7815035546036
 21
566.079715507362
 31
0.0
  0
LINE
  5
A98A
330
947B
100
AcDbEntity
  8
OBJECT2
 62
     1
440
 16777216
370
    -2
100
AcDbLine
 10
365.4651837815964
 20
396.0797155073619
 30
0.0
 11
220.7815035546036
 21
396.0797155073619
 31
0.0
  0
LINE
  5
A98B
330
947B
100
AcDbEntity
  8
OBJECT2
 62
     1
440
 16777216
370
    -2
100
AcDbLine
 10
224.7815035546036
 20
556.079715507362
 30
0.0
 11
224.7815035546036
 21
406.0797155073619
 31
0.0
  0
INSERT
  5
A98C
330
947B
100
AcDbEntity
  8
OBJECT2
 62
     1
440
 16777216
370
    -2
100
AcDbBlockReference
  2
_OPEN
 10
224.7815035546036
 20
566.079715507362
 30
0.0
 41
10.0
 42
10.0
 43
10.0
 50
90.0
  0
INSERT
  5
A98D
330
947B
100
AcDbEntity
  8
OBJECT2
 62
     1
440
 16777216
370
    -2
100
AcDbBlockReference
  2
_OPEN
 10
224.7815035546036
 20
396.0797155073619
 30
0.0
 41
10.0
 42
10.0
 43
10.0
 50
270.0
  0
MTEXT
  5
A98E
330
947B
100
AcDbEntity
  8
OBJECT2
 62
     2
440
 16777216
100
AcDbMText
 10
213.7815035546036
 20
494.5749572301947
 30
0.0
 40
12.0
 41
0.0
 46
0.0
 71
     5
 72
     1
  1
\A1;φ48.6挿入長：170
 11
0.0000000000000001
 21
1.0
 31
0.0
 73
     1
 44
1.0
  0
POINT
  5
A98F
330
947B
100
AcDbEntity
  8
DEFPOINTS
 62
     0
440
 16777216
100
AcDbPoint
 10
378.3850258371131
 20
566.0797155073619
 30
0.0
  0
POINT
  5
A990
330
947B
100
AcDbEntity
  8
DEFPOINTS
 62
     0
440
 16777216
100
AcDbPoint
 10
369.4651837815964
 20
396.0797155073619
 30
0.0
  0
POINT
  5
A991
330
947B
100
AcDbEntity
  8
DEFPOINTS
 62
     0
440
 16777216
100
AcDbPoint
 10
224.7815035546036
 20
396.0797155073619
 30
0.0
  0
ENDBLK
  5
947D
330
947B
100
AcDbEntity
  8
0
100
AcDbBlockEnd
  0
BLOCK
  5
9488
330
9487
100
AcDbEntity
  8
0
100
AcDbBlockBegin
  2
*D10
 70
     1
 10
0.0
 20
0.0
 30
0.0
  3
*D10
  1

  0
LINE
  5
A992
330
9487
100
AcDbEntity
  8
OBJECT
 62
     1
440
 16777216
 48
0.5
370
    -2
100
AcDbLine
 10
487.7642232583674
 20
699.5696711709787
 30
0.0
 11
215.2666638879991
 21
699.5696711709788
 31
0.0
  0
LINE
  5
A993
330
9487
100
AcDbEntity
  8
OBJECT
 62
     1
440
 16777216
 48
0.5
370
    -2
100
AcDbLine
 10
447.7642232583638
 20
579.5749572301952
 30
0.0
 11
215.2666638879991
 21
579.5749572301952
 31
0.0
  0
LINE
  5
A994
330
9487
100
AcDbEntity
  8
OBJECT
 62
     1
440
 16777216
 48
0.5
370
    -2
100
AcDbLine
 10
219.2666638879991
 20
689.5696711709788
 30
0.0
 11
219.2666638879991
 21
589.5749572301951
 31
0.0
  0
INSERT
  5
A995
330
9487
100
AcDbEntity
  8
OBJECT
 62
     1
440
 16777216
 48
0.5
370
    -2
100
AcDbBlockReference
  2
_OPEN
 10
219.2666638879991
 20
699.5696711709788
 30
0.0
 41
10.0
 42
10.0
 43
10.0
 50
90.0
  0
INSERT
  5
A996
330
9487
100
AcDbEntity
  8
OBJECT
 62
     1
440
 16777216
 48
0.5
370
    -2
100
AcDbBlockReference
  2
_OPEN
 10
219.2666638879991
 20
579.5749572301952
 30
0.0
 41
10.0
 42
10.0
 43
10.0
 50
270.0
  0
MTEXT
  5
A997
330
9487
100
AcDbEntity
  8
OBJECT
 62
     2
440
 16777216
 48
0.5
100
AcDbMText
 10
208.2654827856369
 20
639.5723142005871
 30
0.0
 40
12.0
 41
0.0
 46
0.0
 71
     5
 72
     1
  1
\A1;120
 11
0.0000000000000001
 21
1.0
 31
0.0
 73
     1
 44
1.0
  0
POINT
  5
A998
330
9487
100
AcDbEntity
  8
DEFPOINTS
 62
     0
440
 16777216
 48
0.5
100
AcDbPoint
 10
491.7642232583674
 20
699.5696711709787
 30
0.0
  0
POINT
  5
A999
330
9487
100
AcDbEntity
  8
DEFPOINTS
 62
     0
440
 16777216
 48
0.5
100
AcDbPoint
 10
451.7642232583638
 20
579.5749572301952
 30
-0.000000000001819
  0
POINT
  5
A99A
330
9487
100
AcDbEntity
  8
DEFPOINTS
 62
     0
440
 16777216
 48
0.5
100
AcDbPoint
 10
219.2666638879991
 20
579.5749572301952
 30
0.0
  0
ENDBLK
  5
9489
330
9487
100
AcDbEntity
  8
0
100
AcDbBlockEnd
  0
BLOCK
  5
9494
330
9493
100
AcDbEntity
  8
0
100
AcDbBlockBegin
  2
*D11
 70
     1
 10
0.0
 20
0.0
 30
0.0
  3
*D11
  1

  0
LINE
  5
A99B
330
9493
100
AcDbEntity
  8
OBJECT1
 62
     1
440
 16777216
370
    -2
100
AcDbLine
 10
231.7642232597964
 20
684.5696711711767
 30
0.0
 11
231.7642232597964
 21
782.5696710314291
 31
0.0
  0
LINE
  5
A99C
330
9493
100
AcDbEntity
  8
OBJECT1
 62
     1
440
 16777216
370
    -2
100
AcDbLine
 10
751.764223258371
 20
684.5696711709778
 30
0.0
 11
751.764223258371
 21
782.5696710314291
 31
0.0
  0
LINE
  5
A99D
330
9493
100
AcDbEntity
  8
OBJECT1
 62
     1
440
 16777216
370
    -2
100
AcDbLine
 10
241.7642232597964
 20
778.5696710314291
 30
0.0
 11
741.7642232583713
 21
778.5696710314291
 31
0.0
  0
INSERT
  5
A99E
330
9493
100
AcDbEntity
  8
OBJECT1
 62
     1
440
 16777216
370
    -2
100
AcDbBlockReference
  2
_OPEN
 10
231.7642232597964
 20
778.5696710314291
 30
0.0
 41
10.0
 42
10.0
 43
10.0
 50
180.0
  0
INSERT
  5
A99F
330
9493
100
AcDbEntity
  8
OBJECT1
 62
     1
440
 16777216
370
    -2
100
AcDbBlockReference
  2
_OPEN
 10
751.764223258371
 20
778.5696710314291
 30
0.0
 41
10.0
 42
10.0
 43
10.0
  0
MTEXT
  5
A9A0
330
9493
100
AcDbEntity
  8
OBJECT1
 62
     2
440
 16777216
100
AcDbMText
 10
491.7642232590837
 20
789.5708521337914
 30
0.0
 40
12.0
 41
0.0
 46
0.0
 71
     5
 72
     1
  1
\A1;%%c520
 73
     1
 44
1.0
  0
POINT
  5
A9A1
330
9493
100
AcDbEntity
  8
DEFPOINTS
 62
     0
440
 16777216
100
AcDbPoint
 10
231.7642232597964
 20
680.5696711711767
 30
0.0
  0
POINT
  5
A9A2
330
9493
100
AcDbEntity
  8
DEFPOINTS
 62
     0
440
 16777216
100
AcDbPoint
 10
751.764223258371
 20
680.5696711709778
 30
0.0
  0
POINT
  5
A9A3
330
9493
100
AcDbEntity
  8
DEFPOINTS
 62
     0
440
 16777216
100
AcDbPoint
 10
751.764223258371
 20
778.5696710314291
 30
0.0
  0
ENDBLK
  5
9495
330
9493
100
AcDbEntity
  8
0
100
AcDbBlockEnd
  0
BLOCK
  5
9557
330
9556
100
AcDbEntity
  8
0
100
AcDbBlockBegin
  2
*D12
 70
     1
 10
0.0
 20
0.0
 30
0.0
  3
*D12
  1

  0
LINE
  5
A9A4
330
9556
100
AcDbEntity
  8
9：寸法線
 62
     1
440
 16777216
370
    -2
100
AcDbLine
 10
415.4747752691447
 20
396.0797155073619
 30
0.0
 11
277.1447390980529
 21
396.079715507362
 31
0.0
  0
LINE
  5
A9A5
330
9556
100
AcDbEntity
  8
9：寸法線
 62
     1
440
 16777216
370
    -2
100
AcDbLine
 10
449.614223258367
 20
546.0797155073619
 30
0.0
 11
277.1447390980529
 21
546.0797155073619
 31
0.0
  0
LINE
  5
A9A6
330
9556
100
AcDbEntity
  8
9：寸法線
 62
     1
440
 16777216
370
    -2
100
AcDbLine
 10
281.1447390980529
 20
406.0797155073619
 30
0.0
 11
281.1447390980529
 21
536.0797155073619
 31
0.0
  0
INSERT
  5
A9A7
330
9556
100
AcDbEntity
  8
9：寸法線
 62
     1
440
 16777216
370
    -2
100
AcDbBlockReference
  2
_OPEN
 10
281.1447390980529
 20
396.079715507362
 30
0.0
 41
10.0
 42
10.0
 43
10.0
 50
270.0
  0
INSERT
  5
A9A8
330
9556
100
AcDbEntity
  8
9：寸法線
 62
     1
440
 16777216
370
    -2
100
AcDbBlockReference
  2
_OPEN
 10
281.1447390980529
 20
546.0797155073619
 30
0.0
 41
10.0
 42
10.0
 43
10.0
 50
90.0
  0
MTEXT
  5
A9A9
330
9556
100
AcDbEntity
  8
9：寸法線
 62
     2
440
 16777216
100
AcDbMText
 10
270.1447390980529
 20
490.4203967836893
 30
0.0
 40
12.0
 41
0.0
 46
0.0
 71
     5
 72
     1
  1
\A1;{\W0.8;φ76.3挿入長：150}
 11
0.0000000000000001
 21
1.0
 31
0.0
 73
     1
 44
1.0
  0
POINT
  5
A9AA
330
9556
100
AcDbEntity
  8
DEFPOINTS
 62
     0
440
 16777216
100
AcDbPoint
 10
419.4747752691445
 20
396.0797155073619
 30
0.0
  0
POINT
  5
A9AB
330
9556
100
AcDbEntity
  8
DEFPOINTS
 62
     0
440
 16777216
100
AcDbPoint
 10
453.614223258367
 20
546.0797155073619
 30
-0.000000000001819
  0
POINT
  5
A9AC
330
9556
100
AcDbEntity
  8
DEFPOINTS
 62
     0
440
 16777216
100
AcDbPoint
 10
281.1447390980529
 20
546.0797155073619
 30
0.0
  0
ENDBLK
  5
9558
330
9556
100
AcDbEntity
  8
0
100
AcDbBlockEnd
  0
BLOCK
  5
A5A2
330
A5A1
100
AcDbEntity
  8
0
100
AcDbBlockBegin
  2
*D13
 70
     1
 10
0.0
 20
0.0
 30
0.0
  3
*D13
  1

  0
LINE
  5
A9AD
330
A5A1
100
AcDbEntity
  8
OBJECT1
 62
     1
440
 16777216
370
    -2
100
AcDbLine
 10
975.792450737895
 20
666.1350657157285
 30
0.0
 11
975.792450737895
 21
759.6727174805831
 31
0.0
  0
LINE
  5
A9AE
330
A5A1
100
AcDbEntity
  8
OBJECT1
 62
     1
440
 16777216
370
    -2
100
AcDbLine
 10
1064.892450737895
 20
666.1350657157285
 30
0.0
 11
1064.892450737895
 21
759.6727174805831
 31
0.0
  0
LINE
  5
A9AF
330
A5A1
100
AcDbEntity
  8
OBJECT1
 62
     1
440
 16777216
370
    -2
100
AcDbLine
 10
985.792450737895
 20
755.6727174805831
 30
0.0
 11
1054.892450737895
 21
755.6727174805831
 31
0.0
  0
INSERT
  5
A9B0
330
A5A1
100
AcDbEntity
  8
OBJECT1
 62
     1
440
 16777216
370
    -2
100
AcDbBlockReference
  2
_OPEN
 10
975.792450737895
 20
755.6727174805831
 30
0.0
 41
10.0
 42
10.0
 43
10.0
 50
180.0
  0
INSERT
  5
A9B1
330
A5A1
100
AcDbEntity
  8
OBJECT1
 62
     1
440
 16777216
370
    -2
100
AcDbBlockReference
  2
_OPEN
 10
1064.892450737895
 20
755.6727174805831
 30
0.0
 41
10.0
 42
10.0
 43
10.0
  0
MTEXT
  5
A9B2
330
A5A1
100
AcDbEntity
  8
OBJECT1
 62
     2
440
 16777216
100
AcDbMText
 10
1020.342450737895
 20
766.6727174805831
 30
0.0
 40
12.0
 41
0.0
 46
0.0
 71
     5
 72
     1
  1
\A1;φ89.1
 73
     1
 44
1.0
  0
POINT
  5
A9B3
330
A5A1
100
AcDbEntity
  8
DEFPOINTS
 62
     0
440
 16777216
100
AcDbPoint
 10
975.792450737895
 20
662.1350657157285
 30
0.0
  0
POINT
  5
A9B4
330
A5A1
100
AcDbEntity
  8
DEFPOINTS
 62
     0
440
 16777216
100
AcDbPoint
 10
1064.892450737895
 20
662.1350657157285
 30
0.0
  0
POINT
  5
A9B5
330
A5A1
100
AcDbEntity
  8
DEFPOINTS
 62
     0
440
 16777216
100
AcDbPoint
 10
1064.892450737895
 20
755.6727174805831
 30
0.0
  0
ENDBLK
  5
A5A3
330
A5A1
100
AcDbEntity
  8
0
100
AcDbBlockEnd
  0
BLOCK
  5
A5AE
330
A5AD
100
AcDbEntity
  8
0
100
AcDbBlockBegin
  2
*D14
 70
     1
 10
0.0
 20
0.0
 30
0.0
  3
*D14
  1

  0
LINE
  5
A9B6
330
A5AD
100
AcDbEntity
  8
OBJECT1
 62
     1
440
 16777216
370
    -2
100
AcDbLine
 10
1076.365611934032
 20
328.8220934545055
 30
0.0
 11
1034.785802599194
 21
317.1674630060349
 31
0.0
  0
MTEXT
  5
A9B7
330
A5AD
100
AcDbEntity
  8
OBJECT1
 62
     2
440
 16777216
100
AcDbMText
 10
1061.410216438492
 20
336.0541055092657
 30
0.0
 40
12.0
 41
0.0
 46
0.0
 71
     5
 72
     1
  1
\A1;R5
 11
0.962890124086511
 21
0.2698936993274646
 31
0.0
 73
     1
 44
1.0
  0
LINE
  5
A9B8
330
A5AD
100
AcDbEntity
  8
OBJECT1
 62
     1
440
 16777216
370
    -2
100
AcDbLine
 10
1020.342450737895
 20
313.1190575161226
 30
0.0
 11
1025.156901358329
 21
314.4685260127603
 31
0.0
  0
INSERT
  5
A9B9
330
A5AD
100
AcDbEntity
  8
OBJECT1
 62
     1
440
 16777216
370
    -2
100
AcDbBlockReference
  2
_OPEN
 10
1025.156901358329
 20
314.4685260127603
 30
0.0
 41
10.0
 42
10.0
 43
10.0
 50
195.657941442075
  0
POINT
  5
A9BA
330
A5AD
100
AcDbEntity
  8
DEFPOINTS
 62
     0
440
 16777216
100
AcDbPoint
 10
1025.156901358329
 20
314.4685260127603
 30
0.0
  0
POINT
  5
A9BB
330
A5AD
100
AcDbEntity
  8
DEFPOINTS
 62
     0
440
 16777216
100
AcDbPoint
 10
1020.342450737895
 20
313.1190575161226
 30
0.0
  0
ENDBLK
  5
A5AF
330
A5AD
100
AcDbEntity
  8
0
100
AcDbBlockEnd
  0
BLOCK
  5
A5B7
330
A5B6
100
AcDbEntity
  8
0
100
AcDbBlockBegin
  2
*D15
 70
     1
 10
0.0
 20
0.0
 30
0.0
  3
*D15
  1

  0
LINE
  5
A9BC
330
A5B6
100
AcDbEntity
  8
OBJECT1
 62
     1
440
 16777216
370
    -2
100
AcDbLine
 10
1010.483399113041
 20
511.1190575161303
 30
0.0
 11
960.9352618672355
 21
511.1190575161303
 31
0.0
  0
LINE
  5
A9BD
330
A5B6
100
AcDbEntity
  8
OBJECT1
 62
     1
440
 16777216
370
    -2
100
AcDbLine
 10
1008.957209252837
 20
311.1190575161296
 30
0.0
 11
960.9352618672355
 21
311.1190575161296
 31
0.0
  0
LINE
  5
A9BE
330
A5B6
100
AcDbEntity
  8
OBJECT1
 62
     1
440
 16777216
370
    -2
100
AcDbLine
 10
964.9352618672356
 20
501.1190575161302
 30
0.0
 11
964.9352618672356
 21
321.1190575161297
 31
0.0
  0
INSERT
  5
A9BF
330
A5B6
100
AcDbEntity
  8
OBJECT1
 62
     1
440
 16777216
370
    -2
100
AcDbBlockReference
  2
_OPEN
 10
964.9352618672356
 20
511.1190575161303
 30
0.0
 41
10.0
 42
10.0
 43
10.0
 50
90.0
  0
INSERT
  5
A9C0
330
A5B6
100
AcDbEntity
  8
OBJECT1
 62
     1
440
 16777216
370
    -2
100
AcDbBlockReference
  2
_OPEN
 10
964.9352618672356
 20
311.1190575161296
 30
0.0
 41
10.0
 42
10.0
 43
10.0
 50
270.0
  0
MTEXT
  5
A9C1
330
A5B6
100
AcDbEntity
  8
OBJECT1
 62
     2
440
 16777216
100
AcDbMText
 10
953.9340807648732
 20
411.1190575161301
 30
0.0
 40
12.0
 41
0.0
 46
0.0
 71
     5
 72
     1
  1
\A1;200
 11
0.0000000000000001
 21
1.0
 31
0.0
 73
     1
 44
1.0
  0
POINT
  5
A9C2
330
A5B6
100
AcDbEntity
  8
DEFPOINTS
 62
     0
440
 16777216
100
AcDbPoint
 10
1014.483399113041
 20
511.1190575161303
 30
0.0
  0
POINT
  5
A9C3
330
A5B6
100
AcDbEntity
  8
DEFPOINTS
 62
     0
440
 16777216
100
AcDbPoint
 10
1012.957209252837
 20
311.1190575161296
 30
0.0
  0
POINT
  5
A9C4
330
A5B6
100
AcDbEntity
  8
DEFPOINTS
 62
     0
440
 16777216
100
AcDbPoint
 10
964.9352618672356
 20
311.1190575161296
 30
0.0
  0
ENDBLK
  5
A5B8
330
A5B6
100
AcDbEntity
  8
0
100
AcDbBlockEnd
  0
BLOCK
  5
A5C3
330
A5C2
100
AcDbEntity
  8
0
100
AcDbBlockBegin
  2
*D16
 70
     1
 10
0.0
 20
0.0
 30
0.0
  3
*D16
  1

  0
LINE
  5
A9C5
330
A5C2
100
AcDbEntity
  8
OBJECT1
 62
     1
440
 16777216
370
    -2
100
AcDbLine
 10
1005.342450737894
 20
521.1190575161237
 30
0.0
 11
932.9352618672347
 21
521.1190575161237
 31
0.0
  0
LINE
  5
A9C6
330
A5C2
100
AcDbEntity
  8
OBJECT1
 62
     1
440
 16777216
370
    -2
100
AcDbLine
 10
1005.342450737893
 20
301.1190575161228
 30
0.0
 11
932.9352618672347
 21
301.1190575161228
 31
0.0
  0
LINE
  5
A9C7
330
A5C2
100
AcDbEntity
  8
OBJECT1
 62
     1
440
 16777216
370
    -2
100
AcDbLine
 10
936.9352618672346
 20
511.1190575161238
 30
0.0
 11
936.9352618672346
 21
311.1190575161228
 31
0.0
  0
INSERT
  5
A9C8
330
A5C2
100
AcDbEntity
  8
OBJECT1
 62
     1
440
 16777216
370
    -2
100
AcDbBlockReference
  2
_OPEN
 10
936.9352618672346
 20
521.1190575161237
 30
0.0
 41
10.0
 42
10.0
 43
10.0
 50
90.0
  0
INSERT
  5
A9C9
330
A5C2
100
AcDbEntity
  8
OBJECT1
 62
     1
440
 16777216
370
    -2
100
AcDbBlockReference
  2
_OPEN
 10
936.9352618672346
 20
301.1190575161228
 30
0.0
 41
10.0
 42
10.0
 43
10.0
 50
270.0
  0
MTEXT
  5
A9CA
330
A5C2
100
AcDbEntity
  8
OBJECT1
 62
     2
440
 16777216
100
AcDbMText
 10
925.9340807648722
 20
411.1190575161235
 30
0.0
 40
12.0
 41
0.0
 46
0.0
 71
     5
 72
     1
  1
\A1;220
 11
0.0000000000000001
 21
1.0
 31
0.0
 73
     1
 44
1.0
  0
POINT
  5
A9CB
330
A5C2
100
AcDbEntity
  8
DEFPOINTS
 62
     0
440
 16777216
100
AcDbPoint
 10
1009.342450737894
 20
521.1190575161237
 30
0.0
  0
POINT
  5
A9CC
330
A5C2
100
AcDbEntity
  8
DEFPOINTS
 62
     0
440
 16777216
100
AcDbPoint
 10
1009.342450737893
 20
301.1190575161228
 30
0.0
  0
POINT
  5
A9CD
330
A5C2
100
AcDbEntity
  8
DEFPOINTS
 62
     0
440
 16777216
100
AcDbPoint
 10
936.9352618672346
 20
301.1190575161228
 30
0.0
  0
ENDBLK
  5
A5C4
330
A5C2
100
AcDbEntity
  8
0
100
AcDbBlockEnd
  0
BLOCK
  5
A5CF
330
A5CE
100
AcDbEntity
  8
0
100
AcDbBlockBegin
  2
*D17
 70
     1
 10
0.0
 20
0.0
 30
0.0
  3
*D17
  1

  0
LINE
  5
A9CE
330
A5CE
100
AcDbEntity
  8
OBJECT1
 62
     1
440
 16777216
370
    -2
100
AcDbLine
 10
1127.642487379965
 20
525.1190575161306
 30
0.0
 11
1127.642487379965
 21
582.0122339002224
 31
0.0
  0
LINE
  5
A9CF
330
A5CE
100
AcDbEntity
  8
OBJECT1
 62
     1
440
 16777216
370
    -2
100
AcDbLine
 10
1075.642486903128
 20
478.6188347369722
 30
0.0
 11
1075.642486903128
 21
582.0122339002224
 31
0.0
  0
LINE
  5
A9D0
330
A5CE
100
AcDbEntity
  8
OBJECT1
 62
     1
440
 16777216
370
    -2
100
AcDbLine
 10
1117.642487379965
 20
578.0122339002224
 30
0.0
 11
1085.642486903128
 21
578.0122339002224
 31
0.0
  0
INSERT
  5
A9D1
330
A5CE
100
AcDbEntity
  8
OBJECT1
 62
     1
440
 16777216
370
    -2
100
AcDbBlockReference
  2
_OPEN
 10
1127.642487379965
 20
578.0122339002224
 30
0.0
 41
10.0
 42
10.0
 43
10.0
  0
INSERT
  5
A9D2
330
A5CE
100
AcDbEntity
  8
OBJECT1
 62
     1
440
 16777216
370
    -2
100
AcDbBlockReference
  2
_OPEN
 10
1075.642486903128
 20
578.0122339002224
 30
0.0
 41
10.0
 42
10.0
 43
10.0
 50
180.0
  0
MTEXT
  5
A9D3
330
A5CE
100
AcDbEntity
  8
OBJECT1
 62
     2
440
 16777216
100
AcDbMText
 10
1101.642487141546
 20
589.0134150025845
 30
0.0
 40
12.0
 41
0.0
 46
0.0
 71
     5
 72
     1
  1
\A1;52
 73
     1
 44
1.0
  0
POINT
  5
A9D4
330
A5CE
100
AcDbEntity
  8
DEFPOINTS
 62
     0
440
 16777216
100
AcDbPoint
 10
1127.642487379965
 20
521.1190575161306
 30
0.0
  0
POINT
  5
A9D5
330
A5CE
100
AcDbEntity
  8
DEFPOINTS
 62
     0
440
 16777216
100
AcDbPoint
 10
1075.642486903128
 20
474.6188347369722
 30
0.0
  0
POINT
  5
A9D6
330
A5CE
100
AcDbEntity
  8
DEFPOINTS
 62
     0
440
 16777216
100
AcDbPoint
 10
1075.642486903128
 20
578.0122339002224
 30
0.0
  0
ENDBLK
  5
A5D0
330
A5CE
100
AcDbEntity
  8
0
100
AcDbBlockEnd
  0
BLOCK
  5
A5DB
330
A5DA
100
AcDbEntity
  8
0
100
AcDbBlockBegin
  2
*D18
 70
     1
 10
0.0
 20
0.0
 30
0.0
  3
*D18
  1

  0
LINE
  5
A9D7
330
A5DA
100
AcDbEntity
  8
OBJECT1
 62
     1
440
 16777216
370
    -2
100
AcDbLine
 10
1112.642487379965
 20
492.6188327104198
 30
0.0
 11
1112.642487379965
 21
554.0122339002224
 31
0.0
  0
LINE
  5
A9D8
330
A5DA
100
AcDbEntity
  8
OBJECT1
 62
     1
440
 16777216
370
    -2
100
AcDbLine
 10
1075.642486903128
 20
478.6188347369722
 30
0.0
 11
1075.642486903128
 21
554.0122339002224
 31
0.0
  0
LINE
  5
A9D9
330
A5DA
100
AcDbEntity
  8
OBJECT1
 62
     1
440
 16777216
370
    -2
100
AcDbLine
 10
1102.642487379965
 20
550.0122339002224
 30
0.0
 11
1085.642486903128
 21
550.0122339002224
 31
0.0
  0
INSERT
  5
A9DA
330
A5DA
100
AcDbEntity
  8
OBJECT1
 62
     1
440
 16777216
370
    -2
100
AcDbBlockReference
  2
_OPEN
 10
1112.642487379965
 20
550.0122339002224
 30
0.0
 41
10.0
 42
10.0
 43
10.0
  0
INSERT
  5
A9DB
330
A5DA
100
AcDbEntity
  8
OBJECT1
 62
     1
440
 16777216
370
    -2
100
AcDbBlockReference
  2
_OPEN
 10
1075.642486903128
 20
550.0122339002224
 30
0.0
 41
10.0
 42
10.0
 43
10.0
 50
180.0
  0
MTEXT
  5
A9DC
330
A5DA
100
AcDbEntity
  8
OBJECT1
 62
     2
440
 16777216
100
AcDbMText
 10
1094.142487141546
 20
561.0122339002224
 30
0.0
 40
12.0
 41
0.0
 46
0.0
 71
     5
 72
     1
  1
\A1;37
 73
     1
 44
1.0
  0
POINT
  5
A9DD
330
A5DA
100
AcDbEntity
  8
DEFPOINTS
 62
     0
440
 16777216
100
AcDbPoint
 10
1112.642487379965
 20
488.6188327104198
 30
0.0
  0
POINT
  5
A9DE
330
A5DA
100
AcDbEntity
  8
DEFPOINTS
 62
     0
440
 16777216
100
AcDbPoint
 10
1075.642486903128
 20
474.6188347369722
 30
0.0
  0
POINT
  5
A9DF
330
A5DA
100
AcDbEntity
  8
DEFPOINTS
 62
     0
440
 16777216
100
AcDbPoint
 10
1075.642486903128
 20
550.0122339002224
 30
0.0
  0
ENDBLK
  5
A5DC
330
A5DA
100
AcDbEntity
  8
0
100
AcDbBlockEnd
  0
BLOCK
  5
A5E7
330
A5E6
100
AcDbEntity
  8
0
100
AcDbBlockBegin
  2
*D19
 70
     1
 10
0.0
 20
0.0
 30
0.0
  3
*D19
  1

  0
LINE
  5
A9E0
330
A5E6
100
AcDbEntity
  8
OBJECT1
 62
     1
440
 16777216
370
    -2
100
AcDbLine
 10
1065.549066913311
 20
532.2396180878395
 30
0.0
 11
1033.932415622716
 21
517.4682979769361
 31
0.0
  0
MTEXT
  5
A9E1
330
A5E6
100
AcDbEntity
  8
OBJECT1
 62
     2
440
 16777216
100
AcDbMText
 10
1049.614619891692
 20
536.936345768197
 30
0.0
 40
12.0
 41
0.0
 46
0.0
 71
     5
 72
     1
  1
\A1;R5
 11
0.9059976589883126
 21
0.4232826973875703
 31
0.0
 73
     1
 44
1.0
  0
LINE
  5
A9E2
330
A5E6
100
AcDbEntity
  8
OBJECT1
 62
     1
440
 16777216
370
    -2
100
AcDbLine
 10
1020.342450737894
 20
511.1190575161238
 30
0.0
 11
1024.872439032832
 21
513.2354710030604
 31
0.0
  0
INSERT
  5
A9E3
330
A5E6
100
AcDbEntity
  8
OBJECT1
 62
     1
440
 16777216
370
    -2
100
AcDbBlockReference
  2
_OPEN
 10
1024.872439032832
 20
513.2354710030604
 30
0.0
 41
10.0
 42
10.0
 43
10.0
 50
205.0420120755048
  0
POINT
  5
A9E4
330
A5E6
100
AcDbEntity
  8
DEFPOINTS
 62
     0
440
 16777216
100
AcDbPoint
 10
1024.872439032832
 20
513.2354710030604
 30
0.0
  0
POINT
  5
A9E5
330
A5E6
100
AcDbEntity
  8
DEFPOINTS
 62
     0
440
 16777216
100
AcDbPoint
 10
1020.342450737894
 20
511.1190575161238
 30
0.0
  0
ENDBLK
  5
A5E8
330
A5E6
100
AcDbEntity
  8
0
100
AcDbBlockEnd
  0
BLOCK
  5
A5F0
330
A5EF
100
AcDbEntity
  8
0
100
AcDbBlockBegin
  2
*D20
 70
     1
 10
0.0
 20
0.0
 30
0.0
  3
*D20
  1

  0
LINE
  5
A9E6
330
A5EF
100
AcDbEntity
  8
OBJECT1
 62
     1
440
 16777216
370
    -2
100
AcDbLine
 10
1033.342450737893
 20
523.1190575161239
 30
0.0
 11
1033.342450737893
 21
554.0122339002202
 31
0.0
  0
LINE
  5
A9E7
330
A5EF
100
AcDbEntity
  8
OBJECT1
 62
     1
440
 16777216
370
    -2
100
AcDbLine
 10
1007.342450737893
 20
523.1190575161239
 30
0.0
 11
1007.342450737893
 21
554.0122339002202
 31
0.0
  0
LINE
  5
A9E8
330
A5EF
100
AcDbEntity
  8
OBJECT1
 62
     1
440
 16777216
370
    -2
100
AcDbLine
 10
1043.342450737893
 20
550.0122339002202
 30
0.0
 11
1053.342450737893
 21
550.0122339002202
 31
0.0
  0
LINE
  5
A9E9
330
A5EF
100
AcDbEntity
  8
OBJECT1
 62
     1
440
 16777216
370
    -2
100
AcDbLine
 10
997.3424507378933
 20
550.0122339002202
 30
0.0
 11
987.3424507378933
 21
550.0122339002202
 31
0.0
  0
LINE
  5
A9EA
330
A5EF
100
AcDbEntity
  8
OBJECT1
 62
     1
440
 16777216
370
    -2
100
AcDbLine
 10
1033.342450737893
 20
550.0122339002202
 30
0.0
 11
1007.342450737893
 21
550.0122339002202
 31
0.0
  0
INSERT
  5
A9EB
330
A5EF
100
AcDbEntity
  8
OBJECT1
 62
     1
440
 16777216
370
    -2
100
AcDbBlockReference
  2
_OPEN
 10
1033.342450737893
 20
550.0122339002202
 30
0.0
 41
10.0
 42
10.0
 43
10.0
 50
180.0
  0
INSERT
  5
A9EC
330
A5EF
100
AcDbEntity
  8
OBJECT1
 62
     1
440
 16777216
370
    -2
100
AcDbBlockReference
  2
_OPEN
 10
1007.342450737893
 20
550.0122339002202
 30
0.0
 41
10.0
 42
10.0
 43
10.0
  0
MTEXT
  5
A9ED
330
A5EF
100
AcDbEntity
  8
OBJECT1
 62
     2
440
 16777216
100
AcDbMText
 10
1020.342450737893
 20
561.0134150025826
 30
0.0
 40
12.0
 41
0.0
 46
0.0
 71
     5
 72
     1
  1
\A1;26
 73
     1
 44
1.0
  0
POINT
  5
A9EE
330
A5EF
100
AcDbEntity
  8
DEFPOINTS
 62
     0
440
 16777216
100
AcDbPoint
 10
1033.342450737893
 20
519.1190575161239
 30
0.0
  0
POINT
  5
A9EF
330
A5EF
100
AcDbEntity
  8
DEFPOINTS
 62
     0
440
 16777216
100
AcDbPoint
 10
1007.342450737893
 20
519.1190575161239
 30
0.0
  0
POINT
  5
A9F0
330
A5EF
100
AcDbEntity
  8
DEFPOINTS
 62
     0
440
 16777216
100
AcDbPoint
 10
1007.342450737893
 20
550.0122339002202
 30
0.0
  0
ENDBLK
  5
A5F1
330
A5EF
100
AcDbEntity
  8
0
100
AcDbBlockEnd
  0
BLOCK
  5
A5FE
330
A5FD
100
AcDbEntity
  8
0
100
AcDbBlockBegin
  2
*D21
 70
     1
 10
0.0
 20
0.0
 30
0.0
  3
*D21
  1

  0
LINE
  5
A9F1
330
A5FD
100
AcDbEntity
  8
OBJECT1
 62
     1
440
 16777216
370
    -2
100
AcDbLine
 10
1112.642487379965
 20
493.5890575161301
 30
0.0
 11
1112.642487379965
 21
554.0122339002224
 31
0.0
  0
LINE
  5
A9F2
330
A5FD
100
AcDbEntity
  8
OBJECT1
 62
     1
440
 16777216
370
    -2
100
AcDbLine
 10
1127.642487379965
 20
525.1190575161306
 30
0.0
 11
1127.642487379965
 21
554.0122339002224
 31
0.0
  0
LINE
  5
A9F3
330
A5FD
100
AcDbEntity
  8
OBJECT1
 62
     1
440
 16777216
370
    -2
100
AcDbLine
 10
1102.642487379965
 20
550.0122339002224
 30
0.0
 11
1092.642487379965
 21
550.0122339002224
 31
0.0
  0
LINE
  5
A9F4
330
A5FD
100
AcDbEntity
  8
OBJECT1
 62
     1
440
 16777216
370
    -2
100
AcDbLine
 10
1137.642487379965
 20
550.0122339002224
 30
0.0
 11
1147.642487379965
 21
550.0122339002224
 31
0.0
  0
LINE
  5
A9F5
330
A5FD
100
AcDbEntity
  8
OBJECT1
 62
     1
440
 16777216
370
    -2
100
AcDbLine
 10
1112.642487379965
 20
550.0122339002224
 30
0.0
 11
1127.642487379965
 21
550.0122339002224
 31
0.0
  0
INSERT
  5
A9F6
330
A5FD
100
AcDbEntity
  8
OBJECT1
 62
     1
440
 16777216
370
    -2
100
AcDbBlockReference
  2
_OPEN
 10
1112.642487379965
 20
550.0122339002224
 30
0.0
 41
10.0
 42
10.0
 43
10.0
  0
INSERT
  5
A9F7
330
A5FD
100
AcDbEntity
  8
OBJECT1
 62
     1
440
 16777216
370
    -2
100
AcDbBlockReference
  2
_OPEN
 10
1127.642487379965
 20
550.0122339002224
 30
0.0
 41
10.0
 42
10.0
 43
10.0
 50
180.0
  0
MTEXT
  5
A9F8
330
A5FD
100
AcDbEntity
  8
OBJECT1
 62
     2
440
 16777216
100
AcDbMText
 10
1120.142487379965
 20
561.0122339002224
 30
0.0
 40
12.0
 41
0.0
 46
0.0
 71
     5
 72
     1
  1
\A1;15
 73
     1
 44
1.0
  0
POINT
  5
A9F9
330
A5FD
100
AcDbEntity
  8
DEFPOINTS
 62
     0
440
 16777216
100
AcDbPoint
 10
1112.642487379965
 20
489.5890575161301
 30
0.0
  0
POINT
  5
A9FA
330
A5FD
100
AcDbEntity
  8
DEFPOINTS
 62
     0
440
 16777216
100
AcDbPoint
 10
1127.642487379965
 20
521.1190575161306
 30
0.0
  0
POINT
  5
A9FB
330
A5FD
100
AcDbEntity
  8
DEFPOINTS
 62
     0
440
 16777216
100
AcDbPoint
 10
1127.642487379965
 20
550.0122339002224
 30
0.0
  0
ENDBLK
  5
A5FF
330
A5FD
100
AcDbEntity
  8
0
100
AcDbBlockEnd
  0
BLOCK
  5
A60C
330
A60B
100
AcDbEntity
  8
0
100
AcDbBlockBegin
  2
*D22
 70
     1
 10
0.0
 20
0.0
 30
0.0
  3
*D22
  1

  0
LINE
  5
AABF
330
A60B
100
AcDbEntity
  8
OBJECT1
 62
     1
440
 16777216
370
    -2
100
AcDbLine
 10
996.3342918133266
 20
477.5154022624376
 30
0.0
 11
996.3342918133266
 21
582.0122339002202
 31
0.0
  0
LINE
  5
AAC0
330
A60B
100
AcDbEntity
  8
OBJECT1
 62
     1
440
 16777216
370
    -2
100
AcDbLine
 10
1044.350609662465
 20
476.8033590623407
 30
0.0
 11
1044.350609662465
 21
582.0122339002202
 31
0.0
  0
LINE
  5
AAC1
330
A60B
100
AcDbEntity
  8
OBJECT1
 62
     1
440
 16777216
370
    -2
100
AcDbLine
 10
1006.334291813327
 20
578.0122339002202
 30
0.0
 11
1034.350609662465
 21
578.0122339002202
 31
0.0
  0
INSERT
  5
AAC2
330
A60B
100
AcDbEntity
  8
OBJECT1
 62
     1
440
 16777216
370
    -2
100
AcDbBlockReference
  2
_OPEN
 10
996.3342918133266
 20
578.0122339002202
 30
0.0
 41
10.0
 42
10.0
 43
10.0
 50
180.0
  0
INSERT
  5
AAC3
330
A60B
100
AcDbEntity
  8
OBJECT1
 62
     1
440
 16777216
370
    -2
100
AcDbBlockReference
  2
_OPEN
 10
1044.350609662465
 20
578.0122339002202
 30
0.0
 41
10.0
 42
10.0
 43
10.0
  0
MTEXT
  5
AAC4
330
A60B
100
AcDbEntity
  8
OBJECT1
 62
     2
440
 16777216
100
AcDbMText
 10
1020.342450737896
 20
589.0122339002203
 30
0.0
 40
12.0
 41
0.0
 46
0.0
 71
     5
 72
     1
  1
\A1;48
 73
     1
 44
1.0
  0
POINT
  5
AAC5
330
A60B
100
AcDbEntity
  8
DEFPOINTS
 62
     0
440
 16777216
100
AcDbPoint
 10
996.3342918133266
 20
473.5154022624376
 30
0.0
  0
POINT
  5
AAC6
330
A60B
100
AcDbEntity
  8
DEFPOINTS
 62
     0
440
 16777216
100
AcDbPoint
 10
1044.350609662465
 20
472.8033590623407
 30
0.0
  0
POINT
  5
AAC7
330
A60B
100
AcDbEntity
  8
DEFPOINTS
 62
     0
440
 16777216
100
AcDbPoint
 10
1044.350609662465
 20
578.0122339002202
 30
0.0
  0
ENDBLK
  5
A60D
330
A60B
100
AcDbEntity
  8
0
100
AcDbBlockEnd
  0
ENDSEC
  0
SECTION
  2
ENTITIES
  0
MTEXT
  5
7A27
330
18
100
AcDbEntity
  8
OBJECT1
 62
     2
100
AcDbMText
 10
-161.5789866452596
 20
242.342904486376
 30
0.0
 40
3.0
 41
0.0
 46
0.0
 71
     7
 72
     1
  1
　　　
 73
     1
 44
1.0
  0
LINE
  5
AB7B
330
18
100
AcDbEntity
  8
0
100
AcDbLine
 10
189.5562811289376
 20
934.6463812247472
 30
0.0
 11
189.5562811289376
 21
903.7018026692804
 31
0.0
  0
LINE
  5
AB7C
330
18
100
AcDbEntity
  8
0
100
AcDbLine
 10
212.4462811289376
 20
903.7018026692804
 30
0.0
 11
212.4462811289376
 21
934.6463812247476
 31
0.0
  0
LINE
  5
AB7D
330
18
100
AcDbEntity
  8
0
100
AcDbLine
 10
279.0012811289379
 20
1012.338535923673
 30
0.0
 11
279.0012811289379
 21
1018.281076026371
 31
0.0
  0
LINE
  5
AB7E
330
18
100
AcDbEntity
  8
0
100
AcDbLine
 10
123.0012811289377
 20
1018.281076026372
 30
0.0
 11
123.0012811289377
 21
1012.338535923673
 31
0.0
  0
LINE
  5
AB7F
330
18
100
AcDbEntity
  8
0
100
AcDbLine
 10
130.4111554584652
 20
1007.11609240872
 30
0.0
 11
187.0243319866297
 21
988.4122358713668
 31
0.0
  0
LINE
  5
AB80
330
18
100
AcDbEntity
  8
0
100
AcDbLine
 10
214.9782302712459
 20
988.4122358713668
 30
0.0
 11
271.5914067994104
 21
1007.116092408719
 31
0.0
  0
SPLINE
  5
AB81
330
18
100
AcDbEntity
  8
0
100
AcDbSpline
210
0.0
220
0.0
230
1.0
 70
     8
 71
     3
 72
    18
 73
    14
 74
     0
 42
0.00000001
 43
0.0000000001
 40
0.0
 40
0.0
 40
0.0
 40
0.0
 40
0.0233133383390992
 40
0.1120320033397601
 40
0.2012757195751946
 40
0.2942251354047327
 40
0.3936680933703854
 40
0.5008565265508458
 40
0.6144935401297724
 40
0.7313598750890967
 40
0.8484943242622076
 40
0.9647180233909848
 40
1.0
 40
1.0
 40
1.0
 40
1.0
 10
123.9107495748985
 20
1012.029294180754
 30
0.0
 10
123.9078676474117
 20
1011.987991089786
 30
0.0
 10
123.8940185750424
 20
1011.789509518508
 30
0.0
 10
123.9656992941332
 20
1011.433990324895
 30
0.0
 10
124.1216758870985
 20
1010.981078134337
 30
0.0
 10
124.370714045099
 20
1010.544312280348
 30
0.0
 10
124.7074411136845
 20
1010.115969091037
 30
0.0
 10
125.1438470032695
 20
1009.690629746055
 30
0.0
 10
125.6860317357803
 20
1009.268468708071
 30
0.0
 10
126.330280128658
 20
1008.853374149001
 30
0.0
 10
127.0771064330612
 20
1008.450322077994
 30
0.0
 10
127.7012848554696
 20
1008.147869501711
 30
0.0
 10
128.1057024763338
 20
1007.982392588826
 30
0.0
 10
128.199881476362
 20
1007.943857051848
 30
0.0
  0
SPLINE
  5
AB82
330
18
100
AcDbEntity
  8
0
100
AcDbSpline
210
0.0
220
0.0
230
1.0
 70
     8
 71
     3
 72
    17
 73
    13
 74
     0
 42
0.00000001
 43
0.0000000001
 40
0.0
 40
0.0
 40
0.0
 40
0.0
 40
0.0001053858892902
 40
0.1240736348813034
 40
0.2490196738469441
 40
0.3750731480231758
 40
0.5020243042797607
 40
0.6278233012608742
 40
0.7330642810577725
 40
0.8308621664091766
 40
0.9236678164773671
 40
1.0
 40
1.0
 40
1.0
 40
1.0
 10
274.3564247588636
 20
1008.183113348508
 30
0.0
 10
274.3566742584153
 20
1008.183220975769
 30
0.0
 10
274.6504167745662
 20
1008.309933437745
 30
0.0
 10
275.1584240150913
 20
1008.572586664583
 30
0.0
 10
275.8752158988788
 20
1008.975609705418
 30
0.0
 10
276.4964504424605
 20
1009.398707817177
 30
0.0
 10
277.0323750974445
 20
1009.844845881598
 30
0.0
 10
277.4520900245138
 20
1010.297417840677
 30
0.0
 10
277.7608615052983
 20
1010.749584342346
 30
0.0
 10
277.963700722226
 20
1011.190766178619
 30
0.0
 10
278.0838081411365
 20
1011.615800700439
 30
0.0
 10
278.0898829658506
 20
1011.894433583457
 30
0.0
 10
278.0926245442729
 20
1012.020181063547
 30
0.0
  0
LINE
  5
AB83
330
18
100
AcDbEntity
  8
0
100
AcDbLine
 10
278.1012811289368
 20
1012.027137241224
 30
0.0
 11
278.1012811289368
 21
1013.490292618993
 31
0.0
  0
LINE
  5
AB84
330
18
100
AcDbEntity
  8
0
100
AcDbLine
 10
123.9012811289389
 20
1013.490292618994
 30
0.0
 11
123.9012811289389
 21
1012.027137241224
 31
0.0
  0
LINE
  5
AB85
330
18
100
AcDbEntity
  8
0
100
AcDbLine
 10
189.3012811289377
 20
989.1655480457583
 30
0.0
 11
189.3012811289377
 21
988.3458238117585
 31
0.0
  0
LINE
  5
AB86
330
18
100
AcDbEntity
  8
0
100
AcDbLine
 10
212.7012811289378
 20
988.3419447493034
 30
0.0
 11
212.7012811289378
 21
989.1655480457583
 31
0.0
  0
LINE
  5
AB87
330
18
100
AcDbEntity
  8
0
100
AcDbLine
 10
184.5014795999633
 20
973.5566207758239
 30
0.0
 11
185.9264624577956
 21
933.4454400504943
 31
0.0
  0
LINE
  5
AB88
330
18
100
AcDbEntity
  8
0
100
AcDbLine
 10
216.0760998000788
 20
933.4454400504947
 30
0.0
 11
217.5010826579104
 21
973.5566207758244
 31
0.0
  0
LINE
  5
AB89
330
18
100
AcDbEntity
  8
0
100
AcDbLine
 10
217.4834543186857
 20
973.6736599613706
 30
0.0
 11
213.77166007432
 21
984.6890895588844
 31
0.0
  0
LINE
  5
AB8A
330
18
100
AcDbEntity
  8
0
100
AcDbLine
 10
188.2309021835533
 20
984.689089558884
 30
0.0
 11
184.5191079391879
 21
973.6736599613704
 31
0.0
  0
LINE
  5
AB8B
330
18
100
AcDbEntity
  8
0
100
AcDbLine
 10
213.2014143179274
 20
985.1344661693913
 30
0.0
 11
213.1538177189431
 21
987.8351518290719
 31
0.0
  0
LINE
  5
AB8C
330
18
100
AcDbEntity
  8
0
100
AcDbLine
 10
188.8487445389303
 20
987.8351518290719
 30
0.0
 11
188.8015581386084
 21
985.1577413123363
 31
0.0
  0
LINE
  5
AB8D
330
18
100
AcDbEntity
  8
0
100
AcDbLine
 10
216.6253981752128
 20
932.9635782137629
 30
0.0
 11
216.6253981752126
 21
948.9073849265526
 31
0.0
  0
LINE
  5
AB8E
330
18
100
AcDbEntity
  8
0
100
AcDbLine
 10
187.3229553457951
 20
932.5807227895793
 30
0.0
 11
187.3229553457951
 21
932.3144857733668
 31
0.0
  0
LWPOLYLINE
  5
AB8F
330
18
100
AcDbEntity
  8
0
100
AcDbPolyline
 90
       99
 70
   128
 43
0.0
 10
277.287305022441
 20
1010.093386751567
 10
277.5195808127888
 20
1010.249481888488
 10
278.0237809236829
 20
1010.638980534398
 10
278.4240042786889
 20
1011.030773500232
 10
278.7197105950819
 20
1011.424331883893
 10
278.9105006832282
 20
1011.819124400055
 10
278.9961169854729
 20
1012.214618097369
 10
278.9764439238305
 20
1012.610279077927
 10
278.8515080560102
 20
1013.005573217995
 10
278.6214780395631
 20
1013.399966889055
 10
278.2866644042041
 20
1013.792927678182
 10
277.8475191326096
 20
1014.183925106774
 10
277.3046350502635
 20
1014.572431346673
 10
276.6587450251703
 20
1014.957921932708
 10
275.910720978517
 20
1015.339876470701
 10
275.0615727076216
 20
1015.717779339971
 10
274.112446522753
 20
1016.0911203894
 10
273.0646236996671
 20
1016.459395626111
 10
271.919518749944
 20
1016.822107895839
 10
270.678677511464
 20
1017.178767554062
 10
269.3437750615993
 20
1017.528893126998
 10
267.916613455938
 20
1017.872011961573
 10
266.3991192955937
 20
1018.207660863483
 10
264.7933411263847
 20
1018.53538672248
 10
263.1014466733936
 20
1018.854747124052
 10
261.3257199146393
 20
1019.165310946662
 10
259.4685579978157
 20
1019.466658943741
 10
257.5324680042529
 20
1019.758384309652
 10
255.5200635644771
 20
1020.040093228857
 10
253.4340613299305
 20
1020.311405407551
 10
251.2772773056212
 20
1020.571954587039
 10
249.052623048647
 20
1020.821389038173
 10
246.7631017377318
 20
1021.059372036161
 10
244.4118041190738
 20
1021.285582315138
 10
242.0019043339846
 20
1021.499714501856
 10
239.5366556339472
 20
1021.701479527923
 10
237.0193859888789
 20
1021.890605020034
 10
234.453493594529
 20
1022.066835667661
 10
231.8424422850735
 20
1022.229933567709
 10
229.1897568571023
 20
1022.379678545677
 10
226.4990183113089
 20
1022.515868452879
 10
223.7738590183084
 20
1022.638319439339
 10
221.0179578151068
 20
1022.74686620198
 10
218.2350350388451
 20
1022.841362207771
 10
215.4288475045178
 20
1022.921679891545
 10
212.6031834334501
 20
1022.987710828203
 10
209.7618573393766
 20
1023.039365879081
 10
206.908704879027
 20
1023.076575312289
 10
204.04757767417
 20
1023.099288896839
 10
201.1823381121044
 20
1023.10747597046
 10
198.3168541316184
 20
1023.101125480987
 10
195.4549940014534
 20
1023.080246001283
 10
192.6006210983229
 20
1023.044865717664
 10
189.7575886915362
 20
1022.99503239185
 10
186.9297347412649
 20
1022.930813296491
 10
184.1208767174775
 20
1022.852295124347
 10
181.3348064465344
 20
1022.759583871263
 10
178.5752849924008
 20
1022.652804693072
 10
175.8460375793853
 20
1022.53210173665
 10
173.1507485632645
 20
1022.397637945317
 10
170.4930564575746
 20
1022.249594838872
 10
167.8765490217888
 20
1022.088172268554
 10
165.3047584180108
 20
1021.913588147249
 10
162.7811564427226
 20
1021.726078155317
 10
160.3091498400218
 20
1021.525895422438
 10
157.8920757026765
 20
1021.313310185896
 10
155.5331969672083
 20
1021.088609425772
 10
153.2356980090803
 20
1020.852096477534
 10
151.0026803439398
 20
1020.604090622551
 10
148.8371584407185
 20
1020.344926657075
 10
146.7420556522401
 20
1020.074954440281
 10
144.7202002688333
 20
1019.794538421979
 10
142.7743217002701
 20
1019.504057150618
 10
140.9070467911928
 20
1019.203902762267
 10
139.1208962749961
 20
1018.894480451247
 10
137.4182813709563
 20
1018.57620792314
 10
135.8015005291983
 20
1018.249514830904
 10
134.2727363278949
 20
1017.914842194867
 10
132.8340525268905
 20
1017.572641807361
 10
131.4873912817212
 20
1017.223375622832
 10
130.234570521796
 20
1016.86751513422
 10
129.0772814962785
 20
1016.505540736463
 10
128.0170864909786
 20
1016.137941077992
 10
127.0554167193414
 20
1015.765212401074
 10
126.1935703903751
 20
1015.387857871911
 10
125.4327109561309
 20
1015.006386901388
 10
124.7738655410966
 20
1014.621314457392
 10
124.2179235556274
 20
1014.233160369629
 10
123.765635495283
 20
1013.842448627882
 10
123.4176119276947
 20
1013.449706674644
 10
123.174322668327
 20
1013.0554646931
 10
123.0360961462494
 20
1012.660254891401
 10
123.0031189607722
 20
1012.264610784211
 10
123.0754356295465
 20
1011.869066472487
 10
123.2529485284672
 20
1011.474155922464
 10
123.5354180234609
 20
1011.08041224483
 10
123.922462793981
 20
1010.688366975051
 10
124.4135603477723
 20
1010.298549355821
 10
124.7535671506912
 20
1010.06871605677
  0
LWPOLYLINE
  5
AB90
330
18
100
AcDbEntity
  8
0
100
AcDbPolyline
 90
       94
 70
   128
 43
0.0
 10
277.8749685264862
 20
1010.927590465694
 10
278.0463740166926
 20
1011.118751388517
 10
278.3202211259521
 20
1011.512642369292
 10
278.4884598635654
 20
1011.907661421318
 10
278.5508604356535
 20
1012.303268996087
 10
278.507337610541
 20
1012.698924741237
 10
278.3579508351715
 20
1013.094088238611
 10
278.1029041539113
 20
1013.488219742406
 10
277.7425459298482
 20
1013.880780916395
 10
277.2773683689704
 20
1014.271235569235
 10
276.7080068478717
 20
1014.659050386835
 10
276.0352390459036
 20
1015.043695660805
 10
275.2599838829591
 20
1015.424646011966
 10
274.3833002643381
 20
1015.801381107963
 10
273.4063856344112
 20
1016.173386373971
 10
272.3305743410536
 20
1016.540153695541
 10
271.1573358130868
 20
1016.901182112632
 10
269.8882725532159
 20
1017.255978503851
 10
268.5251179492032
 20
1017.604058260005
 10
267.0697339062694
 20
1017.944945946017
 10
265.5241083039545
 20
1018.278175950311
 10
263.8903522809144
 20
1018.603293120785
 10
262.1706973513584
 20
1018.91985338649
 10
260.3674923570697
 20
1019.227424364181
 10
258.4832002591703
 20
1019.5255859489
 10
256.5203947740118
 20
1019.813930887787
 10
254.4817568577886
 20
1020.092065336338
 10
252.3700710446749
 20
1020.359609396353
 10
250.1882216434848
 20
1020.616197634828
 10
247.9391887980545
 20
1020.861479583091
 10
245.6260444167234
 20
1021.095120215508
 10
243.2519479764776
 20
1021.316800407077
 10
240.8201422074836
 20
1021.526217369321
 10
238.3339486639097
 20
1021.723085063861
 10
235.796763187082
 20
1021.907134593105
 10
233.2120512671739
 20
1022.078114567536
 10
230.583343309763
 20
1022.235791449075
 10
227.9142298137224
 20
1022.379949870067
 10
225.2083564670306
 20
1022.510392927451
 10
222.4694191672004
 20
1022.6269424517
 10
219.7011589731272
 20
1022.729439250184
 10
216.9073569952534
 20
1022.817743324604
 10
214.0918292310251
 20
1022.891734062217
 10
211.2584213526996
 20
1022.951310400575
 10
208.4110034546193
 20
1022.996390965567
 10
205.5534647671283
 20
1023.026914182563
 10
202.6897083443516
 20
1023.042838360519
 10
199.8236457330929
 20
1023.044141748925
 10
196.959191630132
 20
1023.030822567509
 10
194.1002585352194
 20
1023.002899008671
 10
191.2507514070731
 20
1022.960409212632
 10
188.4145623296742
 20
1022.903411215343
 10
185.5955651961484
 20
1022.831982869213
 10
182.7976104174943
 20
1022.746221736771
 10
180.0245196633844
 20
1022.646244957408
 10
177.2800806422247
 20
1022.532189087378
 10
174.5680419276004
 20
1022.404209913281
 10
171.8921078381754
 20
1022.262482239273
 10
169.2559333780382
 20
1022.107199648311
 10
166.6631192444064
 20
1021.938574237736
 10
164.1172069095071
 20
1021.756836329574
 10
161.6216737833521
 20
1021.562234155947
 10
159.179928464014
 20
1021.355033520017
 10
156.795306081891
 20
1021.13551743293
 10
154.4710637443203
 20
1020.903985727255
 10
152.2103760867612
 20
1020.660754647453
 10
150.0163309366246
 20
1020.40615641792
 10
147.8919250956727
 20
1020.140538789215
 10
145.8400602467478
 20
1019.864264563067
 10
143.8635389904228
 20
1019.577711096838
 10
141.965061016986
 20
1019.281269788094
 10
140.1472194189887
 20
1018.975345540006
 10
138.4124971493925
 20
1018.660356208297
 10
136.7632636301552
 20
1018.336732030506
 10
135.2017715158841
 20
1018.004915038333
 10
133.7301536169817
 20
1017.665358453875
 10
132.3504199864826
 20
1017.318526070583
 10
131.0644551745635
 20
1016.964891619774
 10
129.8740156544737
 20
1016.60493812357
 10
128.7807274234047
 20
1016.23915723515
 10
127.7860837815726
 20
1015.868048567209
 10
126.8914432925503
 20
1015.492119009547
 10
126.0980279276333
 20
1015.111882036723
 10
125.4069213967731
 20
1014.727857006703
 10
124.8190676683604
 20
1014.340568451485
 10
124.3352696798776
 20
1013.950545360651
 10
123.9561882411829
 20
1013.558320458828
 10
123.6823411319233
 20
1013.164429478053
 10
123.51410239431
 20
1012.769410426027
 10
123.4517018222219
 20
1012.373802851258
 10
123.4952246473346
 20
1011.978147106109
 10
123.6446114227041
 20
1011.582983608734
 10
123.8996581039643
 20
1011.18885210494
 10
124.104879152122
 20
1010.951384764456
  0
LWPOLYLINE
  5
AB91
330
18
100
AcDbEntity
  8
0
100
AcDbPolyline
 90
       87
 70
   128
 43
0.0
 10
279.0012811289379
 20
1018.281076026371
 10
278.9764439238305
 20
1018.552819180626
 10
278.8515080560102
 20
1018.948113320694
 10
278.6214780395631
 20
1019.342506991754
 10
278.2866644042041
 20
1019.735467780881
 10
277.8475191326096
 20
1020.126465209473
 10
277.3046350502635
 20
1020.514971449372
 10
276.6587450251703
 20
1020.900462035407
 10
275.9107209785171
 20
1021.2824165734
 10
275.0615727076216
 20
1021.66031944267
 10
274.112446522753
 20
1022.033660492098
 10
273.0646236996671
 20
1022.40193572881
 10
271.919518749944
 20
1022.764647998538
 10
270.678677511464
 20
1023.121307656761
 10
269.3437750615993
 20
1023.471433229696
 10
267.916613455938
 20
1023.814552064272
 10
266.3991192955937
 20
1024.150200966182
 10
264.7933411263847
 20
1024.477926825179
 10
263.1014466733935
 20
1024.797287226751
 10
261.3257199146393
 20
1025.107851049361
 10
259.4685579978157
 20
1025.40919904644
 10
257.5324680042529
 20
1025.700924412351
 10
255.5200635644771
 20
1025.982633331556
 10
253.4340613299306
 20
1026.253945510249
 10
251.2772773056213
 20
1026.514494689738
 10
249.052623048647
 20
1026.763929140872
 10
246.7631017377318
 20
1027.00191213886
 10
244.4118041190738
 20
1027.228122417837
 10
242.0019043339846
 20
1027.442254604554
 10
239.5366556339471
 20
1027.644019630622
 10
237.0193859888789
 20
1027.833145122733
 10
234.453493594529
 20
1028.00937577036
 10
231.8424422850735
 20
1028.172473670408
 10
229.1897568571023
 20
1028.322218648375
 10
226.499018311309
 20
1028.458408555577
 10
223.7738590183084
 20
1028.580859542038
 10
221.0179578151068
 20
1028.689406304679
 10
218.2350350388451
 20
1028.78390231047
 10
215.4288475045179
 20
1028.864219994244
 10
212.6031834334501
 20
1028.930250930901
 10
209.7618573393766
 20
1028.981905981779
 10
206.908704879027
 20
1029.019115414987
 10
204.0475776741699
 20
1029.041828999537
 10
201.1823381121045
 20
1029.050016073158
 10
198.3168541316185
 20
1029.043665583686
 10
195.4549940014534
 20
1029.022786103982
 10
192.6006210983229
 20
1028.987405820362
 10
189.7575886915362
 20
1028.937572494549
 10
186.9297347412648
 20
1028.87335339919
 10
184.1208767174775
 20
1028.794835227046
 10
181.3348064465344
 20
1028.702123973961
 10
178.5752849924007
 20
1028.595344795771
 10
175.8460375793852
 20
1028.474641839349
 10
173.1507485632645
 20
1028.340178048016
 10
170.4930564575746
 20
1028.192134941571
 10
167.8765490217887
 20
1028.030712371253
 10
165.3047584180108
 20
1027.856128249948
 10
162.7811564427226
 20
1027.668618258016
 10
160.3091498400218
 20
1027.468435525137
 10
157.8920757026765
 20
1027.255850288595
 10
155.5331969672083
 20
1027.031149528471
 10
153.2356980090803
 20
1026.794636580233
 10
151.0026803439398
 20
1026.54663072525
 10
148.8371584407183
 20
1026.287466759773
 10
146.7420556522403
 20
1026.01749454298
 10
144.7202002688333
 20
1025.737078524678
 10
142.7743217002701
 20
1025.446597253317
 10
140.9070467911927
 20
1025.146442864966
 10
139.1208962749961
 20
1024.837020553945
 10
137.4182813709564
 20
1024.518748025838
 10
135.8015005291983
 20
1024.192054933603
 10
134.2727363278949
 20
1023.857382297566
 10
132.8340525268905
 20
1023.51518191006
 10
131.4873912817212
 20
1023.165915725531
 10
130.234570521796
 20
1022.810055236919
 10
129.0772814962786
 20
1022.448080839161
 10
128.0170864909786
 20
1022.08048118069
 10
127.0554167193414
 20
1021.707752503773
 10
126.1935703903751
 20
1021.33039797461
 10
125.4327109561309
 20
1020.948927004087
 10
124.7738655410966
 20
1020.563854560091
 10
124.2179235556273
 20
1020.175700472328
 10
123.765635495283
 20
1019.784988730581
 10
123.4176119276947
 20
1019.392246777343
 10
123.1743226683269
 20
1018.998004795798
 10
123.0360961462494
 20
1018.6027949941
 10
123.0012811289377
 20
1018.281076026372
  0
ARC
  5
AB92
330
18
100
AcDbEntity
  8
0
100
AcDbCircle
 10
263.8838126059066
 20
1031.098512726543
 30
0.0
 40
25.19054371291908
100
AcDbArc
 50
287.8166349468249
 51
294.3566615914922
  0
ARC
  5
AB93
330
18
100
AcDbEntity
  8
0
100
AcDbCircle
 10
139.260782483519
 20
1034.198861260837
 30
0.0
 40
28.49196846797024
100
AcDbArc
 50
247.2681946449854
 51
251.9045612758469
  0
ARC
  5
AB94
330
18
100
AcDbEntity
  8
0
100
AcDbCircle
 10
211.2005451442401
 20
999.826514104212
 30
0.0
 40
12.01707913082362
100
AcDbArc
 50
279.1725592642403
 51
290.2512951354534
  0
ARC
  5
AB95
330
18
100
AcDbEntity
  8
0
100
AcDbCircle
 10
190.4109943114656
 20
998.2090409105667
 30
0.0
 40
10.35874982762581
100
AcDbArc
 50
247.4976771442375
 51
261.5364628203874
  0
ARC
  5
AB96
330
18
100
AcDbEntity
  8
0
100
AcDbCircle
 10
200.9831291308219
 20
892.3643217534209
 30
0.0
 40
98.85486278363579
100
AcDbArc
 50
85.52440499329572
 51
94.08605180806636
  0
LINE
  5
AB97
330
18
100
AcDbEntity
  8
0
100
AcDbLine
 10
195.3759735114081
 20
986.2635253126226
 30
0.0
 11
195.6876052024075
 21
986.2407695844533
 31
0.0
  0
LWPOLYLINE
  5
AB98
330
18
100
AcDbEntity
  8
0
100
AcDbPolyline
 90
        3
 70
   128
 43
0.0
 10
206.3222179677284
 20
986.2412810484
 10
206.5717589861177
 20
986.2594006737223
 10
206.6359656625866
 20
986.2642359597268
  0
LWPOLYLINE
  5
AB99
330
18
100
AcDbEntity
  8
0
100
AcDbPolyline
 90
       33
 70
   128
 43
0.0
 10
212.5461474378054
 20
989.4277259670504
 10
212.3133634441986
 20
989.5780512015871
 10
211.9781354814255
 20
989.724640743667
 10
211.5434994258282
 20
989.8661670556965
 10
211.0133914088316
 20
990.001348453479
 10
210.3926121707266
 20
990.1289607133419
 10
209.6867835844235
 20
990.2478481588993
 10
208.9022977429002
 20
990.3569341270337
 10
208.046259071418
 20
990.4552307183251
 10
207.1264199887472
 20
990.5418477436217
 10
206.1511107000606
 20
990.6160007857291
 10
205.1291637573071
 20
990.6770183032152
 10
204.0698340702526
 20
990.7243477119928
 10
202.9827150925844
 20
990.7575603896072
 10
201.8776519421087
 20
990.776355556906
 10
200.7646522418397
 20
990.7805630019444
 10
199.6537954894151
 20
990.7701446214483
 10
198.5551417756052
 20
990.7451947658847
 10
197.4786406785732
 20
990.7059393850092
 10
196.4340411589541
 20
990.6527339816303
 10
195.4308032717579
 20
990.5860603921196
 10
194.4780124946459
 20
990.5065224228284
 10
193.5842974484393
 20
990.4148403819233
 10
192.7577517549917
 20
990.3118445561643
 10
192.0058607400966
 20
990.1984676916987
 10
191.3354336452182
 20
990.0757365469679
 10
190.7525419619457
 20
989.9447625942238
 10
190.2624644476262
 20
989.8067319538647
 10
189.8696393201195
 20
989.6628946527439
 10
189.5776240646108
 20
989.5145533037345
 10
189.3890632164738
 20
989.3630513090634
 10
189.3056644119484
 20
989.2097606942559
 10
189.3012811289377
 20
989.1655480457583
  0
LWPOLYLINE
  5
AB9A
330
18
100
AcDbEntity
  8
0
100
AcDbPolyline
 90
        3
 70
   128
 43
0.0
 10
212.7012811289378
 20
989.1655480457583
 10
212.6743793343524
 20
989.2750264086592
 10
212.5461474378054
 20
989.4277259670504
  0
SPLINE
  5
AB9B
330
18
100
AcDbEntity
  8
0
100
AcDbSpline
210
0.0
220
0.0
230
1.0
 70
     8
 71
     3
 72
    19
 73
    15
 74
     0
 42
0.00000001
 43
0.0000000001
 40
0.0
 40
0.0
 40
0.0
 40
0.0
 40
0.0753209869896753
 40
0.1528334436734983
 40
0.2281527647534869
 40
0.3055617262843662
 40
0.4075784223401878
 40
0.51236397216513
 40
0.625119914996678
 40
0.7415329517715467
 40
0.8173329600255023
 40
0.8953039433153248
 40
0.9473005836419355
 40
1.0
 40
1.0
 40
1.0
 40
1.0
 10
196.4730746382813
 20
957.5831202928624
 30
0.0
 10
196.5412107952261
 20
957.6755195749807
 30
0.0
 10
196.6794655356473
 20
957.8630065031726
 30
0.0
 10
196.9397085813351
 20
958.0936621144727
 30
0.0
 10
197.2335419752844
 20
958.2808322255736
 30
0.0
 10
197.5884340402788
 20
958.4301212854843
 30
0.0
 10
198.0086321820725
 20
958.5198297798767
 30
0.0
 10
198.4897831386191
 20
958.5453904404598
 30
0.0
 10
198.9955318273121
 20
958.5267786529659
 30
0.0
 10
199.4482580525241
 20
958.4145379862601
 30
0.0
 10
199.8187525868168
 20
958.235568343113
 30
0.0
 10
200.0737148255183
 20
958.0527314098228
 30
0.0
 10
200.2755167501626
 20
957.8612145556856
 30
0.0
 10
200.3737097688216
 20
957.7359013300208
 30
0.0
 10
200.423135840229
 20
957.6728241324302
 30
0.0
  0
SPLINE
  5
AB9C
330
18
100
AcDbEntity
  8
0
100
AcDbSpline
210
0.0
220
0.0
230
1.0
 70
     8
 71
     3
 72
    11
 73
     7
 74
     0
 42
0.00000001
 43
0.0000000001
 40
0.0
 40
0.0
 40
0.0
 40
0.0
 40
0.2978591664808226
 40
0.6061034773009784
 40
0.8017484555992425
 40
1.0
 40
1.0
 40
1.0
 40
1.0
 10
196.0767224389863
 20
956.3293004882654
 30
0.0
 10
196.0857474850719
 20
956.4613449137995
 30
0.0
 10
196.1041122440951
 20
956.7300376198867
 30
0.0
 10
196.207810835458
 20
957.0741539096713
 30
0.0
 10
196.3340725103924
 20
957.3600533132518
 30
0.0
 10
196.4265366387391
 20
957.5084373280342
 30
0.0
 10
196.4730746384168
 20
957.5831202927208
 30
0.0
  0
LINE
  5
AB9D
330
18
100
AcDbEntity
  8
0
100
AcDbLine
 10
195.693532476116
 20
935.4036848643474
 30
0.0
 11
196.0767224385249
 21
956.329300476913
 31
0.0
  0
LWPOLYLINE
  5
AB9E
330
18
100
AcDbEntity
  8
0
100
AcDbPolyline
 90
       21
 70
   128
 43
0.0
 10
187.6990326844702
 20
932.4764096130419
 10
187.144658028011
 20
932.6359449627272
 10
186.690436218728
 20
932.801404961733
 10
186.339650279268
 20
932.9715936989147
 10
186.0948356188958
 20
933.1452810847723
 10
185.9577617080721
 20
933.321211742286
 10
185.9294192890827
 20
933.4981140805254
 10
186.0100132151546
 20
933.6747094854503
 10
186.1989609698189
 20
933.8497215614728
 10
186.4948968772208
 20
934.0218853569821
 10
186.8956819729465
 20
934.1899565071583
 10
187.3984194640219
 20
934.3527202279894
 10
187.9994756663418
 20
934.5090000964788
 10
188.6945062681981
 20
934.6576665535948
 10
189.4784877300786
 20
934.7976450684893
 10
190.3457535937872
 20
934.9279239049907
 10
191.2900354384485
 20
935.047561434226
 10
192.3045081873759
 20
935.1556929405209
 10
193.3818394383351
 20
935.2515368713898
 10
194.5142424606522
 20
935.3344004864382
 10
195.693532476116
 20
935.4036848643474
  0
LWPOLYLINE
  5
AB9F
330
18
100
AcDbEntity
  8
0
100
AcDbPolyline
 90
        3
 70
   128
 43
0.0
 10
213.7948282030492
 20
932.3547621485303
 10
213.0713060056353
 20
932.2087097384017
 10
212.4462811289376
 20
932.1010217970528
  0
LWPOLYLINE
  5
ABA0
330
18
100
AcDbEntity
  8
0
100
AcDbPolyline
 90
       21
 70
   128
 43
0.0
 10
201.5099824992924
 20
935.5357734252347
 10
202.7878793531655
 20
935.5222904856793
 10
204.0528630392624
 20
935.4938702783696
 10
205.2957905133597
 20
935.4507182187726
 10
206.5076781490388
 20
935.3931462011777
 10
207.6797666695057
 20
935.3215703443916
 10
208.8035844578585
 20
935.2365079841186
 10
209.8710087882069
 20
935.138573933758
 10
210.8743245350799
 20
935.0284760406633
 10
211.8062799367794
 20
934.907010069962
 10
212.6601390096364
 20
934.7750539529307
 10
213.4297302343264
 20
934.6335614414845
 10
214.1094911623544
 20
934.4835552146545
 10
214.6945086202983
 20
934.326119486869
 10
215.1805542212246
 20
934.1623921714768
 10
215.5641149266078
 20
933.9935566561386
 10
215.8424184378558
 20
933.8208332495426
 10
216.0134532339203
 20
933.6454703612638
 10
216.0759831101594
 20
933.4687354785112
 10
216.0295561133746
 20
933.2919060049906
 10
215.8745078084343
 20
933.1162600280915
  0
LINE
  5
ABA1
330
18
100
AcDbEntity
  8
0
100
AcDbLine
 10
200.8529810005072
 20
956.4377668523862
 30
0.0
 11
201.5099824992924
 21
935.5357734252347
 31
0.0
  0
SPLINE
  5
ABA2
330
18
100
AcDbEntity
  8
0
100
AcDbSpline
210
0.0
220
0.0
230
1.0
 70
     8
 71
     3
 72
    11
 73
     7
 74
     0
 42
0.00000001
 43
0.0000000001
 40
0.0
 40
0.0
 40
0.0
 40
0.0
 40
0.2897022554910877
 40
0.5881379611735881
 40
0.7924424911864727
 40
1.0
 40
1.0
 40
1.0
 40
1.0
 10
200.4231358398282
 20
957.6728241322133
 30
0.0
 10
200.4938525525154
 20
957.5656627617803
 30
0.0
 10
200.6374178249026
 20
957.3481095024327
 30
0.0
 10
200.7625472392875
 20
957.018028938325
 30
0.0
 10
200.8344251343192
 20
956.7114162152536
 30
0.0
 10
200.8467632287474
 20
956.5294623441543
 30
0.0
 10
200.8529810004807
 20
956.4377668523537
 30
0.0
  0
LWPOLYLINE
  5
ABA3
330
18
100
AcDbEntity
  8
0
100
AcDbPolyline
 90
       42
 70
   128
 43
0.0
 10
217.5010826579104
 20
973.5566207758244
 10
217.5012507645284
 20
973.5721643467654
 10
217.4451993646509
 20
973.7554567972058
 10
217.2825028449642
 20
973.9375321829706
 10
217.01421635483
 20
974.1172096753153
 10
216.642079835087
 20
974.2933239967534
 10
216.1685067338662
 20
974.4647329783303
 10
215.5965683544541
 20
974.6303249670255
 10
214.9299739367117
 20
974.7890260352491
 10
214.1730466012318
 20
974.9398069456752
 10
213.3306953122414
 20
975.0816898262398
 10
212.408383041087
 20
975.2137545120191
 10
211.4120913367669
 20
975.3351445128473
 10
210.3482815332924
 20
975.4450725679866
 10
209.2238528454565
 20
975.5428257518186
 10
208.0460976247783
 20
975.6277700974347
 10
206.8226540658062
 20
975.6993547081574
 10
205.5614566694938
 20
975.7571153303166
 10
204.2706847849176
 20
975.8006773641136
 10
202.9587095630589
 20
975.8297582930426
 10
201.6340396666777
 20
975.8441695161206
 10
200.30526608837
 20
975.8438175710358
 10
198.9810064346832
 20
975.8287047402873
 10
197.6698490376319
 20
975.7989290363811
 10
196.3802972560684
 20
975.7546835661839
 10
195.1207143281379
 20
975.6962552785477
 10
193.8992691324696
 20
975.6240231033387
 10
192.7238832098649
 20
975.5384554939308
 10
191.6021793890643
 20
975.440107389106
 10
190.5414323497789
 20
975.3296166140636
 10
189.5485214436007
 20
975.2076997438786
 10
188.6298860787674
 20
975.0751474562372
 10
187.7914839581295
 20
974.9328194035896
 10
187.0387524411606
 20
974.7816386379723
 10
186.3765732805951
 20
974.6225856246637
 10
185.8092409623883
 20
974.4566918834888
 10
185.3404348543272
 20
974.285033299018
 10
184.9731953439183
 20
974.1087231430418
 10
184.7099041203078
 20
973.928904854578
 10
184.5522687281142
 20
973.7467446242286
 10
184.5013114933454
 20
973.5634238309891
 10
184.5014795999633
 20
973.5566207758239
  0
LINE
  5
ABA4
330
18
100
AcDbEntity
  8
0
100
AcDbLine
 10
189.5562811289376
 20
931.9205445165044
 30
0.0
 11
187.4045348590916
 21
932.2829775809534
 31
0.0
  0
LWPOLYLINE
  5
ABA5
330
18
100
AcDbEntity
  8
0
100
AcDbPolyline
 90
        9
 70
   128
 43
0.0
 10
187.4045348590916
 20
932.2829775809534
 10
187.377960361983
 20
932.2880805491516
 10
187.3562627653604
 20
932.2936057395427
 10
187.3397890159775
 20
932.2994648037759
 10
187.3288025307447
 20
932.3055640548247
 10
187.3234789846668
 20
932.3118059650512
 10
187.3239035017812
 20
932.3180907256816
 10
187.3300692940166
 20
932.3243178427619
 10
187.3418777697349
 20
932.3303877440636
  0
LINE
  5
ABA6
330
18
100
AcDbEntity
  8
0
100
AcDbLine
 10
187.3418777697349
 20
932.3303877440636
 30
0.0
 11
187.6990326844702
 21
932.4764096130419
 31
0.0
  0
LINE
  5
ABA7
330
18
100
AcDbEntity
  8
0
100
AcDbLine
 10
195.693532476116
 20
935.4036848643474
 30
0.0
 11
196.1235947027594
 21
935.5459113305265
 31
0.0
  0
ARC
  5
ABA8
330
18
100
AcDbEntity
  8
0
100
AcDbCircle
 10
196.3847047370487
 20
934.4232775571851
 30
0.0
 40
1.152599253449924
100
AcDbArc
 50
89.37003131340256
 51
103.0934624167006
  0
LINE
  5
ABA9
330
18
100
AcDbEntity
  8
0
100
AcDbLine
 10
196.3973773425062
 20
935.5758071421087
 30
0.0
 11
200.443899837141
 21
935.6677015675376
 31
0.0
  0
ARC
  5
ABAA
330
18
100
AcDbEntity
  8
0
100
AcDbCircle
 10
200.5093041329814
 20
933.653372464084
 30
0.0
 40
2.015390646731721
100
AcDbArc
 50
82.49282056465226
 51
91.85971300310722
  0
LINE
  5
ABAB
330
18
100
AcDbEntity
  8
0
100
AcDbLine
 10
200.772615775463
 20
935.6514881859247
 30
0.0
 11
201.5099824992924
 21
935.5357734252347
 31
0.0
  0
LINE
  5
ABAC
330
18
100
AcDbEntity
  8
0
100
AcDbLine
 10
215.8745078084343
 20
933.1162600280915
 30
0.0
 11
216.5516136402165
 21
932.9937256838135
 31
0.0
  0
LWPOLYLINE
  5
ABAD
330
18
100
AcDbEntity
  8
0
100
AcDbPolyline
 90
        9
 70
   128
 43
0.0
 10
216.5516136402165
 20
932.9937256838135
 10
216.5768820296829
 20
932.9884977788752
 10
216.5971697609685
 20
932.9828714075826
 10
216.6121524312081
 20
932.9769365361793
 10
216.621590465997
 20
932.9707880638563
 10
216.6253329502086
 20
932.9645243053043
 10
216.6233200411441
 20
932.9582454186535
 10
216.6155839254218
 20
932.9520518039332
 10
216.6022483043111
 20
932.9460424976659
  0
LINE
  5
ABAE
330
18
100
AcDbEntity
  8
0
100
AcDbLine
 10
216.6022483043111
 20
932.9460424976659
 30
0.0
 11
215.155408690579
 21
932.4162660383167
 31
0.0
  0
ARC
  5
ABAF
330
18
100
AcDbEntity
  8
0
100
AcDbCircle
 10
214.9004115972045
 20
933.4408575658413
 30
0.0
 40
1.055846255808398
100
AcDbArc
 50
269.3997198923066
 51
283.9756601470465
  0
LINE
  5
ABB0
330
18
100
AcDbEntity
  8
0
100
AcDbLine
 10
214.889349841614
 20
932.3850692568193
 30
0.0
 11
213.7948282030492
 21
932.3547621485303
 31
0.0
  0
LWPOLYLINE
  5
ABB1
330
18
100
AcDbEntity
  8
0
100
AcDbPolyline
 90
       54
 70
   128
 43
0.0
 10
212.4462811289376
 20
932.2649155664308
 10
212.5544253665154
 20
932.2849920506474
 10
213.2405620068925
 20
932.4264454792713
 10
213.8360832937968
 20
932.5755187662007
 10
214.3365801959746
 20
932.7311082249757
 10
214.7383472094708
 20
932.8920619256802
 10
215.0384097918831
 20
933.0571882234263
 10
215.2345463848341
 20
933.2252645808777
 10
215.325304861612
 20
933.3950466194893
 10
215.310013278208
 20
933.5652773324484
 10
215.1887848481557
 20
933.7346963911148
 10
214.9625171043372
 20
933.9020494760527
 10
214.6328852539634
 20
934.066097563573
 10
214.2023297759266
 20
934.2256260990302
 10
213.6740383523479
 20
934.3794539889632
 10
213.0519222680948
 20
934.5264423454938
 10
212.3405874529957
 20
934.6655029182574
 10
211.5453003811476
 20
934.7956061514262
 10
210.6719490797837
 20
934.91578880618
 10
209.7269995363809
 20
935.0251610921924
 10
208.7174478267496
 20
935.1229132553232
 10
207.6507683185369
 20
935.2083215727574
 10
206.5348583336231
 20
935.2807537111941
 10
205.3779796791144
 20
935.3396734084222
 10
204.1886974798122
 20
935.3846444436175
 10
202.9758167650268
 20
935.41533386697
 10
201.7483172792212
 20
935.4315144647259
 10
200.5152869991237
 20
935.4330664414003
 10
199.285854849529
 20
935.4199783067011
 10
198.0691231159324
 20
935.3923469605987
 10
196.8741000543921
 20
935.3503769759123
 10
195.7096331975541
 20
935.2943790837247
 10
194.5843438506154
 20
935.2247678728373
 10
193.5065632621966
 20
935.1420587203005
 10
192.484270942692
 20
935.0468639757426
 10
191.5250355867667
 20
934.9398884277468
 10
190.635959037389
 20
934.8219240858426
 10
189.8236237062702
 20
934.6938443167458
 10
189.0940438399904
 20
934.5565973782553
 10
188.4526209926223
 20
934.4111993986853
 10
187.9041040345136
 20
934.2587268538061
 10
187.4525539933129
 20
934.1003085969948
 10
187.1013139875419
 20
933.937117501599
 10
186.8529844753151
 20
933.7703617773938
 10
186.7094040014583
 20
933.6012760254178
 10
186.6716355855655
 20
933.4311120974213
 10
186.7399588517741
 20
933.2611298275919
 10
186.913867958525
 20
933.0925877051839
 10
187.1920753436375
 20
932.9267335571042
 10
187.5725212569684
 20
932.7647953094375
 10
188.0523890100816
 20
932.6079718963123
 10
188.6281258300241
 20
932.4574243834122
 10
189.2954691628137
 20
932.31426737185
 10
189.5562811289376
 20
932.2649155664302
  0
SPLINE
  5
ABB2
330
18
100
AcDbEntity
  8
0
100
AcDbSpline
210
0.0
220
0.0
230
1.0
 70
     8
 71
     3
 72
    16
 73
    12
 74
     0
 42
0.00000001
 43
0.0000000001
 40
0.0
 40
0.0
 40
0.0
 40
0.0
 40
0.0018122672427942
 40
0.1333532816239814
 40
0.2647874916119652
 40
0.3959939338643636
 40
0.5271596965176581
 40
0.6584599387588577
 40
0.7898257172263251
 40
0.9211160568790266
 40
1.0
 40
1.0
 40
1.0
 40
1.0
 10
198.076555510439
 20
952.7660681997604
 30
0.0
 10
198.0757736522333
 20
952.7669343933188
 30
0.0
 10
198.0182416530666
 20
952.8306720975516
 30
0.0
 10
197.968803796493
 20
953.0060367160016
 30
0.0
 10
197.9499259252642
 20
953.2637443008452
 30
0.0
 10
198.0263017628446
 20
953.520296977272
 30
0.0
 10
198.1789364502679
 20
953.7379974577261
 30
0.0
 10
198.3944463625157
 20
953.8956443326682
 30
0.0
 10
198.6463726467682
 20
953.9700296290073
 30
0.0
 10
198.8782750841366
 20
953.9692960692557
 30
0.0
 10
199.0031803055503
 20
953.9104585566636
 30
0.0
 10
199.0500605244405
 20
953.8883752887423
 30
0.0
  0
LINE
  5
ABB3
330
18
100
AcDbEntity
  8
0
100
AcDbLine
 10
200.7726157754628
 20
956.4503785453704
 30
0.0
 11
200.772615775463
 21
935.6514881859247
 31
0.0
  0
LINE
  5
ABB4
330
18
100
AcDbEntity
  8
0
100
AcDbLine
 10
200.4438998371408
 20
956.4665919269831
 30
0.0
 11
200.443899837141
 21
935.6677015675376
 31
0.0
  0
ARC
  5
ABB5
330
18
100
AcDbEntity
  8
0
100
AcDbCircle
 10
200.5093041329814
 20
954.4522628235576
 30
0.0
 40
2.015390646703612
100
AcDbArc
 50
82.49282056455781
 51
91.8597130031341
  0
LINE
  5
ABB6
330
18
100
AcDbEntity
  8
0
100
AcDbLine
 10
196.3973773425062
 20
935.5758071421087
 30
0.0
 11
196.3973773425059
 21
956.3746975015545
 31
0.0
  0
SPLINE
  5
ABB7
330
18
100
AcDbEntity
  8
0
100
AcDbSpline
210
0.0
220
0.0
230
1.0
 70
     8
 71
     3
 72
    19
 73
    15
 74
     0
 42
0.00000001
 43
0.0000000001
 40
0.0
 40
0.0
 40
0.0
 40
0.0
 40
0.119728422197295
 40
0.1841803301190865
 40
0.2500000000000093
 40
0.3158196698809253
 40
0.3802715778027156
 40
0.5000000000000119
 40
0.619728422197303
 40
0.6841803301190918
 40
0.7500000000000079
 40
0.8158196698809188
 40
0.880271577802709
 40
1.0
 40
1.0
 40
1.0
 40
1.0
 10
196.3973773425059
 20
956.3746975015545
 30
0.0
 10
196.4244040460898
 20
956.6307616952617
 30
0.0
 10
196.4659796978586
 20
957.0246697319934
 30
0.0
 10
196.7182755147506
 20
957.503343031322
 30
0.0
 10
196.9794011884109
 20
957.8341724064387
 30
0.0
 10
197.3035412484644
 20
958.1053213380387
 30
0.0
 10
197.7745890065363
 20
958.3613296356057
 30
0.0
 10
198.4206385898234
 20
958.5005079796131
 30
0.0
 10
199.0666881731105
 20
958.3906725369898
 30
0.0
 10
199.5377359311824
 20
958.1560587395822
 30
0.0
 10
199.8618759912359
 20
957.899631913008
 30
0.0
 10
200.123001664896
 20
957.580662594904
 30
0.0
 10
200.3752974817881
 20
957.1134483096606
 30
0.0
 10
200.4168731335569
 20
956.7214285958712
 30
0.0
 10
200.4438998371408
 20
956.4665919269831
 30
0.0
  0
LWPOLYLINE
  5
ABB8
330
18
100
AcDbEntity
  8
0
100
AcDbPolyline
 90
       18
 70
   128
 43
0.0
 10
198.4206385898234
 20
954.2219048762703
 10
198.142606140402
 20
954.1634236606366
 10
197.9021235139058
 20
954.0085061711792
 10
197.7316692216035
 20
953.7780748732766
 10
197.6542640601904
 20
953.5032507905743
 10
197.6803620256321
 20
953.2211504382946
 10
197.8064384430819
 20
952.9698730321847
 10
198.0154659937497
 20
952.7833549783156
 10
198.2792143486561
 20
952.6867865733946
 10
198.5620628309909
 20
952.6932099156109
 10
198.8258111858972
 20
952.8017574970039
 10
199.034838736565
 20
952.997769365225
 10
199.1609151540148
 20
953.2547730313307
 10
199.1870131194566
 20
953.5380587261078
 10
199.1096079580434
 20
953.8093671467359
 10
198.9391536657412
 20
954.0320565876371
 10
198.698671039245
 20
954.1760516058532
 10
198.4206385898234
 20
954.2219048762703
  0
LINE
  5
ABB9
330
18
100
AcDbEntity
  8
0
100
AcDbLine
 10
200.8529810004807
 20
956.4377668523537
 30
0.0
 11
200.7726157754628
 21
956.4503785453704
 31
0.0
  0
LINE
  5
ABBA
330
18
100
AcDbEntity
  8
0
100
AcDbLine
 10
196.1235947027594
 20
935.5459113305265
 30
0.0
 11
196.1235947027591
 21
956.344801689972
 31
0.0
  0
ARC
  5
ABBB
330
18
100
AcDbEntity
  8
0
100
AcDbCircle
 10
196.3847047370504
 20
955.2221679166194
 30
0.0
 40
1.152599253461251
100
AcDbArc
 50
89.3700313135003
 51
103.0934624166571
  0
LINE
  5
ABBC
330
18
100
AcDbEntity
  8
0
100
AcDbLine
 10
196.0767224389863
 20
956.3293004882654
 30
0.0
 11
196.1235947028768
 21
956.3448016899652
 31
0.0
  0
ARC
  5
ABBD
330
18
100
AcDbEntity
  8
0
100
AcDbCircle
 10
212.3787448558017
 20
983.517325475845
 30
0.0
 40
1.820231818280451
100
AcDbArc
 50
40.07160182868225
 51
77.13258784722821
  0
ARC
  5
ABBE
330
18
100
AcDbEntity
  8
0
100
AcDbCircle
 10
189.6177386817747
 20
983.5852003883216
 30
0.0
 40
1.772536818710376
100
AcDbArc
 50
97.87947143177774
 51
141.4810370137803
  0
ARC
  5
ABBF
330
18
100
AcDbEntity
  8
0
100
AcDbCircle
 10
198.5041025377806
 20
956.3414462277066
 30
0.0
 40
2.380510199877949
100
AcDbArc
 50
148.5603639056974
 51
179.9192383675533
  0
ARC
  5
ABC0
330
18
100
AcDbEntity
  8
0
100
AcDbCircle
 10
198.4734338111865
 20
956.454253363591
 30
0.0
 40
2.299185229299769
100
AcDbArc
 50
359.9034393430581
 51
32.00553114836055
  0
SPLINE
  5
ABC1
330
18
100
AcDbEntity
  8
0
100
AcDbSpline
210
0.0
220
0.0
230
1.0
 70
     8
 71
     3
 72
    34
 73
    30
 74
     0
 42
0.00000001
 43
0.0000000001
 40
0.0
 40
0.0
 40
0.0
 40
0.0
 40
0.0014515616559646
 40
0.0451272438986207
 40
0.0901594259983396
 40
0.136458071699264
 40
0.1726492846693084
 40
0.2088449757745003
 40
0.2458062714827074
 40
0.2827721406416808
 40
0.3197334364779439
 40
0.3566993057709238
 40
0.3928905190747973
 40
0.4290862105666644
 40
0.4753808889104555
 40
0.52041301897988
 40
0.564092719693366
 40
0.607768401912205
 40
0.652800584015485
 40
0.6990992297367044
 40
0.7352904426792106
 40
0.7714861338117725
 40
0.8084474295046677
 40
0.845413298679259
 40
0.8823745945170426
 40
0.9193404638083768
 40
0.9555316771371428
 40
0.9917273686044744
 40
0.9999999999999998
 40
0.9999999999999998
 40
0.9999999999999998
 40
0.9999999999999998
 10
213.4807682406897
 20
984.9848945393237
 30
0.0
 10
213.4790585186542
 20
984.9872393049803
 30
0.0
 10
213.4259053901063
 20
985.0601351487396
 30
0.0
 10
213.1459614346101
 20
985.2024576591515
 30
0.0
 10
212.6214979389697
 20
985.4093508354422
 30
0.0
 10
211.9282159881182
 20
985.5938491560277
 30
0.0
 10
211.1513125096185
 20
985.7542062030113
 30
0.0
 10
210.3293478836131
 20
985.8911304196061
 30
0.0
 10
209.4050150219707
 20
986.0167712408523
 30
0.0
 10
208.3840793491968
 20
986.1292598078012
 30
0.0
 10
207.2852047271703
 20
986.2267595932554
 30
0.0
 10
206.1270952696117
 20
986.3074164784272
 30
0.0
 10
204.9243246030262
 20
986.3710332870711
 30
0.0
 10
203.5750397980258
 20
986.42141846188
 30
0.0
 10
202.0880269278474
 20
986.4523471115447
 30
0.0
 10
200.4967813724836
 20
986.4571242420415
 30
0.0
 10
198.9444069149802
 20
986.4351550730299
 30
0.0
 10
197.4228534173021
 20
986.3873169363147
 30
0.0
 10
195.926514025287
 20
986.3124273677671
 30
0.0
 10
194.5896026974939
 20
986.217368612727
 30
0.0
 10
193.4282590033986
 20
986.1099668949936
 30
0.0
 10
192.4364665827149
 20
985.9965181079497
 30
0.0
 10
191.5265130366607
 20
985.8688905319237
 30
0.0
 10
190.7115319940574
 20
985.727944026774
 30
0.0
 10
190.0061606993537
 20
985.5762095272879
 30
0.0
 10
189.4189124333017
 20
985.4163876810536
 30
0.0
 10
188.9692783573208
 20
985.2500695503206
 30
0.0
 10
188.6904912510312
 20
985.1241784016664
 30
0.0
 10
188.6176987072667
 20
985.0526612989376
 30
0.0
 10
188.6041568004859
 20
985.0393566678819
 30
0.0
  0
LWPOLYLINE
  5
ABC2
330
18
100
AcDbEntity
  8
0
100
AcDbPolyline
 90
        3
 70
   128
 43
0.0
 10
189.6771349242847
 20
985.4831667919096
 10
189.7580305183522
 20
985.5102644286397
 10
189.8230409953279
 20
985.5311213884323
  0
ARC
  5
ABC3
330
18
100
AcDbEntity
  8
0
100
AcDbCircle
 10
206.7260441245262
 20
965.3765331379608
 30
0.0
 40
20.87983336510295
100
AcDbArc
 50
74.89129325103816
 51
84.68210495711259
  0
LINE
  5
ABC4
330
18
100
AcDbEntity
  8
0
100
AcDbLine
 10
190.2018561433534
 20
985.5352240844172
 30
0.0
 11
190.2673664308234
 21
985.5531424751962
 31
0.0
  0
SPLINE
  5
ABC5
330
18
100
AcDbEntity
  8
0
100
AcDbSpline
210
0.0
220
0.0
230
1.0
 70
     8
 71
     3
 72
    55
 73
    51
 74
     0
 42
0.00000001
 43
0.0000000001
 40
0.0
 40
0.0
 40
0.0
 40
0.0
 40
0.0083280941358515
 40
0.0319163315678003
 40
0.0541277429944841
 40
0.0788257807941863
 40
0.1019390883674294
 40
0.1312194305275999
 40
0.1508898329476175
 40
0.1639677901505813
 40
0.1755871219473553
 40
0.1933751484958129
 40
0.2071685319461888
 40
0.2310502872487438
 40
0.2664266200846061
 40
0.2944885133332262
 40
0.3382119506732557
 40
0.3557408806920728
 40
0.3725502009872629
 40
0.3902450404894672
 40
0.407932904267156
 40
0.4210332093377886
 40
0.4406940662673104
 40
0.4591758101308291
 40
0.4749752160356754
 40
0.5109311986019817
 40
0.5486059918642794
 40
0.5726625119386632
 40
0.6002713561566928
 40
0.6202134077810789
 40
0.640886018312533
 40
0.6684026615028719
 40
0.6923454905550867
 40
0.7191583591675875
 40
0.746362576392877
 40
0.7679421803918034
 40
0.7862667067525088
 40
0.8133203873586838
 40
0.834983075052545
 40
0.8590792721055255
 40
0.8837865518539873
 40
0.9032728339370816
 40
0.9328590781101295
 40
0.9548462429426299
 40
0.9614047697563343
 40
0.9667895850806738
 40
0.9710006623067098
 40
0.9740379841055506
 40
0.9883981427210136
 40
0.9999999999999998
 40
0.9999999999999998
 40
0.9999999999999998
 40
0.9999999999999998
 10
212.9331651015913
 20
988.1450371568476
 30
0.0
 10
212.9252387013929
 20
988.1585532799665
 30
0.0
 10
212.8948618093037
 20
988.2103520540828
 30
0.0
 10
212.7829705725946
 20
988.297273627853
 30
0.0
 10
212.5974726431561
 20
988.4091607699799
 30
0.0
 10
212.3539273785367
 20
988.5182095625497
 30
0.0
 10
212.0269172961429
 20
988.6353871103272
 30
0.0
 10
211.6606966349461
 20
988.7414292486422
 30
0.0
 10
211.2988829870669
 20
988.8292449940406
 30
0.0
 10
211.0184745509724
 20
988.8902408023026
 30
0.0
 10
210.7345178441764
 20
988.9472295423914
 30
0.0
 10
210.4277993736415
 20
989.0034195354147
 30
0.0
 10
210.0102296896296
 20
989.0729298396092
 30
0.0
 10
209.4240728929642
 20
989.1601889081636
 30
0.0
 10
208.659682322644
 20
989.2558476132959
 30
0.0
 10
207.6473817615628
 20
989.3605137520303
 30
0.0
 10
206.7388065979792
 20
989.4349703459143
 30
0.0
 10
205.9082083647314
 20
989.4898015655497
 30
0.0
 10
205.3418724625619
 20
989.5224733056792
 30
0.0
 10
204.762502295058
 20
989.5512242105002
 30
0.0
 10
204.2149860121767
 20
989.5740525397464
 30
0.0
 10
203.6381271121214
 20
989.594163395494
 30
0.0
 10
203.045443884798
 20
989.6106250399231
 30
0.0
 10
202.4155205010143
 20
989.6230691537365
 30
0.0
 10
201.5906397854184
 20
989.6335721640692
 30
0.0
 10
200.5342277540158
 20
989.6359029348406
 30
0.0
 10
199.3848076914422
 20
989.6212364320577
 30
0.0
 10
198.3484181995672
 20
989.5946133913502
 30
0.0
 10
197.5315914840632
 20
989.5645580481698
 30
0.0
 10
196.7702515491854
 20
989.5285223033894
 30
0.0
 10
196.026691157488
 20
989.4863769439783
 30
0.0
 10
195.2638422428305
 20
989.4341543290392
 30
0.0
 10
194.4699857456844
 20
989.3689754332704
 30
0.0
 10
193.716820449882
 20
989.2959812512096
 30
0.0
 10
193.0294221184718
 20
989.2174261897801
 30
0.0
 10
192.457269442073
 20
989.1418580688959
 30
0.0
 10
191.9193354506803
 20
989.0620180177386
 30
0.0
 10
191.4202588021995
 20
988.9772235995716
 30
0.0
 10
190.9279757797341
 20
988.8800239084384
 30
0.0
 10
190.4988638972582
 20
988.7816774247623
 30
0.0
 10
190.133494509455
 20
988.6824958447501
 30
0.0
 10
189.789978528899
 20
988.5720924353979
 30
0.0
 10
189.5151767828101
 20
988.4626475726557
 30
0.0
 10
189.3405168271895
 20
988.3710709122722
 30
0.0
 10
189.2550199622744
 20
988.3171100645403
 30
0.0
 10
189.2176177792766
 20
988.291323520951
 30
0.0
 10
189.1904313252987
 20
988.2711027870126
 30
0.0
 10
189.1467729203369
 20
988.2364467844412
 30
0.0
 10
189.0955451503355
 20
988.1897442929847
 30
0.0
 10
189.0655093715684
 20
988.14767960402
 30
0.0
 10
189.0520870387289
 20
988.1288818142094
 30
0.0
  0
LWPOLYLINE
  5
ABC6
330
18
100
AcDbEntity
  8
0
100
AcDbPolyline
 90
      102
 70
   128
 43
0.0
 10
274.2727825934529
 20
1008.150031400966
 10
275.0288121474358
 20
1008.522076738153
 10
275.695616882481
 20
1008.90381663514
 10
276.2591873284995
 20
1009.288714664183
 10
276.718744580455
 20
1009.676238861593
 10
277.0736534888989
 20
1010.065853634081
 10
277.3234235378039
 20
1010.457020498994
 10
277.4677095225014
 20
1010.849198828548
 10
277.5063120267855
 20
1011.241846597025
 10
277.4391776985238
 20
1011.6344211299
 10
277.2663993233952
 20
1012.026379853865
 10
276.9882156966511
 20
1012.417181046715
 10
276.6050112930803
 20
1012.80628458606
 10
276.1173157356288
 20
1013.193152695816
 10
275.5258030634137
 20
1013.577250689466
 10
274.8312908001407
 20
1013.958047709043
 10
274.034738824213
 20
1014.335017458821
 10
273.1372480420926
 20
1014.707638932707
 10
272.1400588667488
 20
1015.075397134315
 10
271.0445495032956
 20
1015.437783788739
 10
269.8522340441891
 20
1015.794298045035
 10
268.5647603766148
 20
1016.14444716844
 10
267.1839079049595
 20
1016.487747221378
 10
265.7115850915144
 20
1016.823723732304
 10
264.1498268188089
 20
1017.151912351467
 10
262.5007915772198
 20
1017.471859492681
 10
260.7667584817431
 20
1017.783122960226
 10
258.9501241220525
 20
1018.08527256
 10
257.0533992501974
 20
1018.377890694083
 10
255.0792053105165
 20
1018.660572937901
 10
253.0302708165675
 20
1018.932928599171
 10
250.9094275800748
 20
1019.194581257877
 10
248.7196067971118
 20
1019.445169286517
 10
246.4638349969237
 20
1019.684346349899
 10
244.1452298589925
 20
1019.911781883814
 10
241.7669959041235
 20
1020.127161551902
 10
239.332420065509
 20
1020.330187680092
 10
236.8448671458914
 20
1020.520579668018
 10
234.3077751671028
 20
1020.698074376831
 10
231.7246506184105
 20
1020.862426492882
 10
229.0990636102324
 20
1021.013408866768
 10
226.4346429399243
 20
1021.15081282727
 10
223.7350710764552
 20
1021.274448469759
 10
221.0040790709039
 20
1021.384144918658
 10
218.2454413998111
 20
1021.47975056361
 10
215.4629707485135
 20
1021.561133269017
 10
212.6605127416698
 20
1021.628180556661
 10
209.8419406282609
 20
1021.680799761161
 10
207.0111499284126
 20
1021.718918158045
 10
204.1720530494359
 20
1021.742483064261
 10
201.328573878528
 20
1021.751461910989
 10
198.4846423596077
 20
1021.745842288655
 10
195.6441890617797
 20
1021.725631964083
 10
192.8111397469341
 20
1021.690858869759
 10
189.9894099439908
 20
1021.641571065226
 10
187.1828995372863
 20
1021.577836670662
 10
184.3954873765831
 20
1021.499743772733
 10
181.6310259161497
 20
1021.407400302845
 10
178.8933358903236
 20
1021.300933887978
 10
176.1862010329118
 20
1021.180491674292
 10
173.513362847731
 20
1021.046240123756
 10
170.8785154375126
 20
1020.898364784088
 10
168.2853003983207
 20
1020.737070032303
 10
165.7373017865387
 20
1020.562578792254
 10
163.2380411653812
 20
1020.375132226527
 10
160.7909727377768
 20
1020.17498940313
 10
158.3994785723494
 20
1019.962426937444
 10
156.0668639290948
 20
1019.737738609912
 10
153.7963526912141
 20
1019.501234960008
 10
151.591082909418
 20
1019.253242857044
 10
149.4541024648572
 20
1018.994105048408
 10
147.3883648566778
 20
1018.724179685854
 10
145.3967251200194
 20
1018.443839830507
 10
143.4819358800995
 20
1018.153472937257
 10
141.6466435478385
 20
1017.853480319263
 10
139.8933846622812
 20
1017.544276593299
 10
138.2245823848724
 20
1017.226289106722
 10
136.6425431504292
 20
1016.899957346832
 10
135.1494534794414
 20
1016.565732333468
 10
133.7473769561026
 20
1016.224075995653
 10
132.4382513762524
 20
1015.875460533172
 10
131.2238860691673
 20
1015.520367763943
 10
130.1059593969058
 20
1015.159288458105
 10
129.0860164346604
 20
1014.79272165973
 10
128.1654668353248
 20
1014.421173997097
 10
127.3455828812275
 20
1014.045158982488
 10
126.6274977257223
 20
1013.665196302467
 10
126.0122038270695
 20
1013.281811099626
 10
125.500551576768
 20
1012.895533246793
 10
125.0932481242391
 20
1012.506896614697
 10
124.7908563994816
 20
1012.116438334112
 10
124.5937943350523
 20
1011.724698053494
 10
124.5023342884453
 20
1011.33221719314
 10
124.5166026656696
 20
1010.939538196892
 10
124.636579746545
 20
1010.547203782436
 10
124.8620997119565
 20
1010.155756191214
 10
125.1928508730316
 20
1009.765736438999
 10
125.6283761019222
 20
1009.377683568161
 10
126.168073463597
 20
1008.992133902665
 10
126.8111970477686
 20
1008.609620306818
 10
127.5568579998098
 20
1008.23067144881
 10
128.2509704117068
 20
1007.920042692965
  0
LWPOLYLINE
  5
ABC7
330
18
100
AcDbEntity
  8
0
100
AcDbPolyline
 90
       47
 70
   128
 43
0.0
 10
215.3601160555847
 20
988.5522886022114
 10
215.3868368401838
 20
988.5633662332493
 10
215.7335395996612
 20
988.7318589038484
 10
215.9769061510796
 20
988.9037660599376
 10
216.1152294529395
 20
989.0778818963319
 10
216.1475392666633
 20
989.2529851155414
 10
216.0736089621224
 20
989.4278474942947
 10
215.8939571072844
 20
989.6012424986436
 10
215.6098438308312
 20
989.7719538872163
 10
215.2232619832621
 20
989.9387842422779
 10
214.7369231584789
 20
990.1005633687558
 10
214.1542386739037
 20
990.2561565023152
 10
213.4792956425376
 20
990.4044722689176
 10
212.7168283047996
 20
990.5444703400252
 10
211.8721848212321
 20
990.6751687297584
 10
210.9512897589965
 20
990.795650682819
 10
209.9606025352924
 20
990.9050711048728
 10
208.9070721091863
 20
991.0026624902771
 10
207.7980882396567
 20
991.0877403055833
 10
206.6414296517447
 20
991.1597077910442
 10
205.4452094743862
 20
991.2180601464596
 10
204.2178183326425
 20
991.2623880719811
 10
202.9678654934937
 20
991.292380639061
 10
201.7041184780164
 20
991.3078274713912
 10
200.4354415635232
 20
991.3086202205407
 10
199.1707336070263
 20
991.2947533259448
 10
197.918865626149
 20
991.2663240539046
 10
196.6886185753112
 20
991.2235318153385
 10
195.4886217536435
 20
991.1666767670523
 10
194.3272922766531
 20
991.0961577063604
 10
193.212776036207
 20
991.0124692738056
 10
192.1528905629534
 20
990.9161984836121
 10
191.1550701919601
 20
990.8080206062022
 10
190.2263139161971
 20
990.6886944316608
 10
189.3731362936282
 20
990.5590569473663
 10
188.6015217522683
 20
990.4200174671272
 10
187.9168826137211
 20
990.2725512529967
 10
187.3240211296307
 20
990.1176926745133
 10
186.8270957973376
 20
989.9565279533392
 10
186.4295921910078
 20
989.7901875441963
 10
186.1342985128334
 20
989.6198382055397
 10
185.9432860357987
 20
989.4466748155846
 10
185.8578945751878
 20
989.2719119910927
 10
185.8787230907432
 20
989.0967755677124
 10
186.0056254853937
 20
988.9224940016172
 10
186.2377116300198
 20
988.7502897527726
 10
186.4464843840958
 20
988.638964681658
  0
LWPOLYLINE
  5
ABC8
330
18
100
AcDbEntity
  8
0
100
AcDbPolyline
 90
       87
 70
   128
 43
0.0
 10
278.1012740353379
 20
1012.022571040338
 10
278.0575926019424
 20
1012.385434827738
 10
277.9090726743991
 20
1012.778305306753
 10
277.6555059545389
 20
1013.170149780545
 10
277.2972387840005
 20
1013.560433036697
 10
276.8347605126443
 20
1013.948621995226
 10
276.2687028301592
 20
1014.334186436709
 10
275.5998389032508
 20
1014.716599726497
 10
274.8290823195883
 20
1015.095339534034
 10
273.9574858399537
 20
1015.469888546302
 10
272.9862399602972
 20
1015.839735174402
 10
271.916671285663
 20
1016.204374252327
 10
270.7502407182067
 20
1016.563307726959
 10
269.488541461778
 20
1016.916045338345
 10
268.1332968457964
 20
1017.262105289338
 10
266.6863579713901
 20
1017.601014903671
 10
265.1497011830154
 20
1017.932311271576
 10
263.5254253690065
 20
1018.255541882067
 10
261.8157490947477
 20
1018.570265241008
 10
260.0230075723795
 20
1018.876051474148
 10
258.1496494711798
 20
1019.172482914274
 10
256.1982335729757
 20
1019.459154671698
 10
254.1714252771563
 20
1019.735675187279
 10
252.0719929600567
 20
1020.001666767255
 10
249.9028041936898
 20
1020.256766099123
 10
247.6668218289873
 20
1020.50062474788
 10
245.3670999489019
 20
1020.732909631946
 10
243.0067796968975
 20
1020.953303478109
 10
240.5890849865243
 20
1021.161505254886
 10
238.1173180979422
 20
1021.357230583693
 10
235.5948551674018
 20
1021.540212127275
 10
233.025141575849
 20
1021.710199954852
 10
230.4116872429493
 20
1021.8669618835
 10
227.7580618329592
 20
1022.01028379528
 10
225.0678898789949
 20
1022.1399699297
 10
222.3448458323552
 20
1022.255843151101
 10
219.5926490436636
 20
1022.357745190599
 10
216.8150586826826
 20
1022.445536862266
 10
214.0158686037401
 20
1022.519098253239
 10
211.19890216378
 20
1022.578328887507
 10
208.3680070001181
 20
1022.623147863146
 10
205.5270497750303
 20
1022.653493962828
 10
202.6799108943588
 20
1022.669325737431
 10
199.8304792073435
 20
1022.670621562655
 10
196.982646694922
 20
1022.657379668559
 10
194.1403031537517
 20
1022.629618141976
 10
191.3073308832156
 20
1022.587374901814
 10
188.487599382668
 20
1022.530707647256
 10
185.6849600661648
 20
1022.459693778957
 10
182.9032410018936
 20
1022.374430293318
 10
180.1462416834942
 20
1022.275033650005
 10
177.4177278404071
 20
1022.161639612877
 10
174.7214262943396
 20
1022.034403064548
 10
172.0610198688765
 20
1021.893497794839
 10
169.440142359185
 20
1021.739116263399
 10
166.8623735686885
 20
1021.57146933683
 10
164.331234419485
 20
1021.390786000669
 10
161.8501821431918
 20
1021.197313046618
 10
159.422605558782
 20
1020.991314735462
 10
157.0518204438668
 20
1020.773072436115
 10
154.7410650057404
 20
1020.542884241304
 10
152.4934954583799
 20
1020.301064560417
 10
150.3121817114356
 20
1020.04794369005
 10
148.2001031771044
 20
1019.783867362865
 10
146.1601447006104
 20
1019.509196275361
 10
144.1950926198541
 20
1019.224305595203
 10
142.3076309596093
 20
1018.929584448792
 10
140.5003377654689
 20
1018.625435389764
 10
138.7756815825436
 20
1018.312273849149
 10
137.1360180837275
 20
1017.990527567941
 10
135.583586852131
 20
1017.660636012859
 10
134.120508322081
 20
1017.323049776087
 10
132.7487808828614
 20
1016.978229959816
 10
131.4702781491547
 20
1016.626647546439
 10
130.2867464019089
 20
1016.268782755243
 10
129.1998022031284
 20
1015.905124386484
 10
128.2109301878446
 20
1015.536169153753
 10
127.3214810362828
 20
1015.162421005517
 10
126.5326696289959
 20
1014.784390436791
 10
125.845573387483
 20
1014.402593791857
 10
125.2611308025621
 20
1014.01755255901
 10
124.7801401525038
 20
1013.629792658258
 10
124.4032584126797
 20
1013.239843722984
 10
124.1310003582127
 20
1012.848238376527
 10
123.9637378608564
 20
1012.455511504687
 10
123.9016993810628
 20
1012.062199525129
 10
123.9012819547259
 20
1012.028695199215
  0
LWPOLYLINE
  5
ABC9
330
18
100
AcDbEntity
  8
0
100
AcDbPolyline
 90
       21
 70
   128
 43
0.0
 10
213.1060527903309
 20
987.9797378971636
 10
213.5868063818508
 20
988.0793226336463
 10
214.2086831485631
 20
988.2305949085242
 10
214.735400281077
 20
988.3886035421808
 10
215.1631627703832
 20
988.5522100787893
 10
215.488888577944
 20
988.7202357295038
 10
215.710230841852
 20
988.8914698656618
 10
215.8255947860236
 20
989.0646787413876
 10
215.8341492105975
 20
989.2386143827627
 10
215.7358324807487
 20
989.4120235795057
 10
215.5313529707687
 20
989.5836569143801
 10
215.2221839602124
 20
989.7522777652744
 10
214.8105530188856
 20
989.9166712150954
 10
214.2994259571529
 20
990.0756528052694
 10
213.6924854572066
 20
990.2280770697956
 10
212.994104539257
 20
990.3728457883563
 10
212.2093150538211
 20
990.5089158990163
 10
211.3437714271249
 20
990.6353070135104
 10
210.4037099208326
 20
990.7511084809621
 10
209.3959036996384
 20
990.8554859491456
 10
208.697214392192
 20
990.9177427217047
  0
LWPOLYLINE
  5
ABCA
330
18
100
AcDbEntity
  8
0
100
AcDbPolyline
 90
       22
 70
   128
 43
0.0
 10
193.9392631155596
 20
990.967911178606
 10
193.8509124513443
 20
990.9612589710837
 10
192.7736524879444
 20
990.8710689506616
 10
191.7556727774388
 20
990.7685906130378
 10
190.8043078869683
 20
990.6545623169831
 10
189.9264124223691
 20
990.5298056389838
 10
189.1283116405809
 20
990.3952194537634
 10
188.4157558760247
 20
990.2517734578701
 10
187.7938791093124
 20
990.1005011829919
 10
187.2671619767984
 20
989.9424925493359
 10
186.8393994874922
 20
989.7788860127276
 10
186.5136736799314
 20
989.6108603620128
 10
186.2923314160235
 20
989.4396262258553
 10
186.176967471852
 20
989.2664173501287
 10
186.1684130472779
 20
989.092481708754
 10
186.2667297771268
 20
988.9190725120112
 10
186.4712092871068
 20
988.7474391771373
 10
186.7803782976631
 20
988.578818326242
 10
187.1920092389899
 20
988.4144248764211
 10
187.7031363007225
 20
988.2554432862475
 10
188.3100768006688
 20
988.1030190217206
 10
188.8965094675435
 20
987.9797378971639
  0
LWPOLYLINE
  5
ABCB
330
18
100
AcDbEntity
  8
0
100
AcDbPolyline
 90
       27
 70
   128
 43
0.0
 10
212.7841025995025
 20
985.2918476571389
 10
212.3305162073971
 20
985.424839923157
 10
211.7449545007228
 20
985.5636880786311
 10
211.0703673329102
 20
985.6946093518264
 10
210.3123445456844
 20
985.8165188878402
 10
209.4771673545895
 20
985.9284065058643
 10
208.5717563008594
 20
986.0293450698579
 10
207.6036139056324
 20
986.11849817109
 10
206.5807625016991
 20
986.1951270588866
 10
205.5116777579264
 20
986.2585967621503
 10
204.4052184471956
 20
986.3083813509307
 10
203.2705530398199
 20
986.3440682944462
 10
202.117083730713
 20
986.3653618794437
 10
200.9543685298405
 20
986.3720856605718
 10
199.7920420615385
 20
986.3641839224619
 10
198.639735728983
 20
986.3417221414056
 10
197.5069979053493
 20
986.3048864427943
 10
196.4032148129854
 20
986.2539820588272
 10
195.3375327462163
 20
986.1894307992619
 10
194.3187822822699
 20
986.1117675561652
 10
193.3554051083326
 20
986.0216358716275
 10
192.4553840710712
 20
985.9197826051737
 10
191.6261770282497
 20
985.8070517450457
 10
190.8746550505729
 20
985.6843774146547
 10
190.2070454858302
 20
985.5527761321363
 10
189.6288803571298
 20
985.4133383871639
 10
189.3747422359047
 20
985.3410020573546
  0
LWPOLYLINE
  5
ABCC
330
18
100
AcDbEntity
  8
0
100
AcDbPolyline
 90
       21
 70
   128
 43
0.0
 10
189.8230409953279
 20
985.5311213884323
 10
190.2521276435381
 20
985.6527417525837
 10
190.8406887160528
 20
985.7882050983336
 10
191.5185414400282
 20
985.915464009137
 10
192.2797288213529
 20
986.0334001291096
 10
193.1175615179506
 20
986.1409770313887
 10
194.0246766259583
 20
986.237249326289
 10
194.9931023851903
 20
986.3213709694216
 10
196.0143282352537
 20
986.3926026967613
 10
197.0793796066587
 20
986.4503185213271
 10
198.1788967896582
 20
986.4940112343781
 10
199.3032171877134
 20
986.5232968627807
 10
200.4424602327401
 20
986.5379180433793
 10
201.5866142158957
 20
986.5377462847133
 10
202.7256242708367
 20
986.5227830962041
 10
203.8494807362458
 20
986.4931599748896
 10
204.9483071210953
 20
986.449137249826
 10
206.0124468996059
 20
986.3911017943037
 10
207.0325483731414
 20
986.3195636259925
 10
207.999646853273
 20
986.2351514248876
 10
208.6612199678024
 20
986.1664955191214
  0
LWPOLYLINE
  5
ABCD
330
18
100
AcDbEntity
  8
0
100
AcDbPolyline
 90
       36
 70
   128
 43
0.0
 10
213.1538177189431
 20
987.8351518290719
 10
213.1508165660359
 20
987.8685781012585
 10
213.0719910129474
 20
988.0254884473735
 10
212.8870876273812
 20
988.1806902311483
 10
212.5977313469384
 20
988.3328195337256
 10
212.2064650450152
 20
988.4805394373243
 10
211.7167271839416
 20
988.6225517741207
 10
211.13282159765
 20
988.7576085345926
 10
210.4598796694276
 20
988.884522835073
 10
209.703815237136
 20
989.0021793481253
 10
208.8712726221915
 20
989.1095441040826
 10
207.9695682390293
 20
989.2056735776096
 10
207.0066262981904
 20
989.289722979436
 10
205.9909091680748
 20
989.3609536803966
 10
204.931343007343
 20
989.41873970253
 10
203.8372393215138
 20
989.4625732201962
 10
202.7182131331179
 20
989.4920690228657
 10
201.5840984845349
 20
989.5069679003642
 10
200.4448620160749
 20
989.5071389208206
 10
199.3105153787855
 20
989.4925805813006
 10
198.191027251702
 20
989.4634208210156
 10
197.0962357367375
 20
989.4199158969872
 10
196.0357619010905
 20
989.3624481320527
 10
195.0189252269591
 20
989.2915225549964
 10
194.0546617115969
 20
989.2077624623393
 10
193.1514453374484
 20
989.1119039407877
 10
192.3172136024857
 20
989.0047893984755
 10
191.5592977651918
 20
988.8873601618522
 10
190.8843584171961
 20
988.7606482032714
 10
190.2983269497574
 20
988.6257670719812
 10
189.806353428483
 20
988.4839021082132
 10
189.4127613343672
 20
988.3363000263699
 10
189.1210095688853
 20
988.1842579588541
 10
188.9336620570425
 20
988.0291120568214
 10
188.8523652155095
 20
987.8722257480378
 10
188.8487445389303
 20
987.8351518290719
  0
LINE
  5
ABCE
330
18
100
AcDbEntity
  8
0
100
AcDbLine
 10
216.5516136402165
 20
932.9937256838135
 30
0.0
 11
216.5516136402164
 21
946.8304583153287
 31
0.0
  0
LINE
  5
ABCF
330
18
100
AcDbEntity
  8
0
100
AcDbLine
 10
187.3418777697349
 20
932.5751057784415
 30
0.0
 11
187.3418777697349
 21
932.3303877440636
 31
0.0
  0
MTEXT
  5
ADA2
330
18
100
AcDbEntity
  8
7：文字
 62
     7
 48
2.0
100
AcDbMText
 10
307.156845296563
 20
974.6656460177883
 30
0.0
 40
15.0
 41
188.2662939976999
 46
0.0
 71
     1
 72
     5
  1
{\fMS PGothic|b0|i0|c128|p50;LP-2091C-38N\PLP-2091C-76N\PLP-2091C-101N}
 73
     1
 44
1.0
1001
ACAD
1000
ACAD_MTEXT_COLUMN_INFO_BEGIN
1070
    75
1070
     2
1070
    79
1070
     0
1070
    76
1070
     1
1070
    78
1070
     0
1070
    48
1040
188.2662939976999
1070
    49
1040
15.0
1070
    50
1070
     1
1040
0.0
1000
ACAD_MTEXT_COLUMN_INFO_END
  0
ENDSEC
  0
SECTION
  2
OBJECTS
  0
DICTIONARY
  5
C
330
0
100
AcDbDictionary
281
     1
  3
ACAD_CIP_PREVIOUS_PRODUCT_INFO
350
57FF
  3
ACAD_COLOR
350
57DF
  3
ACAD_DETAILVIEWSTYLE
350
57F8
  3
ACAD_GROUP
350
D
  3
ACAD_LAYOUT
350
75E
  3
ACAD_MATERIAL
350
57AD
  3
ACAD_MLEADERSTYLE
350
57F4
  3
ACAD_MLINESTYLE
350
1B
  3
ACAD_PLOTSETTINGS
350
75F
  3
ACAD_PLOTSTYLENAME
350
75C
  3
ACAD_SCALELIST
350
57E2
  3
ACAD_SECTIONVIEWSTYLE
350
57F6
  3
ACAD_TABLESTYLE
350
57E0
  3
ACAD_VISUALSTYLE
350
57C6
  3
AcadDim
350
2413
  3
ACDB_RECOMPOSE_DATA
350
ADA7
  3
ACDBVARIABLEDICTIONARY
350
33
  3
AEC_PROPERTY_SET_DEFS
350
9154
  3
CONTENTDICTIONARY
350
23
  0
DICTIONARY
  5
5826
330
8
100
AcDbDictionary
280
     1
281
     1
  0
DICTIONARY
  5
2886
330
2
100
AcDbDictionary
280
     1
281
     1
  3
ACAD_LAYERSTATES
360
46A0
  0
DICTIONARY
  5
5800
330
E
100
AcDbDictionary
280
     1
281
     1
  3
ADSK_XREC_LAYER_RECONCILED
360
5801
  0
DICTIONARY
  5
5802
330
32A
100
AcDbDictionary
280
     1
281
     1
  3
ADSK_XREC_LAYER_RECONCILED
360
5803
  0
DICTIONARY
  5
5804
330
32C
100
AcDbDictionary
280
     1
281
     1
  3
ADSK_XREC_LAYER_RECONCILED
360
5805
  0
DICTIONARY
  5
5806
330
32D
100
AcDbDictionary
280
     1
281
     1
  3
ADSK_XREC_LAYER_RECONCILED
360
5807
  0
DICTIONARY
  5
5808
330
32E
100
AcDbDictionary
280
     1
281
     1
  3
ADSK_XREC_LAYER_RECONCILED
360
5809
  0
DICTIONARY
  5
580A
330
32F
100
AcDbDictionary
280
     1
281
     1
  3
ADSK_XREC_LAYER_RECONCILED
360
580B
  0
DICTIONARY
  5
580C
330
330
100
AcDbDictionary
280
     1
281
     1
  3
ADSK_XREC_LAYER_RECONCILED
360
580D
  0
DICTIONARY
  5
580E
330
331
100
AcDbDictionary
280
     1
281
     1
  3
ADSK_XREC_LAYER_RECONCILED
360
580F
  0
DICTIONARY
  5
5810
330
11B8
100
AcDbDictionary
280
     1
281
     1
  3
ADSK_XREC_LAYER_RECONCILED
360
5811
  0
DICTIONARY
  5
5812
330
138B
100
AcDbDictionary
280
     1
281
     1
  3
ADSK_XREC_LAYER_RECONCILED
360
5813
  0
DICTIONARY
  5
4697
330
4696
100
AcDbDictionary
280
     1
281
     1
  3
ADSK_XREC_LAYER_RECONCILED
360
4699
  0
DICTIONARY
  5
5816
330
469A
100
AcDbDictionary
280
     1
281
     1
  3
ADSK_XREC_LAYER_RECONCILED
360
5817
  0
DICTIONARY
  5
59F0
330
59EF
100
AcDbDictionary
280
     1
281
     1
  0
DICTIONARY
  5
60EA
330
60E9
100
AcDbDictionary
280
     1
281
     1
  0
DICTIONARY
  5
796C
330
796B
100
AcDbDictionary
280
     1
281
     1
  0
DICTIONARY
  5
796E
330
796D
100
AcDbDictionary
280
     1
281
     1
  0
DICTIONARY
  5
936C
330
936B
100
AcDbDictionary
280
     1
281
     1
  0
DICTIONARY
  5
936E
330
936D
100
AcDbDictionary
280
     1
281
     1
  0
DICTIONARY
  5
9370
330
936F
100
AcDbDictionary
280
     1
281
     1
  0
DICTIONARY
  5
9372
330
9371
100
AcDbDictionary
280
     1
281
     1
  0
DICTIONARY
  5
9374
330
9373
100
AcDbDictionary
280
     1
281
     1
  0
DICTIONARY
  5
AD99
330
AD98
100
AcDbDictionary
280
     1
281
     1
  0
DICTIONARY
  5
5B07
330
18
100
AcDbDictionary
280
     1
281
     1
  3
ACAD_SORTENTS
360
5B08
  0
XRECORD
  5
57FF
102
{ACAD_REACTORS
330
C
102
}
330
C
100
AcDbXrecord
280
     1
300
ACDLT
300
2014
300
ACDLT_F_S
  0
DICTIONARY
  5
57DF
102
{ACAD_REACTORS
330
C
102
}
330
C
100
AcDbDictionary
281
     1
  0
DICTIONARY
  5
57F8
102
{ACAD_REACTORS
330
C
102
}
330
C
100
AcDbDictionary
281
     1
  3
Metric50
350
57F9
  0
DICTIONARY
  5
D
102
{ACAD_REACTORS
330
C
102
}
330
C
100
AcDbDictionary
281
     1
  0
DICTIONARY
  5
75E
102
{ACAD_REACTORS
330
C
102
}
330
C
100
AcDbDictionary
281
     1
  3
Model
350
760
  3
ﾚｲｱｳﾄ1
350
761
  0
DICTIONARY
  5
57AD
102
{ACAD_REACTORS
330
C
102
}
330
C
100
AcDbDictionary
281
     1
  3
ByBlock
350
57B6
  3
ByLayer
350
57AE
  3
Global
350
57BE
  0
DICTIONARY
  5
57F4
102
{ACAD_REACTORS
330
C
102
}
330
C
100
AcDbDictionary
281
     1
  3
Standard
350
57F5
  0
DICTIONARY
  5
1B
102
{ACAD_REACTORS
330
C
102
}
330
C
100
AcDbDictionary
281
     1
  3
STANDARD
350
1C
  0
DICTIONARY
  5
75F
102
{ACAD_REACTORS
330
C
102
}
330
C
100
AcDbDictionary
281
     1
  3
オブA3
350
5884
  3
オブA3PDF
350
5885
  3
オブA3PDFカラー
350
5889
  3
オブA4
350
5887
  3
オブA4PDF
350
5886
  3
オブA4裏
350
5888
  0
ACDBDICTIONARYWDFLT
  5
75C
102
{ACAD_REACTORS
330
C
102
}
330
C
100
AcDbDictionary
281
     1
  3
Normal
350
75D
100
AcDbDictionaryWithDefault
340
75D
  0
DICTIONARY
  5
57E2
102
{ACAD_REACTORS
330
C
102
}
330
C
100
AcDbDictionary
281
     1
  3
A0
350
57E3
  3
A1
350
57E4
  3
A2
350
57E5
  3
A3
350
57E6
  3
A4
350
57E7
  3
A5
350
57E8
  3
A6
350
57E9
  3
A7
350
57EA
  3
A8
350
57EB
  3
A9
350
57EC
  3
B0
350
57ED
  3
B1
350
57EE
  3
B2
350
57EF
  3
B3
350
57F0
  3
B4
350
57F1
  3
B5
350
57F2
  3
B6
350
57F3
  0
DICTIONARY
  5
57F6
102
{ACAD_REACTORS
330
C
102
}
330
C
100
AcDbDictionary
281
     1
  3
Metric50
350
57F7
  0
DICTIONARY
  5
57E0
102
{ACAD_REACTORS
330
C
102
}
330
C
100
AcDbDictionary
281
     1
  3
Standard
350
57E1
  0
DICTIONARY
  5
57C6
102
{ACAD_REACTORS
330
C
102
}
330
C
100
AcDbDictionary
281
     1
  3
2dWireframe
350
57CC
  3
3dWireframe
350
98F6
  3
Basic
350
57CB
  3
Brighten
350
57D2
  3
ColorChange
350
57D6
  3
Conceptual
350
57CF
  3
Dim
350
57D1
  3
EdgeColorOff
350
57DE
  3
Facepattern
350
57D5
  3
Flat
350
57C7
  3
FlatWithEdges
350
57C8
  3
Gouraud
350
57C9
  3
GouraudWithEdges
350
57CA
  3
Hidden
350
57CE
  3
JitterOff
350
57DC
  3
Linepattern
350
57D4
  3
OverhangOff
350
57DD
  3
Realistic
350
57D0
  3
Shaded
350
57DB
  3
Shaded with edges
350
57DA
  3
Shades of Gray
350
57D7
  3
Sketchy
350
57D8
  3
Thicken
350
57D3
  3
Wireframe
350
57CD
  3
X-Ray
350
57D9
  0
XRECORD
  5
2413
102
{ACAD_REACTORS
330
C
102
}
330
C
100
AcDbXrecord
280
     1
 90
   990106
  3
OPEN
 60
     0
 61
     0
 62
     1
 63
     3
 64
     1
 65
     0
 66
     0
 67
     3
 68
     1
 69
     0
 70
     0
 71
     0
 72
     0
 40
0.0
170
     2
  0
XRECORD
  5
ADA7
102
{ACAD_REACTORS
330
C
102
}
330
C
100
AcDbXrecord
280
     1
 90
        1
330
57E1
330
57F7
330
57F9
330
ADA2
  0
DICTIONARY
  5
33
102
{ACAD_REACTORS
330
C
102
}
330
C
100
AcDbDictionary
281
     1
  3
CANNOSCALE
350
587B
  3
CMLEADERSTYLE
350
5878
  3
CTABLESTYLE
350
5877
  3
CVIEWDETAILSTYLE
350
5879
  3
CVIEWSECTIONSTYLE
350
587A
  3
DIMADEC
350
34
  3
DIMASSOC
350
23F7
  3
INDEXCTL
350
587C
  3
LAYEREVAL
350
A8BB
  3
LAYERNOTIFY
350
A8BC
  3
LIGHTINGUNITS
350
A8BA
  3
MSLTSCALE
350
A8B9
  3
SORTENTS
350
1383
  0
DICTIONARY
  5
9154
102
{ACAD_REACTORS
330
C
102
}
330
C
100
AcDbDictionary
281
     1
  0
DICTIONARY
  5
23
102
{ACAD_REACTORS
330
C
102
}
330
C
100
AcDbDictionary
281
     1
  0
DICTIONARY
  5
46A0
102
{ACAD_REACTORS
330
2886
102
}
330
2886
100
AcDbDictionary
281
     1
  0
XRECORD
  5
5801
102
{ACAD_REACTORS
330
5800
102
}
330
5800
100
AcDbXrecord
280
     1
290
     1
  0
XRECORD
  5
5803
102
{ACAD_REACTORS
330
5802
102
}
330
5802
100
AcDbXrecord
280
     1
290
     1
  0
XRECORD
  5
5805
102
{ACAD_REACTORS
330
5804
102
}
330
5804
100
AcDbXrecord
280
     1
290
     1
  0
XRECORD
  5
5807
102
{ACAD_REACTORS
330
5806
102
}
330
5806
100
AcDbXrecord
280
     1
290
     1
  0
XRECORD
  5
5809
102
{ACAD_REACTORS
330
5808
102
}
330
5808
100
AcDbXrecord
280
     1
290
     1
  0
XRECORD
  5
580B
102
{ACAD_REACTORS
330
580A
102
}
330
580A
100
AcDbXrecord
280
     1
290
     1
  0
XRECORD
  5
580D
102
{ACAD_REACTORS
330
580C
102
}
330
580C
100
AcDbXrecord
280
     1
290
     1
  0
XRECORD
  5
580F
102
{ACAD_REACTORS
330
580E
102
}
330
580E
100
AcDbXrecord
280
     1
290
     1
  0
XRECORD
  5
5811
102
{ACAD_REACTORS
330
5810
102
}
330
5810
100
AcDbXrecord
280
     1
290
     1
  0
XRECORD
  5
5813
102
{ACAD_REACTORS
330
5812
102
}
330
5812
100
AcDbXrecord
280
     1
290
     1
  0
XRECORD
  5
4699
102
{ACAD_REACTORS
330
4697
102
}
330
4697
100
AcDbXrecord
280
     1
290
     1
  0
XRECORD
  5
5817
102
{ACAD_REACTORS
330
5816
102
}
330
5816
100
AcDbXrecord
280
     1
290
     1
  0
SORTENTSTABLE
  5
5B08
102
{ACAD_REACTORS
330
5B07
102
}
330
5B07
100
AcDbSortentsTable
330
18
331
7A27
  5
7A27
  0
ACDBDETAILVIEWSTYLE
  5
57F9
102
{ACAD_XDICTIONARY
360
AD8F
102
}
102
{ACAD_REACTORS
330
57F8
102
}
330
57F8
100
AcDbModelDocViewStyle
 70
     0
  3
Metric50
290
     0
100
AcDbDetailViewStyle
 70
     0
 71
     0
 90
        3
 71
     1
340
F
 62
   256
 40
5.0
340
0
 62
   256
 40
5.0
300

 40
0.0
280
     1
 71
     2
340
14
 90
       25
 62
   256
 71
     3
340
F
 62
   256
 40
5.0
 90
        0
 40
15.0
 90
        1
300
%<\AcVar ViewDetailId>% (%<\AcVar ViewScale \f "%sn">%)
 71
     4
340
14
 90
       25
 62
   256
340
14
 90
       25
 62
   256
280
     0
  0
LAYOUT
  5
760
102
{ACAD_REACTORS
330
75E
102
}
330
75E
100
AcDbPlotSettings
  1

  2
KONICA MINOLTA C364SeriesPCL
  4
A3
  6

 40
5.027082920074462
 41
5.027069091796875
 42
5.027099609375
 43
5.027069091796875
 44
296.9259948730469
 45
419.9466552734373
 46
0.8072013378042013
 47
0.8407706910742263
 48
0.6602245427074767
 49
2.274885139995582
140
11080.66022454271
141
15602.27488513999
142
1.0
143
4.0
 70
  3748
 72
     1
 73
     1
 74
     1
  7
TAGAI1.CTB
 75
     0
147
0.2027157928435555
 76
     0
 77
     2
 78
   300
148
0.0654003336358073
149
0.0348166794738063
100
AcDbLayout
  1
Model
 70
     1
 71
     0
 10
0.0
 20
0.0
 11
12.0
 21
9.0
 12
0.0
 22
0.0
 32
0.0
 14
0.0
 24
0.0
 34
0.0
 15
0.0
 25
0.0
 35
0.0
146
0.0
 13
0.0
 23
0.0
 33
0.0
 16
1.0
 26
0.0
 36
0.0
 17
0.0
 27
1.0
 37
0.0
 76
     0
330
18
331
57AB
1001
ACAD_PSEXT
1000
KONICA MINOLTA C364SeriesPCL
1000
KONICA MINOLTA C364SeriesPCL
1000
IP_192.168.21.25
1000

1070
     0
  0
LAYOUT
  5
761
102
{ACAD_REACTORS
330
75E
102
}
330
75E
100
AcDbPlotSettings
  1

  2
Canon LASER SHOT LBP-850
  4

  6

 40
0.0
 41
0.0
 42
0.0
 43
0.0
 44
0.0
 45
0.0
 46
0.0
 47
0.0
 48
0.0
 49
0.0
140
0.0
141
0.0
142
1.0
143
1.0
 70
   688
 72
     0
 73
     0
 74
     5
  7
tagai1.ctb
 75
    16
147
1.0
 76
     0
 77
     2
 78
   300
148
0.0
149
0.0
100
AcDbLayout
  1
ﾚｲｱｳﾄ1
 70
     1
 71
     1
 10
0.0
 20
0.0
 11
420.0
 21
297.0
 12
0.0
 22
0.0
 32
0.0
 14
1.000000000000000E+20
 24
1.000000000000000E+20
 34
1.000000000000000E+20
 15
-1.000000000000000E+20
 25
-1.000000000000000E+20
 35
-1.000000000000000E+20
146
0.0
 13
0.0
 23
0.0
 33
0.0
 16
1.0
 26
0.0
 36
0.0
 17
0.0
 27
1.0
 37
0.0
 76
     0
330
15
  0
MATERIAL
  5
57B6
102
{ACAD_XDICTIONARY
360
57B7
102
}
102
{ACAD_REACTORS
330
57AD
102
}
330
57AD
100
AcDbMaterial
  1
ByBlock
 72
     0
 43
0.0208333333333333
 43
0.0
 43
0.0
 43
0.0
 43
0.0
 43
0.0208333333333333
 43
0.0
 43
0.0
 43
0.0
 43
0.0
 43
1.0
 43
0.0
 43
0.0
 43
0.0
 43
0.0
 43
1.0
 77
     0
 47
0.0208333333333333
 47
0.0
 47
0.0
 47
0.0
 47
0.0
 47
0.0208333333333333
 47
0.0
 47
0.0
 47
0.0
 47
0.0
 47
1.0
 47
0.0
 47
0.0
 47
0.0
 47
0.0
 47
1.0
171
     0
 49
0.0208333333333333
 49
0.0
 49
0.0
 49
0.0
 49
0.0
 49
0.0208333333333333
 49
0.0
 49
0.0
 49
0.0
 49
0.0
 49
1.0
 49
0.0
 49
0.0
 49
0.0
 49
0.0
 49
1.0
175
     0
142
0.0208333333333333
142
0.0
142
0.0
142
0.0
142
0.0
142
0.0208333333333333
142
0.0
142
0.0
142
0.0
142
0.0
142
1.0
142
0.0
142
0.0
142
0.0
142
0.0
142
1.0
179
     0
144
0.0208333333333333
144
0.0
144
0.0
144
0.0
144
0.0
144
0.0208333333333333
144
0.0
144
0.0
144
0.0
144
0.0
144
1.0
144
0.0
144
0.0
144
0.0
144
0.0
144
1.0
147
0.0208333333333333
147
0.0
147
0.0
147
0.0
147
0.0
147
0.0208333333333333
147
0.0
147
0.0
147
0.0
147
0.0
147
1.0
147
0.0
147
0.0
147
0.0
147
0.0
147
1.0
  0
MATERIAL
  5
57AE
102
{ACAD_XDICTIONARY
360
57AF
102
}
102
{ACAD_REACTORS
330
57AD
102
}
330
57AD
100
AcDbMaterial
  1
ByLayer
 72
     0
 43
0.0208333333333333
 43
0.0
 43
0.0
 43
0.0
 43
0.0
 43
0.0208333333333333
 43
0.0
 43
0.0
 43
0.0
 43
0.0
 43
1.0
 43
0.0
 43
0.0
 43
0.0
 43
0.0
 43
1.0
 77
     0
 47
0.0208333333333333
 47
0.0
 47
0.0
 47
0.0
 47
0.0
 47
0.0208333333333333
 47
0.0
 47
0.0
 47
0.0
 47
0.0
 47
1.0
 47
0.0
 47
0.0
 47
0.0
 47
0.0
 47
1.0
171
     0
 49
0.0208333333333333
 49
0.0
 49
0.0
 49
0.0
 49
0.0
 49
0.0208333333333333
 49
0.0
 49
0.0
 49
0.0
 49
0.0
 49
1.0
 49
0.0
 49
0.0
 49
0.0
 49
0.0
 49
1.0
175
     0
142
0.0208333333333333
142
0.0
142
0.0
142
0.0
142
0.0
142
0.0208333333333333
142
0.0
142
0.0
142
0.0
142
0.0
142
1.0
142
0.0
142
0.0
142
0.0
142
0.0
142
1.0
179
     0
144
0.0208333333333333
144
0.0
144
0.0
144
0.0
144
0.0
144
0.0208333333333333
144
0.0
144
0.0
144
0.0
144
0.0
144
1.0
144
0.0
144
0.0
144
0.0
144
0.0
144
1.0
147
0.0208333333333333
147
0.0
147
0.0
147
0.0
147
0.0
147
0.0208333333333333
147
0.0
147
0.0
147
0.0
147
0.0
147
1.0
147
0.0
147
0.0
147
0.0
147
0.0
147
1.0
  0
MATERIAL
  5
57BE
102
{ACAD_XDICTIONARY
360
57BF
102
}
102
{ACAD_REACTORS
330
57AD
102
}
330
57AD
100
AcDbMaterial
  1
Global
 72
     0
 43
0.0208333333333333
 43
0.0
 43
0.0
 43
0.0
 43
0.0
 43
0.0208333333333333
 43
0.0
 43
0.0
 43
0.0
 43
0.0
 43
1.0
 43
0.0
 43
0.0
 43
0.0
 43
0.0
 43
1.0
 77
     0
 47
0.0208333333333333
 47
0.0
 47
0.0
 47
0.0
 47
0.0
 47
0.0208333333333333
 47
0.0
 47
0.0
 47
0.0
 47
0.0
 47
1.0
 47
0.0
 47
0.0
 47
0.0
 47
0.0
 47
1.0
171
     0
 49
0.0208333333333333
 49
0.0
 49
0.0
 49
0.0
 49
0.0
 49
0.0208333333333333
 49
0.0
 49
0.0
 49
0.0
 49
0.0
 49
1.0
 49
0.0
 49
0.0
 49
0.0
 49
0.0
 49
1.0
175
     0
142
0.0208333333333333
142
0.0
142
0.0
142
0.0
142
0.0
142
0.0208333333333333
142
0.0
142
0.0
142
0.0
142
0.0
142
1.0
142
0.0
142
0.0
142
0.0
142
0.0
142
1.0
179
     0
144
0.0208333333333333
144
0.0
144
0.0
144
0.0
144
0.0
144
0.0208333333333333
144
0.0
144
0.0
144
0.0
144
0.0
144
1.0
144
0.0
144
0.0
144
0.0
144
0.0
144
1.0
147
0.0208333333333333
147
0.0
147
0.0
147
0.0
147
0.0
147
0.0208333333333333
147
0.0
147
0.0
147
0.0
147
0.0
147
1.0
147
0.0
147
0.0
147
0.0
147
0.0
147
1.0
  0
MLEADERSTYLE
  5
57F5
102
{ACAD_REACTORS
330
57F4
102
}
330
57F4
100
AcDbMLeaderStyle
179
     2
170
     2
171
     1
172
     0
 90
        2
 40
0.0
 41
0.0
173
     1
 91
-1056964608
340
12
 92
       -2
290
     1
 42
2.0
291
     1
 43
0.36
  3
Standard
 44
4.0
300

342
F
174
     1
178
     6
175
     1
176
     0
 93
-1056964608
 45
4.0
292
     0
297
     0
 46
4.0
 94
-1056964608
 47
1.0
 49
1.0
140
1.0
293
     1
141
0.0
294
     1
177
     0
142
1.0
295
     0
296
     0
143
0.125
271
     0
272
     9
273
     9
298
     1
  0
MLINESTYLE
  5
1C
102
{ACAD_REACTORS
330
1B
102
}
330
1B
100
AcDbMlineStyle
  2
STANDARD
 70
     0
  3

 62
   256
 51
90.0
 52
90.0
 71
     2
 49
0.5
 62
   256
  6
BYLAYER
 49
-0.5
 62
   256
  6
BYLAYER
  0
PLOTSETTINGS
  5
5884
102
{ACAD_REACTORS
330
75F
102
}
330
75F
100
AcDbPlotSettings
  1
オブA3
  2
EPSON LP-S3000
  4
A3
  6

 40
5.873749732971191
 41
5.873747825622557
 42
5.873748779296875
 43
5.873748779296875
 44
297.0106506347656
 45
419.9466552734373
 46
0.0
 47
0.0
 48
0.6602245427074767
 49
2.274885139995582
140
11080.66022454271
141
15602.27488513999
142
1.0
143
1.000009796045915
 70
  1716
 72
     1
 73
     1
 74
     1
  7
TAGAI1.CTB
 75
     0
147
0.9999902040500462
 76
     0
 77
     2
 78
   300
148
0.0062252642686644
149
0.0087050081928055
  0
PLOTSETTINGS
  5
5885
102
{ACAD_REACTORS
330
75F
102
}
330
75F
100
AcDbPlotSettings
  1
オブA3PDF
  2
Adobe PDF
  4
A3
  6

 40
3.174999952316283
 41
3.174999952316283
 42
3.17498779296875
 43
3.17498779296875
 44
297.0318298339844
 45
420.1583251953125
 46
0.7618695942057912
 47
0.0
 48
0.6602245427074767
 49
2.274885139995582
140
11080.66022454271
141
15602.27488513999
142
1.0
143
0.9864847522617806
 70
  3764
 72
     1
 73
     1
 74
     1
  7
TAGAI1.CTB
 75
     0
147
1.013700412203262
 76
     0
 77
     2
 78
   300
148
0.0186822558410995
149
-0.0043545630755943
1001
ACAD_PSEXT
1000
Adobe PDF
1000
Adobe PDF Converter
1000
My Documents
1000

1070
     0
  0
PLOTSETTINGS
  5
5889
102
{ACAD_REACTORS
330
75F
102
}
330
75F
100
AcDbPlotSettings
  1
オブA3PDFカラー
  2
Adobe PDF
  4
A3
  6

 40
3.174999952316283
 41
3.174999952316283
 42
3.17498779296875
 43
3.17498779296875
 44
297.0318298339844
 45
420.1583251953125
 46
0.7618695942057912
 47
0.0
 48
0.6602245427074767
 49
2.274885139995582
140
11080.66022454271
141
15602.27488513999
142
1.0
143
0.9864847522617806
 70
  3732
 72
     1
 73
     1
 74
     1
  7
TAGAI1.CTB
 75
     0
147
1.013700412203262
 76
     0
 77
     2
 78
   300
148
0.0186822558410995
149
-0.0043545630755943
1001
ACAD_PSEXT
1000
Adobe PDF
1000
Adobe PDF Converter
1000
My Documents
1000

1070
     0
  0
PLOTSETTINGS
  5
5887
102
{ACAD_REACTORS
330
75F
102
}
330
75F
100
AcDbPlotSettings
  1
オブA4
  2
EPSON LP-S3000
  4
A4
  6

 40
5.873749732971191
 41
5.873747825622557
 42
5.873748779296875
 43
5.873748779296875
 44
209.9733276367186
 45
297.0106506347656
 46
0.0
 47
0.8
 48
0.6602245427074767
 49
2.274885139995582
140
11080.66022454271
141
15602.27488513999
142
1.0
143
1.439081479612396
 70
  1716
 72
     1
 73
     1
 74
     1
  7
TAGAI1.CTB
 75
     0
147
0.6948876864632718
 76
     0
 77
     2
 78
   300
148
0.0062252642686644
149
0.0087050081928055
  0
PLOTSETTINGS
  5
5886
102
{ACAD_REACTORS
330
75F
102
}
330
75F
100
AcDbPlotSettings
  1
オブA4PDF
  2
Adobe PDF
  4
A4
  6

 40
3.174999952316283
 41
3.174999952316283
 42
3.175003051757812
 43
3.17498779296875
 44
209.9733276367186
 45
297.0318298339844
 46
0.2513475533557994
 47
0.0
 48
0.6602245427074767
 49
2.274885139995582
140
11080.66022454271
141
15602.27488513999
142
1.0
143
1.404338201244389
 70
  3764
 72
     1
 73
     1
 74
     1
  7
TAGAI1.CTB
 75
     0
147
0.7120791837136498
 76
     0
 77
     2
 78
   300
148
0.0186822558410995
149
-0.0043545630755943
1001
ACAD_PSEXT
1000
Adobe PDF
1000
Adobe PDF Converter
1000
My Documents
1000

1070
     0
  0
PLOTSETTINGS
  5
5888
102
{ACAD_REACTORS
330
75F
102
}
330
75F
100
AcDbPlotSettings
  1
オブA4裏
  2
EPSON LP-S3000.pc3
  4
A4
  6

 40
5.873749732971191
 41
5.873747825622557
 42
5.873748779296875
 43
5.873748779296875
 44
209.9733276367186
 45
297.0106506347656
 46
0.0
 47
0.8
 48
0.6602245427074767
 49
2.274885139995582
140
11080.66022454271
141
15602.27488513999
142
1.0
143
1.439081479612396
 70
  1716
 72
     1
 73
     1
 74
     1
  7
TAGAI1.CTB
 75
     0
147
0.6948876864632718
 76
     0
 77
     2
 78
   300
148
0.0062252642686644
149
0.0087050081928055
  0
ACDBPLACEHOLDER
  5
75D
102
{ACAD_REACTORS
330
75C
102
}
330
75C
  0
SCALE
  5
57E3
102
{ACAD_REACTORS
330
57E2
102
}
330
57E2
100
AcDbScale
 70
     0
300
1:1
140
1.0
141
1.0
290
     1
  0
SCALE
  5
57E4
102
{ACAD_REACTORS
330
57E2
102
}
330
57E2
100
AcDbScale
 70
     0
300
1:2
140
1.0
141
2.0
290
     0
  0
SCALE
  5
57E5
102
{ACAD_REACTORS
330
57E2
102
}
330
57E2
100
AcDbScale
 70
     0
300
1:4
140
1.0
141
4.0
290
     0
  0
SCALE
  5
57E6
102
{ACAD_REACTORS
330
57E2
102
}
330
57E2
100
AcDbScale
 70
     0
300
1:5
140
1.0
141
5.0
290
     0
  0
SCALE
  5
57E7
102
{ACAD_REACTORS
330
57E2
102
}
330
57E2
100
AcDbScale
 70
     0
300
1:8
140
1.0
141
8.0
290
     0
  0
SCALE
  5
57E8
102
{ACAD_REACTORS
330
57E2
102
}
330
57E2
100
AcDbScale
 70
     0
300
1:10
140
1.0
141
10.0
290
     0
  0
SCALE
  5
57E9
102
{ACAD_REACTORS
330
57E2
102
}
330
57E2
100
AcDbScale
 70
     0
300
1:16
140
1.0
141
16.0
290
     0
  0
SCALE
  5
57EA
102
{ACAD_REACTORS
330
57E2
102
}
330
57E2
100
AcDbScale
 70
     0
300
1:20
140
1.0
141
20.0
290
     0
  0
SCALE
  5
57EB
102
{ACAD_REACTORS
330
57E2
102
}
330
57E2
100
AcDbScale
 70
     0
300
1:30
140
1.0
141
30.0
290
     0
  0
SCALE
  5
57EC
102
{ACAD_REACTORS
330
57E2
102
}
330
57E2
100
AcDbScale
 70
     0
300
1:40
140
1.0
141
40.0
290
     0
  0
SCALE
  5
57ED
102
{ACAD_REACTORS
330
57E2
102
}
330
57E2
100
AcDbScale
 70
     0
300
1:50
140
1.0
141
50.0
290
     0
  0
SCALE
  5
57EE
102
{ACAD_REACTORS
330
57E2
102
}
330
57E2
100
AcDbScale
 70
     0
300
1:100
140
1.0
141
100.0
290
     0
  0
SCALE
  5
57EF
102
{ACAD_REACTORS
330
57E2
102
}
330
57E2
100
AcDbScale
 70
     0
300
2:1
140
2.0
141
1.0
290
     0
  0
SCALE
  5
57F0
102
{ACAD_REACTORS
330
57E2
102
}
330
57E2
100
AcDbScale
 70
     0
300
4:1
140
4.0
141
1.0
290
     0
  0
SCALE
  5
57F1
102
{ACAD_REACTORS
330
57E2
102
}
330
57E2
100
AcDbScale
 70
     0
300
8:1
140
8.0
141
1.0
290
     0
  0
SCALE
  5
57F2
102
{ACAD_REACTORS
330
57E2
102
}
330
57E2
100
AcDbScale
 70
     0
300
10:1
140
10.0
141
1.0
290
     0
  0
SCALE
  5
57F3
102
{ACAD_REACTORS
330
57E2
102
}
330
57E2
100
AcDbScale
 70
     0
300
100:1
140
100.0
141
1.0
290
     0
  0
ACDBSECTIONVIEWSTYLE
  5
57F7
102
{ACAD_XDICTIONARY
360
AD8D
102
}
102
{ACAD_REACTORS
330
57F6
102
}
330
57F6
100
AcDbModelDocViewStyle
 70
     0
  3
Metric50
290
     0
100
AcDbSectionViewStyle
 70
     0
 71
     0
 90
      102
 71
     1
340
F
 62
   256
 40
5.0
340
0
340
0
 62
   256
 40
5.0
300
I, O, Q, S, X, Z
 40
10.0
 90
        0
 40
2.5
 90
        0
 71
     2
340
14
 90
       25
 62
   256
340
14
 90
       50
 62
   256
 40
5.0
 40
2.5
 40
5.0
 71
     3
340
F
 62
   256
 40
5.0
 90
        0
 40
15.0
 90
        1
300
%<\AcVar ViewSectionStartId>%-%<\AcVar ViewSectionEndId>% (%<\AcVar ViewScale \f "%sn">%)
 71
     4
 62
   256
 62
   257
300
ANSI31
 40
1.0
 90
        0
290
     0
290
     0
 90
        6
 40
0.0
 40
1.570796326794896
 40
0.2617993877991494
 40
1.308996938995747
 40
-0.2617993877991494
 40
1.832595714594045
  0
TABLESTYLE
  5
57E1
102
{ACAD_XDICTIONARY
360
5822
102
}
102
{ACAD_REACTORS
330
57E0
102
}
330
57E0
100
AcDbTableStyle
280
     0
  3
Standard
 70
     0
 71
     0
 40
1.5
 41
1.5
280
     0
281
     0
  7
STANDARD
140
4.5
170
     2
 62
     0
 63
     7
283
     0
 90
      512
 91
        0
  1

274
    -2
284
     1
 64
     0
275
    -2
285
     1
 65
     0
276
    -2
286
     1
 66
     0
277
    -2
287
     1
 67
     0
278
    -2
288
     1
 68
     0
279
    -2
289
     1
 69
     0
  7
STANDARD
140
6.0
170
     5
 62
     0
 63
     7
283
     0
 90
      512
 91
        0
  1

274
    -2
284
     1
 64
     0
275
    -2
285
     1
 65
     0
276
    -2
286
     1
 66
     0
277
    -2
287
     1
 67
     0
278
    -2
288
     1
 68
     0
279
    -2
289
     1
 69
     0
  7
STANDARD
140
4.5
170
     5
 62
     0
 63
     7
283
     0
 90
      512
 91
        0
  1

274
    -2
284
     1
 64
     0
275
    -2
285
     1
 65
     0
276
    -2
286
     1
 66
     0
277
    -2
287
     1
 67
     0
278
    -2
288
     1
 68
     0
279
    -2
289
     1
 69
     0
  0
VISUALSTYLE
  5
57CC
102
{ACAD_REACTORS
330
57C6
102
}
330
57C6
100
AcDbVisualStyle
  2
2dWireframe
 70
     4
177
     3
291
     0
 70
    58
 90
        0
176
     1
 90
        2
176
     1
 90
        0
176
     1
 90
        0
176
     1
 40
0.6
176
     1
 40
30.0
176
     1
 62
     7
176
     1
 90
        1
176
     1
 90
        4
176
     1
 62
     7
176
     1
 62
   257
176
     1
 90
        1
176
     1
 90
        1
176
     1
 40
1.0
176
     1
 90
        0
176
     1
 62
   257
176
     1
 40
1.0
176
     1
 90
        1
176
     1
 90
        6
176
     1
 90
        2
176
     1
 62
     7
176
     1
 90
        5
176
     1
 90
        0
176
     1
 90
        0
176
     1
290
     0
176
     1
 90
        1
176
     1
 40
0.0
176
     1
 90
        0
176
     1
290
     1
176
     1
290
     1
176
     1
290
     0
176
     1
290
     0
176
     1
290
     0
176
     1
290
     0
176
     1
290
     0
176
     1
290
     0
176
     1
290
     0
176
     1
 90
       50
176
     1
 40
0.0
176
     1
 40
1.0
176
     1
 90
        0
176
     1
 62
    18
176
     1
 90
       50
176
     1
 90
        3
176
     1
 62
     5
420
      255
176
     1
290
     0
176
     1
 90
       50
176
     1
 90
       50
176
     1
 90
       50
176
     1
290
     0
176
     1
 90
       50
176
     1
 62
   256
176
     0
 40
1.0
176
     0
 90
        2
176
     1
  1
strokes_ogs.tif
176
     1
290
     0
176
     1
 40
1.0
176
     1
 40
1.0
176
     1
  0
VISUALSTYLE
  5
98F6
102
{ACAD_REACTORS
330
57C6
102
}
330
57C6
100
AcDbVisualStyle
  2
3dWireframe
 70
     5
177
     3
291
     0
 70
    58
 90
        0
176
     1
 90
        2
176
     1
 90
        0
176
     1
 90
        0
176
     1
 40
0.6
176
     1
 40
30.0
176
     1
 62
     7
176
     1
 90
        1
176
     1
 90
        4
176
     1
 62
     7
176
     1
 62
   257
176
     1
 90
        1
176
     1
 90
        1
176
     1
 40
1.0
176
     1
 90
        0
176
     1
 62
   257
176
     1
 40
1.0
176
     1
 90
        1
176
     1
 90
        6
176
     1
 90
        2
176
     1
 62
     7
176
     1
 90
        5
176
     1
 90
        0
176
     1
 90
        0
176
     1
290
     0
176
     1
 90
        1
176
     1
 40
0.0
176
     1
 90
        0
176
     1
290
     0
176
     1
290
     1
176
     1
290
     1
176
     1
290
     0
176
     1
290
     0
176
     1
290
     0
176
     1
290
     0
176
     1
290
     0
176
     1
290
     0
176
     1
 90
       50
176
     1
 40
0.0
176
     1
 40
1.0
176
     1
 90
        0
176
     1
 62
    18
176
     1
 90
       50
176
     1
 90
        3
176
     1
 62
     5
420
      255
176
     1
290
     0
176
     1
 90
       50
176
     1
 90
       50
176
     1
 90
       50
176
     1
290
     0
176
     1
 90
       50
176
     1
 62
   256
176
     0
 40
1.0
176
     0
 90
        2
176
     1
  1
strokes_ogs.tif
176
     1
290
     0
176
     1
 40
1.0
176
     1
 40
1.0
176
     1
  0
VISUALSTYLE
  5
57CB
102
{ACAD_REACTORS
330
57C6
102
}
330
57C6
100
AcDbVisualStyle
  2
Basic
 70
     7
177
     3
291
     1
 70
    58
 90
        1
176
     1
 90
        0
176
     1
 90
        1
176
     1
 90
        0
176
     1
 40
0.6
176
     1
 40
30.0
176
     1
 62
     7
176
     1
 90
        0
176
     1
 90
        4
176
     1
 62
     7
176
     1
 62
   257
176
     1
 90
        1
176
     1
 90
        1
176
     1
 40
1.0
176
     1
 90
        8
176
     1
 62
     7
176
     1
 40
1.0
176
     1
 90
        1
176
     1
 90
        6
176
     1
 90
        2
176
     1
 62
     7
176
     1
 90
        5
176
     1
 90
        0
176
     1
 90
        0
176
     1
290
     0
176
     1
 90
        1
176
     1
 40
0.0
176
     1
 90
        0
176
     1
290
     0
176
     1
290
     1
176
     1
290
     1
176
     1
290
     0
176
     1
290
     0
176
     1
290
     0
176
     1
290
     0
176
     1
290
     0
176
     1
290
     0
176
     1
 90
       50
176
     1
 40
0.0
176
     1
 40
1.0
176
     1
 90
        0
176
     1
 62
    18
176
     1
 90
       50
176
     1
 90
        3
176
     1
 62
     5
420
      255
176
     1
290
     0
176
     1
 90
       50
176
     1
 90
       50
176
     1
 90
       50
176
     1
290
     0
176
     1
 90
       50
176
     1
 62
   256
176
     0
 40
1.0
176
     0
 90
        2
176
     1
  1
strokes_ogs.tif
176
     1
290
     0
176
     1
 40
1.0
176
     1
 40
1.0
176
     1
  0
VISUALSTYLE
  5
57D2
102
{ACAD_REACTORS
330
57C6
102
}
330
57C6
100
AcDbVisualStyle
  2
Brighten
 70
    12
177
     3
291
     1
 70
    58
 90
        2
176
     1
 90
        2
176
     1
 90
        0
176
     1
 90
        0
176
     1
 40
0.6
176
     1
 40
30.0
176
     1
 62
     7
176
     1
 90
        1
176
     1
 90
        4
176
     1
 62
     7
176
     1
 62
   257
176
     1
 90
        1
176
     1
 90
        1
176
     1
 40
1.0
176
     1
 90
        8
176
     1
 62
     7
176
     1
 40
1.0
176
     1
 90
        1
176
     1
 90
        6
176
     1
 90
        2
176
     1
 62
     7
176
     1
 90
        5
176
     1
 90
        0
176
     1
 90
        0
176
     1
290
     0
176
     1
 90
        1
176
     1
 40
50.0
176
     1
 90
        0
176
     1
290
     0
176
     1
290
     1
176
     1
290
     1
176
     1
290
     0
176
     1
290
     0
176
     1
290
     0
176
     1
290
     0
176
     1
290
     0
176
     1
290
     0
176
     1
 90
       50
176
     1
 40
0.0
176
     1
 40
1.0
176
     1
 90
        0
176
     1
 62
    18
176
     1
 90
       50
176
     1
 90
        3
176
     1
 62
     5
420
      255
176
     1
290
     0
176
     1
 90
       50
176
     1
 90
       50
176
     1
 90
       50
176
     1
290
     0
176
     1
 90
       50
176
     1
 62
   256
176
     0
 40
1.0
176
     0
 90
        2
176
     1
  1
strokes_ogs.tif
176
     1
290
     0
176
     1
 40
1.0
176
     1
 40
1.0
176
     1
  0
VISUALSTYLE
  5
57D6
102
{ACAD_REACTORS
330
57C6
102
}
330
57C6
100
AcDbVisualStyle
  2
ColorChange
 70
    16
177
     3
291
     1
 70
    58
 90
        2
176
     1
 90
        2
176
     1
 90
        3
176
     1
 90
        0
176
     1
 40
0.6
176
     1
 40
30.0
176
     1
 62
     8
176
     1
 90
        1
176
     1
 90
        4
176
     1
 62
     7
176
     1
 62
   257
176
     1
 90
        1
176
     1
 90
        1
176
     1
 40
1.0
176
     1
 90
        8
176
     1
 62
     8
176
     1
 40
1.0
176
     1
 90
        1
176
     1
 90
        6
176
     1
 90
        2
176
     1
 62
     7
176
     1
 90
        5
176
     1
 90
        0
176
     1
 90
        0
176
     1
290
     0
176
     1
 90
        1
176
     1
 40
0.0
176
     1
 90
        0
176
     1
290
     0
176
     1
290
     1
176
     1
290
     1
176
     1
290
     0
176
     1
290
     0
176
     1
290
     0
176
     1
290
     0
176
     1
290
     0
176
     1
290
     0
176
     1
 90
       50
176
     1
 40
0.0
176
     1
 40
1.0
176
     1
 90
        0
176
     1
 62
    18
176
     1
 90
       50
176
     1
 90
        3
176
     1
 62
     5
420
      255
176
     1
290
     0
176
     1
 90
       50
176
     1
 90
       50
176
     1
 90
       50
176
     1
290
     0
176
     1
 90
       50
176
     1
 62
   256
176
     0
 40
1.0
176
     0
 90
        2
176
     1
  1
strokes_ogs.tif
176
     1
290
     0
176
     1
 40
1.0
176
     1
 40
1.0
176
     1
  0
VISUALSTYLE
  5
57CF
102
{ACAD_REACTORS
330
57C6
102
}
330
57C6
100
AcDbVisualStyle
  2
Conceptual
 70
     9
177
     3
291
     0
 70
    58
 90
        3
176
     1
 90
        2
176
     1
 90
        0
176
     1
 90
        0
176
     1
 40
0.6
176
     1
 40
30.0
176
     1
 62
     7
176
     1
 90
        2
176
     1
 90
        2
176
     1
 62
     7
176
     1
 62
   257
176
     1
 90
        1
176
     1
 90
        1
176
     1
 40
179.0
176
     1
 90
        8
176
     1
 62
     7
176
     1
 40
1.0
176
     1
 90
        1
176
     1
 90
        6
176
     1
 90
        2
176
     1
 62
     7
176
     1
 90
        3
176
     1
 90
        0
176
     1
 90
        0
176
     1
290
     0
176
     1
 90
        1
176
     1
 40
0.0
176
     1
 90
        0
176
     1
290
     0
176
     1
290
     1
176
     1
290
     1
176
     1
290
     0
176
     1
290
     0
176
     1
290
     0
176
     1
290
     0
176
     1
290
     0
176
     1
290
     0
176
     1
 90
       50
176
     1
 40
0.0
176
     1
 40
1.0
176
     1
 90
        0
176
     1
 62
    18
176
     1
 90
       50
176
     1
 90
        3
176
     1
 62
     5
420
      255
176
     1
290
     0
176
     1
 90
       50
176
     1
 90
       50
176
     1
 90
       50
176
     1
290
     0
176
     1
 90
       50
176
     1
 62
   256
176
     0
 40
1.0
176
     0
 90
        2
176
     1
  1
strokes_ogs.tif
176
     1
290
     0
176
     1
 40
1.0
176
     1
 40
1.0
176
     1
  0
VISUALSTYLE
  5
57D1
102
{ACAD_REACTORS
330
57C6
102
}
330
57C6
100
AcDbVisualStyle
  2
Dim
 70
    11
177
     3
291
     1
 70
    58
 90
        2
176
     1
 90
        2
176
     1
 90
        0
176
     1
 90
        0
176
     1
 40
0.6
176
     1
 40
30.0
176
     1
 62
     7
176
     1
 90
        1
176
     1
 90
        4
176
     1
 62
     7
176
     1
 62
   257
176
     1
 90
        1
176
     1
 90
        1
176
     1
 40
1.0
176
     1
 90
        8
176
     1
 62
     7
176
     1
 40
1.0
176
     1
 90
        1
176
     1
 90
        6
176
     1
 90
        2
176
     1
 62
     7
176
     1
 90
        5
176
     1
 90
        0
176
     1
 90
        0
176
     1
290
     0
176
     1
 90
        1
176
     1
 40
-50.0
176
     1
 90
        0
176
     1
290
     0
176
     1
290
     1
176
     1
290
     1
176
     1
290
     0
176
     1
290
     0
176
     1
290
     0
176
     1
290
     0
176
     1
290
     0
176
     1
290
     0
176
     1
 90
       50
176
     1
 40
0.0
176
     1
 40
1.0
176
     1
 90
        0
176
     1
 62
    18
176
     1
 90
       50
176
     1
 90
        3
176
     1
 62
     5
420
      255
176
     1
290
     0
176
     1
 90
       50
176
     1
 90
       50
176
     1
 90
       50
176
     1
290
     0
176
     1
 90
       50
176
     1
 62
   256
176
     0
 40
1.0
176
     0
 90
        2
176
     1
  1
strokes_ogs.tif
176
     1
290
     0
176
     1
 40
1.0
176
     1
 40
1.0
176
     1
  0
VISUALSTYLE
  5
57DE
102
{ACAD_REACTORS
330
57C6
102
}
330
57C6
100
AcDbVisualStyle
  2
EdgeColorOff
 70
    22
177
     3
291
     1
 70
    58
 90
        2
176
     0
 90
        2
176
     0
 90
        0
176
     0
 90
        0
176
     0
 40
0.6
176
     0
 40
30.0
176
     0
 62
     7
176
     0
 90
        1
176
     0
 90
        4
176
     0
 62
     7
176
     0
 62
   257
176
     0
 90
        1
176
     0
 90
        1
176
     0
 40
1.0
176
     0
 90
        8
176
     2
 62
     7
176
     0
 40
1.0
176
     0
 90
        1
176
     0
 90
        6
176
     0
 90
        2
176
     0
 62
     7
176
     0
 90
        5
176
     0
 90
        0
176
     0
 90
        0
176
     0
290
     0
176
     0
 90
        1
176
     0
 40
0.0
176
     0
 90
        0
176
     0
290
     0
176
     0
290
     1
176
     0
290
     1
176
     0
290
     0
176
     0
290
     0
176
     0
290
     0
176
     0
290
     0
176
     0
290
     0
176
     0
290
     0
176
     0
 90
       50
176
     0
 40
0.0
176
     0
 40
1.0
176
     0
 90
        0
176
     0
 62
    18
176
     0
 90
       50
176
     0
 90
        3
176
     0
 62
     5
420
      255
176
     0
290
     0
176
     0
 90
       50
176
     0
 90
       50
176
     0
 90
       50
176
     0
290
     0
176
     0
 90
       50
176
     0
 62
   256
176
     0
 40
1.0
176
     0
 90
        2
176
     0
  1
strokes_ogs.tif
176
     0
290
     0
176
     0
 40
1.0
176
     0
 40
1.0
176
     0
  0
VISUALSTYLE
  5
57D5
102
{ACAD_REACTORS
330
57C6
102
}
330
57C6
100
AcDbVisualStyle
  2
Facepattern
 70
    15
177
     3
291
     1
 70
    58
 90
        2
176
     1
 90
        2
176
     1
 90
        0
176
     1
 90
        0
176
     1
 40
0.6
176
     1
 40
30.0
176
     1
 62
     7
176
     1
 90
        1
176
     1
 90
        4
176
     1
 62
     7
176
     1
 62
   257
176
     1
 90
        1
176
     1
 90
        1
176
     1
 40
1.0
176
     1
 90
        8
176
     1
 62
     7
176
     1
 40
1.0
176
     1
 90
        1
176
     1
 90
        6
176
     1
 90
        2
176
     1
 62
     7
176
     1
 90
        5
176
     1
 90
        0
176
     1
 90
        0
176
     1
290
     0
176
     1
 90
        1
176
     1
 40
0.0
176
     1
 90
        0
176
     1
290
     0
176
     1
290
     1
176
     1
290
     1
176
     1
290
     0
176
     1
290
     0
176
     1
290
     0
176
     1
290
     0
176
     1
290
     0
176
     1
290
     0
176
     1
 90
       50
176
     1
 40
0.0
176
     1
 40
1.0
176
     1
 90
        0
176
     1
 62
    18
176
     1
 90
       50
176
     1
 90
        3
176
     1
 62
     5
420
      255
176
     1
290
     0
176
     1
 90
       50
176
     1
 90
       50
176
     1
 90
       50
176
     1
290
     0
176
     1
 90
       50
176
     1
 62
   256
176
     0
 40
1.0
176
     0
 90
        2
176
     1
  1
strokes_ogs.tif
176
     1
290
     0
176
     1
 40
1.0
176
     1
 40
1.0
176
     1
  0
VISUALSTYLE
  5
57C7
102
{ACAD_REACTORS
330
57C6
102
}
330
57C6
100
AcDbVisualStyle
  2
Flat
 70
     0
177
     3
291
     1
 70
    58
 90
        2
176
     1
 90
        1
176
     1
 90
        1
176
     1
 90
        2
176
     1
 40
0.6
176
     1
 40
30.0
176
     1
 62
     7
176
     1
 90
        0
176
     1
 90
        0
176
     1
 62
     7
176
     1
 62
   257
176
     1
 90
        1
176
     1
 90
        1
176
     1
 40
1.0
176
     1
 90
        8
176
     1
 62
     7
176
     1
 40
1.0
176
     1
 90
        1
176
     1
 90
        6
176
     1
 90
        2
176
     1
 62
     7
176
     1
 90
        5
176
     1
 90
        0
176
     1
 90
        0
176
     1
290
     0
176
     1
 90
       13
176
     1
 40
0.0
176
     1
 90
        0
176
     1
290
     0
176
     1
290
     1
176
     1
290
     1
176
     1
290
     0
176
     1
290
     0
176
     1
290
     0
176
     1
290
     0
176
     1
290
     0
176
     1
290
     0
176
     1
 90
       50
176
     1
 40
0.0
176
     1
 40
1.0
176
     1
 90
        0
176
     1
 62
    18
176
     1
 90
       50
176
     1
 90
        3
176
     1
 62
     5
420
      255
176
     1
290
     0
176
     1
 90
       50
176
     1
 90
       50
176
     1
 90
       50
176
     1
290
     0
176
     1
 90
       50
176
     1
 62
   256
176
     0
 40
1.0
176
     0
 90
        2
176
     1
  1
strokes_ogs.tif
176
     1
290
     0
176
     1
 40
1.0
176
     1
 40
1.0
176
     1
  0
VISUALSTYLE
  5
57C8
102
{ACAD_REACTORS
330
57C6
102
}
330
57C6
100
AcDbVisualStyle
  2
FlatWithEdges
 70
     1
177
     3
291
     1
 70
    58
 90
        2
176
     1
 90
        1
176
     1
 90
        1
176
     1
 90
        2
176
     1
 40
0.6
176
     1
 40
30.0
176
     1
 62
     7
176
     1
 90
        1
176
     1
 90
        0
176
     1
 62
     7
176
     1
 62
   257
176
     1
 90
        1
176
     1
 90
        1
176
     1
 40
1.0
176
     1
 90
        0
176
     1
 62
   257
176
     1
 40
1.0
176
     1
 90
        1
176
     1
 90
        6
176
     1
 90
        2
176
     1
 62
     7
176
     1
 90
        5
176
     1
 90
        0
176
     1
 90
        0
176
     1
290
     0
176
     1
 90
       13
176
     1
 40
0.0
176
     1
 90
        0
176
     1
290
     0
176
     1
290
     1
176
     1
290
     1
176
     1
290
     0
176
     1
290
     0
176
     1
290
     0
176
     1
290
     0
176
     1
290
     0
176
     1
290
     0
176
     1
 90
       50
176
     1
 40
0.0
176
     1
 40
1.0
176
     1
 90
        0
176
     1
 62
    18
176
     1
 90
       50
176
     1
 90
        3
176
     1
 62
     5
420
      255
176
     1
290
     0
176
     1
 90
       50
176
     1
 90
       50
176
     1
 90
       50
176
     1
290
     0
176
     1
 90
       50
176
     1
 62
   256
176
     0
 40
1.0
176
     0
 90
        2
176
     1
  1
strokes_ogs.tif
176
     1
290
     0
176
     1
 40
1.0
176
     1
 40
1.0
176
     1
  0
VISUALSTYLE
  5
57C9
102
{ACAD_REACTORS
330
57C6
102
}
330
57C6
100
AcDbVisualStyle
  2
Gouraud
 70
     2
177
     3
291
     1
 70
    58
 90
        2
176
     1
 90
        2
176
     1
 90
        1
176
     1
 90
        2
176
     1
 40
0.6
176
     1
 40
30.0
176
     1
 62
     7
176
     1
 90
        0
176
     1
 90
        0
176
     1
 62
     7
176
     1
 62
   257
176
     1
 90
        1
176
     1
 90
        1
176
     1
 40
1.0
176
     1
 90
        0
176
     1
 62
     7
176
     1
 40
1.0
176
     1
 90
        1
176
     1
 90
        6
176
     1
 90
        2
176
     1
 62
     7
176
     1
 90
        5
176
     1
 90
        0
176
     1
 90
        0
176
     1
290
     0
176
     1
 90
       13
176
     1
 40
0.0
176
     1
 90
        0
176
     1
290
     0
176
     1
290
     1
176
     1
290
     1
176
     1
290
     0
176
     1
290
     0
176
     1
290
     0
176
     1
290
     0
176
     1
290
     0
176
     1
290
     0
176
     1
 90
       50
176
     1
 40
0.0
176
     1
 40
1.0
176
     1
 90
        0
176
     1
 62
    18
176
     1
 90
       50
176
     1
 90
        3
176
     1
 62
     5
420
      255
176
     1
290
     0
176
     1
 90
       50
176
     1
 90
       50
176
     1
 90
       50
176
     1
290
     0
176
     1
 90
       50
176
     1
 62
   256
176
     0
 40
1.0
176
     0
 90
        2
176
     1
  1
strokes_ogs.tif
176
     1
290
     0
176
     1
 40
1.0
176
     1
 40
1.0
176
     1
  0
VISUALSTYLE
  5
57CA
102
{ACAD_REACTORS
330
57C6
102
}
330
57C6
100
AcDbVisualStyle
  2
GouraudWithEdges
 70
     3
177
     3
291
     1
 70
    58
 90
        2
176
     1
 90
        2
176
     1
 90
        1
176
     1
 90
        2
176
     1
 40
0.6
176
     1
 40
30.0
176
     1
 62
     7
176
     1
 90
        1
176
     1
 90
        0
176
     1
 62
     7
176
     1
 62
   257
176
     1
 90
        1
176
     1
 90
        1
176
     1
 40
1.0
176
     1
 90
        0
176
     1
 62
   257
176
     1
 40
1.0
176
     1
 90
        1
176
     1
 90
        6
176
     1
 90
        2
176
     1
 62
     7
176
     1
 90
        5
176
     1
 90
        0
176
     1
 90
        0
176
     1
290
     0
176
     1
 90
       13
176
     1
 40
0.0
176
     1
 90
        0
176
     1
290
     0
176
     1
290
     1
176
     1
290
     1
176
     1
290
     0
176
     1
290
     0
176
     1
290
     0
176
     1
290
     0
176
     1
290
     0
176
     1
290
     0
176
     1
 90
       50
176
     1
 40
0.0
176
     1
 40
1.0
176
     1
 90
        0
176
     1
 62
    18
176
     1
 90
       50
176
     1
 90
        3
176
     1
 62
     5
420
      255
176
     1
290
     0
176
     1
 90
       50
176
     1
 90
       50
176
     1
 90
       50
176
     1
290
     0
176
     1
 90
       50
176
     1
 62
   256
176
     0
 40
1.0
176
     0
 90
        2
176
     1
  1
strokes_ogs.tif
176
     1
290
     0
176
     1
 40
1.0
176
     1
 40
1.0
176
     1
  0
VISUALSTYLE
  5
57CE
102
{ACAD_REACTORS
330
57C6
102
}
330
57C6
100
AcDbVisualStyle
  2
Hidden
 70
     6
177
     3
291
     0
 70
    58
 90
        1
176
     1
 90
        2
176
     1
 90
        2
176
     1
 90
        0
176
     1
 40
0.6
176
     1
 40
30.0
176
     1
 62
     7
176
     1
 90
        2
176
     1
 90
        2
176
     1
 62
     7
176
     1
 62
   257
176
     1
 90
        2
176
     1
 90
        1
176
     1
 40
40.0
176
     1
 90
        0
176
     1
 62
   257
176
     1
 40
1.0
176
     1
 90
        1
176
     1
 90
        6
176
     1
 90
        2
176
     1
 62
     7
176
     1
 90
        3
176
     1
 90
        0
176
     1
 90
        0
176
     1
290
     0
176
     1
 90
        1
176
     1
 40
0.0
176
     1
 90
        0
176
     1
290
     0
176
     1
290
     1
176
     1
290
     1
176
     1
290
     0
176
     1
290
     0
176
     1
290
     0
176
     1
290
     0
176
     1
290
     0
176
     1
290
     0
176
     1
 90
       50
176
     1
 40
0.0
176
     1
 40
1.0
176
     1
 90
        0
176
     1
 62
    18
176
     1
 90
       50
176
     1
 90
        3
176
     1
 62
     5
420
      255
176
     1
290
     0
176
     1
 90
       50
176
     1
 90
       50
176
     1
 90
       50
176
     1
290
     0
176
     1
 90
       50
176
     1
 62
   256
176
     0
 40
1.0
176
     0
 90
        2
176
     1
  1
strokes_ogs.tif
176
     1
290
     0
176
     1
 40
1.0
176
     1
 40
1.0
176
     1
  0
VISUALSTYLE
  5
57DC
102
{ACAD_REACTORS
330
57C6
102
}
330
57C6
100
AcDbVisualStyle
  2
JitterOff
 70
    20
177
     3
291
     1
 70
    58
 90
        2
176
     0
 90
        2
176
     0
 90
        0
176
     0
 90
        0
176
     0
 40
0.6
176
     0
 40
30.0
176
     0
 62
     7
176
     0
 90
        1
176
     0
 90
        4
176
     0
 62
     7
176
     0
 62
   257
176
     0
 90
        1
176
     0
 90
        1
176
     0
 40
1.0
176
     0
 90
       10
176
     2
 62
     7
176
     0
 40
1.0
176
     0
 90
        1
176
     0
 90
        6
176
     0
 90
        2
176
     0
 62
     7
176
     0
 90
        5
176
     0
 90
        0
176
     0
 90
        0
176
     0
290
     0
176
     0
 90
        1
176
     0
 40
0.0
176
     0
 90
        0
176
     0
290
     0
176
     0
290
     1
176
     0
290
     1
176
     0
290
     0
176
     0
290
     0
176
     0
290
     0
176
     0
290
     0
176
     0
290
     0
176
     0
290
     0
176
     0
 90
       50
176
     0
 40
0.0
176
     0
 40
1.0
176
     0
 90
        0
176
     0
 62
    18
176
     0
 90
       50
176
     0
 90
        3
176
     0
 62
     5
420
      255
176
     0
290
     0
176
     0
 90
       50
176
     0
 90
       50
176
     0
 90
       50
176
     0
290
     0
176
     0
 90
       50
176
     0
 62
   256
176
     0
 40
1.0
176
     0
 90
        2
176
     0
  1
strokes_ogs.tif
176
     0
290
     0
176
     0
 40
1.0
176
     0
 40
1.0
176
     0
  0
VISUALSTYLE
  5
57D4
102
{ACAD_REACTORS
330
57C6
102
}
330
57C6
100
AcDbVisualStyle
  2
Linepattern
 70
    14
177
     3
291
     1
 70
    58
 90
        2
176
     1
 90
        2
176
     1
 90
        0
176
     1
 90
        0
176
     1
 40
0.6
176
     1
 40
30.0
176
     1
 62
     7
176
     1
 90
        1
176
     1
 90
        4
176
     1
 62
     7
176
     1
 62
   257
176
     1
 90
        7
176
     1
 90
        7
176
     1
 40
1.0
176
     1
 90
        8
176
     1
 62
     7
176
     1
 40
1.0
176
     1
 90
        1
176
     1
 90
        6
176
     1
 90
        2
176
     1
 62
     7
176
     1
 90
        5
176
     1
 90
        0
176
     1
 90
        0
176
     1
290
     0
176
     1
 90
        1
176
     1
 40
0.0
176
     1
 90
        0
176
     1
290
     0
176
     1
290
     1
176
     1
290
     1
176
     1
290
     0
176
     1
290
     0
176
     1
290
     0
176
     1
290
     0
176
     1
290
     0
176
     1
290
     0
176
     1
 90
       50
176
     1
 40
0.0
176
     1
 40
1.0
176
     1
 90
        0
176
     1
 62
    18
176
     1
 90
       50
176
     1
 90
        3
176
     1
 62
     5
420
      255
176
     1
290
     0
176
     1
 90
       50
176
     1
 90
       50
176
     1
 90
       50
176
     1
290
     0
176
     1
 90
       50
176
     1
 62
   256
176
     0
 40
1.0
176
     0
 90
        2
176
     1
  1
strokes_ogs.tif
176
     1
290
     0
176
     1
 40
1.0
176
     1
 40
1.0
176
     1
  0
VISUALSTYLE
  5
57DD
102
{ACAD_REACTORS
330
57C6
102
}
330
57C6
100
AcDbVisualStyle
  2
OverhangOff
 70
    21
177
     3
291
     1
 70
    58
 90
        2
176
     0
 90
        2
176
     0
 90
        0
176
     0
 90
        0
176
     0
 40
0.6
176
     0
 40
30.0
176
     0
 62
     7
176
     0
 90
        1
176
     0
 90
        4
176
     0
 62
     7
176
     0
 62
   257
176
     0
 90
        1
176
     0
 90
        1
176
     0
 40
1.0
176
     0
 90
        9
176
     2
 62
     7
176
     0
 40
1.0
176
     0
 90
        1
176
     0
 90
        6
176
     0
 90
        2
176
     0
 62
     7
176
     0
 90
        5
176
     0
 90
        0
176
     0
 90
        0
176
     0
290
     0
176
     0
 90
        1
176
     0
 40
0.0
176
     0
 90
        0
176
     0
290
     0
176
     0
290
     1
176
     0
290
     1
176
     0
290
     0
176
     0
290
     0
176
     0
290
     0
176
     0
290
     0
176
     0
290
     0
176
     0
290
     0
176
     0
 90
       50
176
     0
 40
0.0
176
     0
 40
1.0
176
     0
 90
        0
176
     0
 62
    18
176
     0
 90
       50
176
     0
 90
        3
176
     0
 62
     5
420
      255
176
     0
290
     0
176
     0
 90
       50
176
     0
 90
       50
176
     0
 90
       50
176
     0
290
     0
176
     0
 90
       50
176
     0
 62
   256
176
     0
 40
1.0
176
     0
 90
        2
176
     0
  1
strokes_ogs.tif
176
     0
290
     0
176
     0
 40
1.0
176
     0
 40
1.0
176
     0
  0
VISUALSTYLE
  5
57D0
102
{ACAD_REACTORS
330
57C6
102
}
330
57C6
100
AcDbVisualStyle
  2
Realistic
 70
     8
177
     3
291
     0
 70
    58
 90
        2
176
     1
 90
        2
176
     1
 90
        0
176
     1
 90
        2
176
     1
 40
0.6
176
     1
 40
30.0
176
     1
 62
     7
176
     1
 90
        0
176
     1
 90
        0
176
     1
 62
     7
176
     1
 62
   257
176
     1
 90
        1
176
     1
 90
        1
176
     1
 40
1.0
176
     1
 90
        8
176
     1
 62
   257
176
     1
 40
1.0
176
     1
 90
        1
176
     1
 90
        6
176
     1
 90
        2
176
     1
 62
     7
176
     1
 90
        3
176
     1
 90
        0
176
     1
 90
        0
176
     1
290
     0
176
     1
 90
       13
176
     1
 40
0.0
176
     1
 90
        0
176
     1
290
     0
176
     1
290
     1
176
     1
290
     1
176
     1
290
     0
176
     1
290
     0
176
     1
290
     0
176
     1
290
     0
176
     1
290
     0
176
     1
290
     0
176
     1
 90
       50
176
     1
 40
0.0
176
     1
 40
1.0
176
     1
 90
        0
176
     1
 62
    18
176
     1
 90
       50
176
     1
 90
        3
176
     1
 62
     5
420
      255
176
     1
290
     0
176
     1
 90
       50
176
     1
 90
       50
176
     1
 90
       50
176
     1
290
     0
176
     1
 90
       50
176
     1
 62
   256
176
     0
 40
1.0
176
     0
 90
        2
176
     1
  1
strokes_ogs.tif
176
     1
290
     0
176
     1
 40
1.0
176
     1
 40
1.0
176
     1
  0
VISUALSTYLE
  5
57DB
102
{ACAD_REACTORS
330
57C6
102
}
330
57C6
100
AcDbVisualStyle
  2
Shaded
 70
    27
177
     3
291
     0
 70
    58
 90
        2
176
     1
 90
        2
176
     1
 90
        1
176
     1
 90
        2
176
     1
 40
0.6
176
     1
 40
30.0
176
     1
 62
     7
176
     1
 90
        0
176
     1
 90
        4
176
     1
 62
     7
176
     1
 62
   257
176
     1
 90
        1
176
     1
 90
        1
176
     1
 40
1.0
176
     1
 90
        8
176
     1
 62
   257
176
     1
 40
1.0
176
     1
 90
        1
176
     1
 90
        6
176
     1
 90
        2
176
     1
 62
     8
176
     1
 90
        3
176
     1
 90
        0
176
     1
 90
        0
176
     1
290
     0
176
     1
 90
        5
176
     1
 40
0.0
176
     1
 90
        0
176
     1
290
     0
176
     1
290
     1
176
     1
290
     1
176
     1
290
     0
176
     1
290
     0
176
     1
290
     0
176
     1
290
     0
176
     1
290
     0
176
     1
290
     0
176
     1
 90
       50
176
     1
 40
0.0
176
     1
 40
1.0
176
     1
 90
        0
176
     1
 62
    18
176
     1
 90
       50
176
     1
 90
        3
176
     1
 62
     5
420
      255
176
     1
290
     0
176
     1
 90
       50
176
     1
 90
       50
176
     1
 90
       50
176
     1
290
     0
176
     1
 90
       50
176
     1
 62
   256
176
     0
 40
1.0
176
     0
 90
        2
176
     1
  1
strokes_ogs.tif
176
     1
290
     0
176
     1
 40
1.0
176
     1
 40
1.0
176
     1
  0
VISUALSTYLE
  5
57DA
102
{ACAD_REACTORS
330
57C6
102
}
330
57C6
100
AcDbVisualStyle
  2
Shaded with edges
 70
    26
177
     3
291
     0
 70
    58
 90
        2
176
     1
 90
        2
176
     1
 90
        1
176
     1
 90
        2
176
     1
 40
0.6
176
     1
 40
30.0
176
     1
 62
     7
176
     1
 90
        1
176
     1
 90
       10
176
     1
 62
     7
176
     1
 62
   257
176
     1
 90
        2
176
     1
 90
        1
176
     1
 40
1.0
176
     1
 90
        8
176
     1
 62
   257
176
     1
 40
1.0
176
     1
 90
        1
176
     1
 90
        6
176
     1
 90
        2
176
     1
 62
     7
176
     1
 90
        3
176
     1
 90
        0
176
     1
 90
        0
176
     1
290
     0
176
     1
 90
        5
176
     1
 40
0.0
176
     1
 90
        0
176
     1
290
     0
176
     1
290
     1
176
     1
290
     1
176
     1
290
     0
176
     1
290
     0
176
     1
290
     0
176
     1
290
     0
176
     1
290
     0
176
     1
290
     0
176
     1
 90
       50
176
     1
 40
0.0
176
     1
 40
1.0
176
     1
 90
        0
176
     1
 62
    18
176
     1
 90
       50
176
     1
 90
        3
176
     1
 62
     5
420
      255
176
     1
290
     0
176
     1
 90
       50
176
     1
 90
       50
176
     1
 90
       50
176
     1
290
     0
176
     1
 90
       50
176
     1
 62
   256
176
     0
 40
1.0
176
     0
 90
        2
176
     1
  1
strokes_ogs.tif
176
     1
290
     0
176
     1
 40
1.0
176
     1
 40
1.0
176
     1
  0
VISUALSTYLE
  5
57D7
102
{ACAD_REACTORS
330
57C6
102
}
330
57C6
100
AcDbVisualStyle
  2
Shades of Gray
 70
    23
177
     3
291
     0
 70
    58
 90
        2
176
     1
 90
        2
176
     1
 90
        3
176
     1
 90
        0
176
     1
 40
0.6
176
     1
 40
30.0
176
     1
 62
     7
176
     1
 90
        2
176
     1
 90
        2
176
     1
 62
     7
176
     1
 62
     7
176
     1
 90
        1
176
     1
 90
        1
176
     1
 40
40.0
176
     1
 90
        8
176
     1
 62
     7
176
     1
 40
1.0
176
     1
 90
        1
176
     1
 90
        6
176
     1
 90
        2
176
     1
 62
     7
176
     1
 90
        3
176
     1
 90
        0
176
     1
 90
        0
176
     1
290
     0
176
     1
 90
        1
176
     1
 40
0.0
176
     1
 90
        0
176
     1
290
     0
176
     1
290
     1
176
     1
290
     1
176
     1
290
     0
176
     1
290
     0
176
     1
290
     0
176
     1
290
     0
176
     1
290
     0
176
     1
290
     0
176
     1
 90
       50
176
     1
 40
0.0
176
     1
 40
1.0
176
     1
 90
        0
176
     1
 62
    18
176
     1
 90
       50
176
     1
 90
        3
176
     1
 62
     5
420
      255
176
     1
290
     0
176
     1
 90
       50
176
     1
 90
       50
176
     1
 90
       50
176
     1
290
     0
176
     1
 90
       50
176
     1
 62
   256
176
     0
 40
1.0
176
     0
 90
        2
176
     1
  1
strokes_ogs.tif
176
     1
290
     0
176
     1
 40
1.0
176
     1
 40
1.0
176
     1
  0
VISUALSTYLE
  5
57D8
102
{ACAD_REACTORS
330
57C6
102
}
330
57C6
100
AcDbVisualStyle
  2
Sketchy
 70
    24
177
     3
291
     0
 70
    58
 90
        1
176
     1
 90
        2
176
     1
 90
        2
176
     1
 90
        0
176
     1
 40
0.6
176
     1
 40
30.0
176
     1
 62
     7
176
     1
 90
        2
176
     1
 90
        2
176
     1
 62
     7
176
     1
 62
     7
176
     1
 90
        1
176
     1
 90
        1
176
     1
 40
40.0
176
     1
 90
       11
176
     1
 62
     7
176
     1
 40
1.0
176
     1
 90
        1
176
     1
 90
        6
176
     1
 90
        2
176
     1
 62
     7
176
     1
 90
        6
176
     1
 90
        0
176
     1
 90
        0
176
     1
290
     0
176
     1
 90
        1
176
     1
 40
0.0
176
     1
 90
        0
176
     1
290
     0
176
     1
290
     1
176
     1
290
     1
176
     1
290
     0
176
     1
290
     0
176
     1
290
     0
176
     1
290
     0
176
     1
290
     0
176
     1
290
     0
176
     1
 90
       50
176
     1
 40
0.0
176
     1
 40
1.0
176
     1
 90
        0
176
     1
 62
    18
176
     1
 90
       50
176
     1
 90
        3
176
     1
 62
     5
420
      255
176
     1
290
     0
176
     1
 90
       50
176
     1
 90
       50
176
     1
 90
       50
176
     1
290
     0
176
     1
 90
       50
176
     1
 62
   256
176
     0
 40
1.0
176
     0
 90
        2
176
     1
  1
strokes_ogs.tif
176
     1
290
     0
176
     1
 40
1.0
176
     1
 40
1.0
176
     1
  0
VISUALSTYLE
  5
57D3
102
{ACAD_REACTORS
330
57C6
102
}
330
57C6
100
AcDbVisualStyle
  2
Thicken
 70
    13
177
     3
291
     1
 70
    58
 90
        2
176
     1
 90
        2
176
     1
 90
        0
176
     1
 90
        0
176
     1
 40
0.6
176
     1
 40
30.0
176
     1
 62
     7
176
     1
 90
        1
176
     1
 90
        4
176
     1
 62
     7
176
     1
 62
   257
176
     1
 90
        1
176
     1
 90
        1
176
     1
 40
1.0
176
     1
 90
       12
176
     1
 62
     7
176
     1
 40
1.0
176
     1
 90
        1
176
     1
 90
        6
176
     1
 90
        2
176
     1
 62
     7
176
     1
 90
        5
176
     1
 90
        0
176
     1
 90
        0
176
     1
290
     0
176
     1
 90
        1
176
     1
 40
0.0
176
     1
 90
        0
176
     1
290
     0
176
     1
290
     1
176
     1
290
     1
176
     1
290
     0
176
     1
290
     0
176
     1
290
     0
176
     1
290
     0
176
     1
290
     0
176
     1
290
     0
176
     1
 90
       50
176
     1
 40
0.0
176
     1
 40
1.0
176
     1
 90
        0
176
     1
 62
    18
176
     1
 90
       50
176
     1
 90
        3
176
     1
 62
     5
420
      255
176
     1
290
     0
176
     1
 90
       50
176
     1
 90
       50
176
     1
 90
       50
176
     1
290
     0
176
     1
 90
       50
176
     1
 62
   256
176
     0
 40
1.0
176
     0
 90
        2
176
     1
  1
strokes_ogs.tif
176
     1
290
     0
176
     1
 40
1.0
176
     1
 40
1.0
176
     1
  0
VISUALSTYLE
  5
57CD
102
{ACAD_REACTORS
330
57C6
102
}
330
57C6
100
AcDbVisualStyle
  2
Wireframe
 70
     5
177
     3
291
     0
 70
    58
 90
        0
176
     1
 90
        2
176
     1
 90
        0
176
     1
 90
        0
176
     1
 40
0.6
176
     1
 40
30.0
176
     1
 62
     7
176
     1
 90
        1
176
     1
 90
        4
176
     1
 62
     7
176
     1
 62
   257
176
     1
 90
        1
176
     1
 90
        1
176
     1
 40
1.0
176
     1
 90
        0
176
     1
 62
   257
176
     1
 40
1.0
176
     1
 90
        1
176
     1
 90
        6
176
     1
 90
        2
176
     1
 62
     7
176
     1
 90
        3
176
     1
 90
        0
176
     1
 90
        0
176
     1
290
     0
176
     1
 90
        1
176
     1
 40
0.0
176
     1
 90
        0
176
     1
290
     0
176
     1
290
     1
176
     1
290
     1
176
     1
290
     0
176
     1
290
     0
176
     1
290
     0
176
     1
290
     0
176
     1
290
     0
176
     1
290
     0
176
     1
 90
       50
176
     1
 40
0.0
176
     1
 40
1.0
176
     1
 90
        0
176
     1
 62
    18
176
     1
 90
       50
176
     1
 90
        3
176
     1
 62
     5
420
      255
176
     1
290
     0
176
     1
 90
       50
176
     1
 90
       50
176
     1
 90
       50
176
     1
290
     0
176
     1
 90
       50
176
     1
 62
   256
176
     0
 40
1.0
176
     0
 90
        2
176
     1
  1
strokes_ogs.tif
176
     1
290
     0
176
     1
 40
1.0
176
     1
 40
1.0
176
     1
  0
VISUALSTYLE
  5
57D9
102
{ACAD_REACTORS
330
57C6
102
}
330
57C6
100
AcDbVisualStyle
  2
X-Ray
 70
    25
177
     3
291
     0
 70
    58
 90
        2
176
     1
 90
        2
176
     1
 90
        1
176
     1
 90
        1
176
     1
 40
0.5
176
     1
 40
30.0
176
     1
 62
     7
176
     1
 90
        1
176
     1
 90
        0
176
     1
 62
     7
176
     1
 62
   257
176
     1
 90
        1
176
     1
 90
        1
176
     1
 40
1.0
176
     1
 90
        8
176
     1
 62
     7
176
     1
 40
1.0
176
     1
 90
        1
176
     1
 90
        6
176
     1
 90
        2
176
     1
 62
     7
176
     1
 90
        3
176
     1
 90
        0
176
     1
 90
        0
176
     1
290
     0
176
     1
 90
       13
176
     1
 40
0.0
176
     1
 90
        0
176
     1
290
     0
176
     1
290
     1
176
     1
290
     1
176
     1
290
     0
176
     1
290
     0
176
     1
290
     0
176
     1
290
     0
176
     1
290
     0
176
     1
290
     0
176
     1
 90
       50
176
     1
 40
0.0
176
     1
 40
1.0
176
     1
 90
        0
176
     1
 62
    18
176
     1
 90
       50
176
     1
 90
        3
176
     1
 62
     5
420
      255
176
     1
290
     0
176
     1
 90
       50
176
     1
 90
       50
176
     1
 90
       50
176
     1
290
     0
176
     1
 90
       50
176
     1
 62
   256
176
     0
 40
1.0
176
     0
 90
        2
176
     1
  1
strokes_ogs.tif
176
     1
290
     0
176
     1
 40
1.0
176
     1
 40
1.0
176
     1
  0
DICTIONARYVAR
  5
587B
102
{ACAD_REACTORS
330
33
102
}
330
33
100
DictionaryVariables
280
     0
  1
1:1
  0
DICTIONARYVAR
  5
5878
102
{ACAD_REACTORS
330
33
102
}
330
33
100
DictionaryVariables
280
     0
  1
STANDARD
  0
DICTIONARYVAR
  5
5877
102
{ACAD_REACTORS
330
33
102
}
330
33
100
DictionaryVariables
280
     0
  1
STANDARD
  0
DICTIONARYVAR
  5
5879
102
{ACAD_REACTORS
330
33
102
}
330
33
100
DictionaryVariables
280
     0
  1
Metric50
  0
DICTIONARYVAR
  5
587A
102
{ACAD_REACTORS
330
33
102
}
330
33
100
DictionaryVariables
280
     0
  1
Metric50
  0
DICTIONARYVAR
  5
34
102
{ACAD_REACTORS
330
33
102
}
330
33
100
DictionaryVariables
280
     0
  1
0
  0
DICTIONARYVAR
  5
23F7
102
{ACAD_REACTORS
330
33
102
}
330
33
100
DictionaryVariables
280
     0
  1
1
  0
DICTIONARYVAR
  5
587C
102
{ACAD_REACTORS
330
33
102
}
330
33
100
DictionaryVariables
280
     0
  1
0
  0
DICTIONARYVAR
  5
A8BB
102
{ACAD_REACTORS
330
33
102
}
330
33
100
DictionaryVariables
280
     0
  1
1
  0
DICTIONARYVAR
  5
A8BC
102
{ACAD_REACTORS
330
33
102
}
330
33
100
DictionaryVariables
280
     0
  1
15
  0
DICTIONARYVAR
  5
A8BA
102
{ACAD_REACTORS
330
33
102
}
330
33
100
DictionaryVariables
280
     0
  1
0
  0
DICTIONARYVAR
  5
A8B9
102
{ACAD_REACTORS
330
33
102
}
330
33
100
DictionaryVariables
280
     0
  1
0
  0
DICTIONARYVAR
  5
1383
102
{ACAD_REACTORS
330
33
102
}
330
33
100
DictionaryVariables
280
     0
  1
96
  0
DICTIONARY
  5
AD8F
330
57F9
100
AcDbDictionary
280
     1
281
     1
  3
ACAD_XREC_ROUNDTRIP
360
ADA6
  0
DICTIONARY
  5
57B7
330
57B6
100
AcDbDictionary
280
     1
281
     1
  3
BUMPTILE
360
57B9
  3
DIFFUSETILE
360
57B8
  3
OPACITYTILE
360
57BC
  3
REFLECTIONTILE
360
57BB
  3
REFRACTIONTILE
360
57BD
  3
SPECULARTILE
360
57BA
  0
DICTIONARY
  5
57AF
330
57AE
100
AcDbDictionary
280
     1
281
     1
  3
BUMPTILE
360
57B1
  3
DIFFUSETILE
360
57B0
  3
OPACITYTILE
360
57B4
  3
REFLECTIONTILE
360
57B3
  3
REFRACTIONTILE
360
57B5
  3
SPECULARTILE
360
57B2
  0
DICTIONARY
  5
57BF
330
57BE
100
AcDbDictionary
280
     1
281
     1
  3
BUMPTILE
360
57C1
  3
DIFFUSETILE
360
57C0
  3
OPACITYTILE
360
57C4
  3
REFLECTIONTILE
360
57C3
  3
REFRACTIONTILE
360
57C5
  3
SPECULARTILE
360
57C2
  0
DICTIONARY
  5
AD8D
330
57F7
100
AcDbDictionary
280
     1
281
     1
  3
ACAD_XREC_ROUNDTRIP
360
ADA5
  0
DICTIONARY
  5
5822
330
57E1
100
AcDbDictionary
280
     1
281
     1
  3
ACAD_ROUNDTRIP_2008_TABLESTYLE_CELLSTYLEMAP
360
ADA4
  0
XRECORD
  5
ADA6
102
{ACAD_REACTORS
330
AD8F
102
}
330
AD8F
100
AcDbXrecord
280
     1
102
DISPLAYNAME
  1
Metric50
102
FLAGS
 90
        0
  0
XRECORD
  5
57B9
102
{ACAD_REACTORS
330
57B7
102
}
330
57B7
100
AcDbXrecord
280
     1
270
     1
271
     1
  0
XRECORD
  5
57B8
102
{ACAD_REACTORS
330
57B7
102
}
330
57B7
100
AcDbXrecord
280
     1
270
     1
271
     1
  0
XRECORD
  5
57BC
102
{ACAD_REACTORS
330
57B7
102
}
330
57B7
100
AcDbXrecord
280
     1
270
     1
271
     1
  0
XRECORD
  5
57BB
102
{ACAD_REACTORS
330
57B7
102
}
330
57B7
100
AcDbXrecord
280
     1
270
     1
271
     1
  0
XRECORD
  5
57BD
102
{ACAD_REACTORS
330
57B7
102
}
330
57B7
100
AcDbXrecord
280
     1
270
     1
271
     1
  0
XRECORD
  5
57BA
102
{ACAD_REACTORS
330
57B7
102
}
330
57B7
100
AcDbXrecord
280
     1
270
     1
271
     1
  0
XRECORD
  5
57B1
102
{ACAD_REACTORS
330
57AF
102
}
330
57AF
100
AcDbXrecord
280
     1
270
     1
271
     1
  0
XRECORD
  5
57B0
102
{ACAD_REACTORS
330
57AF
102
}
330
57AF
100
AcDbXrecord
280
     1
270
     1
271
     1
  0
XRECORD
  5
57B4
102
{ACAD_REACTORS
330
57AF
102
}
330
57AF
100
AcDbXrecord
280
     1
270
     1
271
     1
  0
XRECORD
  5
57B3
102
{ACAD_REACTORS
330
57AF
102
}
330
57AF
100
AcDbXrecord
280
     1
270
     1
271
     1
  0
XRECORD
  5
57B5
102
{ACAD_REACTORS
330
57AF
102
}
330
57AF
100
AcDbXrecord
280
     1
270
     1
271
     1
  0
XRECORD
  5
57B2
102
{ACAD_REACTORS
330
57AF
102
}
330
57AF
100
AcDbXrecord
280
     1
270
     1
271
     1
  0
XRECORD
  5
57C1
102
{ACAD_REACTORS
330
57BF
102
}
330
57BF
100
AcDbXrecord
280
     1
270
     1
271
     1
  0
XRECORD
  5
57C0
102
{ACAD_REACTORS
330
57BF
102
}
330
57BF
100
AcDbXrecord
280
     1
270
     1
271
     1
  0
XRECORD
  5
57C4
102
{ACAD_REACTORS
330
57BF
102
}
330
57BF
100
AcDbXrecord
280
     1
270
     1
271
     1
  0
XRECORD
  5
57C3
102
{ACAD_REACTORS
330
57BF
102
}
330
57BF
100
AcDbXrecord
280
     1
270
     1
271
     1
  0
XRECORD
  5
57C5
102
{ACAD_REACTORS
330
57BF
102
}
330
57BF
100
AcDbXrecord
280
     1
270
     1
271
     1
  0
XRECORD
  5
57C2
102
{ACAD_REACTORS
330
57BF
102
}
330
57BF
100
AcDbXrecord
280
     1
270
     1
271
     1
  0
XRECORD
  5
ADA5
102
{ACAD_REACTORS
330
AD8D
102
}
330
AD8D
100
AcDbXrecord
280
     1
102
DISPLAYNAME
  1
Metric50
102
FLAGS
 90
        0
  0
CELLSTYLEMAP
  5
ADA4
102
{ACAD_REACTORS
330
5822
102
}
330
5822
100
AcDbCellStyleMap
 90
        3
300
CELLSTYLE
  1
TABLEFORMAT_BEGIN
 90
        5
170
     1
 91
        0
 92
    32768
 62
   257
 93
        1
300
CONTENTFORMAT
  1
CONTENTFORMAT_BEGIN
 90
        0
 91
        0
 92
      512
 93
        0
300

 40
0.0
140
1.0
 94
        5
 62
     0
340
F
144
6.0
309
CONTENTFORMAT_END
171
     1
301
MARGIN
  1
CELLMARGIN_BEGIN
 40
1.5
 40
1.5
 40
1.5
 40
1.5
 40
0.18
 40
0.18
309
CELLMARGIN_END
 94
        6
 95
        1
302
GRIDFORMAT
  1
GRIDFORMAT_BEGIN
 90
        0
 91
        1
 62
     0
 92
       -2
340
0
 93
        0
 40
1.125
309
GRIDFORMAT_END
 95
        2
302
GRIDFORMAT
  1
GRIDFORMAT_BEGIN
 90
        0
 91
        1
 62
     0
 92
       -2
340
0
 93
        0
 40
1.125
309
GRIDFORMAT_END
 95
        4
302
GRIDFORMAT
  1
GRIDFORMAT_BEGIN
 90
        0
 91
        1
 62
     0
 92
       -2
340
0
 93
        0
 40
1.125
309
GRIDFORMAT_END
 95
        8
302
GRIDFORMAT
  1
GRIDFORMAT_BEGIN
 90
        0
 91
        1
 62
     0
 92
       -2
340
0
 93
        0
 40
1.125
309
GRIDFORMAT_END
 95
       16
302
GRIDFORMAT
  1
GRIDFORMAT_BEGIN
 90
        0
 91
        1
 62
     0
 92
       -2
340
0
 93
        0
 40
1.125
309
GRIDFORMAT_END
 95
       32
302
GRIDFORMAT
  1
GRIDFORMAT_BEGIN
 90
        0
 91
        1
 62
     0
 92
       -2
340
0
 93
        0
 40
1.125
309
GRIDFORMAT_END
309
TABLEFORMAT_END
  1
CELLSTYLE_BEGIN
 90
        1
 91
        1
300
_TITLE
309
CELLSTYLE_END
300
CELLSTYLE
  1
TABLEFORMAT_BEGIN
 90
        5
170
     1
 91
        0
 92
        0
 62
   257
 93
        1
300
CONTENTFORMAT
  1
CONTENTFORMAT_BEGIN
 90
        0
 91
        0
 92
      512
 93
        0
300

 40
0.0
140
1.0
 94
        5
 62
     0
340
F
144
4.5
309
CONTENTFORMAT_END
171
     1
301
MARGIN
  1
CELLMARGIN_BEGIN
 40
1.5
 40
1.5
 40
1.5
 40
1.5
 40
0.18
 40
0.18
309
CELLMARGIN_END
 94
        6
 95
        1
302
GRIDFORMAT
  1
GRIDFORMAT_BEGIN
 90
        0
 91
        1
 62
     0
 92
       -2
340
0
 93
        0
 40
1.125
309
GRIDFORMAT_END
 95
        2
302
GRIDFORMAT
  1
GRIDFORMAT_BEGIN
 90
        0
 91
        1
 62
     0
 92
       -2
340
0
 93
        0
 40
1.125
309
GRIDFORMAT_END
 95
        4
302
GRIDFORMAT
  1
GRIDFORMAT_BEGIN
 90
        0
 91
        1
 62
     0
 92
       -2
340
0
 93
        0
 40
1.125
309
GRIDFORMAT_END
 95
        8
302
GRIDFORMAT
  1
GRIDFORMAT_BEGIN
 90
        0
 91
        1
 62
     0
 92
       -2
340
0
 93
        0
 40
1.125
309
GRIDFORMAT_END
 95
       16
302
GRIDFORMAT
  1
GRIDFORMAT_BEGIN
 90
        0
 91
        1
 62
     0
 92
       -2
340
0
 93
        0
 40
1.125
309
GRIDFORMAT_END
 95
       32
302
GRIDFORMAT
  1
GRIDFORMAT_BEGIN
 90
        0
 91
        1
 62
     0
 92
       -2
340
0
 93
        0
 40
1.125
309
GRIDFORMAT_END
309
TABLEFORMAT_END
  1
CELLSTYLE_BEGIN
 90
        2
 91
        1
300
_HEADER
309
CELLSTYLE_END
300
CELLSTYLE
  1
TABLEFORMAT_BEGIN
 90
        5
170
     1
 91
        0
 92
        0
 62
   257
 93
        1
300
CONTENTFORMAT
  1
CONTENTFORMAT_BEGIN
 90
        0
 91
        0
 92
      512
 93
        0
300

 40
0.0
140
1.0
 94
        2
 62
     0
340
F
144
4.5
309
CONTENTFORMAT_END
171
     1
301
MARGIN
  1
CELLMARGIN_BEGIN
 40
1.5
 40
1.5
 40
1.5
 40
1.5
 40
0.18
 40
0.18
309
CELLMARGIN_END
 94
        6
 95
        1
302
GRIDFORMAT
  1
GRIDFORMAT_BEGIN
 90
        0
 91
        1
 62
     0
 92
       -2
340
0
 93
        0
 40
1.125
309
GRIDFORMAT_END
 95
        2
302
GRIDFORMAT
  1
GRIDFORMAT_BEGIN
 90
        0
 91
        1
 62
     0
 92
       -2
340
0
 93
        0
 40
1.125
309
GRIDFORMAT_END
 95
        4
302
GRIDFORMAT
  1
GRIDFORMAT_BEGIN
 90
        0
 91
        1
 62
     0
 92
       -2
340
0
 93
        0
 40
1.125
309
GRIDFORMAT_END
 95
        8
302
GRIDFORMAT
  1
GRIDFORMAT_BEGIN
 90
        0
 91
        1
 62
     0
 92
       -2
340
0
 93
        0
 40
1.125
309
GRIDFORMAT_END
 95
       16
302
GRIDFORMAT
  1
GRIDFORMAT_BEGIN
 90
        0
 91
        1
 62
     0
 92
       -2
340
0
 93
        0
 40
1.125
309
GRIDFORMAT_END
 95
       32
302
GRIDFORMAT
  1
GRIDFORMAT_BEGIN
 90
        0
 91
        1
 62
     0
 92
       -2
340
0
 93
        0
 40
1.125
309
GRIDFORMAT_END
309
TABLEFORMAT_END
  1
CELLSTYLE_BEGIN
 90
        3
 91
        2
300
_DATA
309
CELLSTYLE_END
  0
ENDSEC
  0
EOF
