  0
SECTION
  2
HEADER
  9
$ACADVER
  1
AC1027
  9
$ACADMAINTVER
 70
    55
  9
$DWGCODEPAGE
  3
ANSI_932
  9
$LASTSAVEDBY
  1
User
  9
$REQUIREDVERSIONS
160
                 0
  9
$INSBASE
 10
0.0000094929055194
 20
-0.0000021391570044
 30
0.0
  9
$EXTMIN
 10
2311.23615546247
 20
562.4924845548376
 30
-0.0000000000032625
  9
$EXTMAX
 10
2856.136630593066
 20
972.7674720400109
 30
0.0000000000027371
  9
$LIMMIN
 10
0.0000094929055194
 20
0.0
  9
$LIMMAX
 10
408.1800094929055
 20
285.2399978608428
  9
$ORTHOMODE
 70
     0
  9
$REGENMODE
 70
     1
  9
$FILLMODE
 70
     1
  9
$QTEXTMODE
 70
     0
  9
$MIRRTEXT
 70
     0
  9
$LTSCALE
 40
10.0
  9
$ATTMODE
 70
     1
  9
$TEXTSIZE
 40
3.0
  9
$TRACEWID
 40
1.0
  9
$TEXTSTYLE
  7
STANDARD
  9
$CLAYER
  8
1：主線
  9
$CELTYPE
  6
BYLAYER
  9
$CECOLOR
 62
   256
  9
$CELTSCALE
 40
1.0
  9
$DISPSILH
 70
     0
  9
$DIMSCALE
 40
4.0
  9
$DIMASZ
 40
2.5
  9
$DIMEXO
 40
1.25
  9
$DIMDLI
 40
7.0
  9
$DIMRND
 40
0.0
  9
$DIMDLE
 40
0.0
  9
$DIMEXE
 40
1.25
  9
$DIMTP
 40
0.0
  9
$DIMTM
 40
0.0
  9
$DIMTXT
 40
3.0
  9
$DIMCEN
 40
3.0
  9
$DIMTSZ
 40
0.0
  9
$DIMTOL
 70
     0
  9
$DIMLIM
 70
     0
  9
$DIMTIH
 70
     0
  9
$DIMTOH
 70
     0
  9
$DIMSE1
 70
     0
  9
$DIMSE2
 70
     0
  9
$DIMTAD
 70
     3
  9
$DIMZIN
 70
     8
  9
$DIMBLK
  1

  9
$DIMASO
 70
     1
  9
$DIMSHO
 70
     1
  9
$DIMPOST
  1

  9
$DIMAPOST
  1

  9
$DIMALT
 70
     0
  9
$DIMALTD
 70
     2
  9
$DIMALTF
 40
25.4
  9
$DIMLFAC
 40
1.0
  9
$DIMTOFL
 70
     1
  9
$DIMTVP
 40
0.0
  9
$DIMTIX
 70
     0
  9
$DIMSOXD
 70
     0
  9
$DIMSAH
 70
     1
  9
$DIMBLK1
  1
OPEN
  9
$DIMBLK2
  1
OPEN
  9
$DIMSTYLE
  2
STANDARD
  9
$DIMCLRD
 70
     1
  9
$DIMCLRE
 70
     1
  9
$DIMCLRT
 70
     2
  9
$DIMTFAC
 40
1.0
  9
$DIMGAP
 40
1.0
  9
$DIMJUST
 70
     0
  9
$DIMSD1
 70
     0
  9
$DIMSD2
 70
     0
  9
$DIMTOLJ
 70
     1
  9
$DIMTZIN
 70
     0
  9
$DIMALTZ
 70
     0
  9
$DIMALTTZ
 70
     0
  9
$DIMUPT
 70
     0
  9
$DIMDEC
 70
     1
  9
$DIMTDEC
 70
     1
  9
$DIMALTU
 70
     2
  9
$DIMALTTD
 70
     2
  9
$DIMTXSTY
  7
STANDARD
  9
$DIMAUNIT
 70
     0
  9
$DIMADEC
 70
     2
  9
$DIMALTRND
 40
0.0
  9
$DIMAZIN
 70
     2
  9
$DIMDSEP
 70
    46
  9
$DIMATFIT
 70
     3
  9
$DIMFRAC
 70
     0
  9
$DIMLDRBLK
  1
OPEN
  9
$DIMLUNIT
 70
     2
  9
$DIMLWD
 70
    -2
  9
$DIMLWE
 70
    -2
  9
$DIMTMOVE
 70
     0
  9
$DIMFXL
 40
1.0
  9
$DIMFXLON
 70
     0
  9
$DIMJOGANG
 40
0.7853981633974483
  9
$DIMTFILL
 70
     0
  9
$DIMTFILLCLR
 70
     0
  9
$DIMARCSYM
 70
     0
  9
$DIMLTYPE
  6

  9
$DIMLTEX1
  6

  9
$DIMLTEX2
  6

  9
$DIMTXTDIRECTION
 70
     0
  9
$LUNITS
 70
     2
  9
$LUPREC
 70
     4
  9
$SKETCHINC
 40
1.0
  9
$FILLETRAD
 40
10.0
  9
$AUNITS
 70
     0
  9
$AUPREC
 70
     0
  9
$MENU
  1
acad
  9
$ELEVATION
 40
0.0
  9
$PELEVATION
 40
0.0
  9
$THICKNESS
 40
0.0
  9
$LIMCHECK
 70
     0
  9
$CHAMFERA
 40
10.0
  9
$CHAMFERB
 40
10.0
  9
$CHAMFERC
 40
20.0
  9
$CHAMFERD
 40
0.0
  9
$SKPOLY
 70
     0
  9
$TDCREATE
 40
2455971.778741852
  9
$TDUCREATE
 40
2455971.403741852
  9
$TDUPDATE
 40
2459249.443169896
  9
$TDUUPDATE
 40
2459249.068169896
  9
$TDINDWG
 40
0.4375589120
  9
$TDUSRTIMER
 40
0.4375586806
  9
$USRTIMER
 70
     1
  9
$ANGBASE
 50
0.0
  9
$ANGDIR
 70
     0
  9
$PDMODE
 70
     0
  9
$PDSIZE
 40
0.0
  9
$PLINEWID
 40
0.0
  9
$SPLFRAME
 70
     0
  9
$SPLINETYPE
 70
     6
  9
$SPLINESEGS
 70
     8
  9
$HANDSEED
  5
D31E
  9
$SURFTAB1
 70
     6
  9
$SURFTAB2
 70
     6
  9
$SURFTYPE
 70
     6
  9
$SURFU
 70
     6
  9
$SURFV
 70
     6
  9
$UCSBASE
  2

  9
$UCSNAME
  2

  9
$UCSORG
 10
0.0
 20
0.0
 30
0.0
  9
$UCSXDIR
 10
1.0
 20
0.0
 30
0.0
  9
$UCSYDIR
 10
0.0
 20
1.0
 30
0.0
  9
$UCSORTHOREF
  2

  9
$UCSORTHOVIEW
 70
     0
  9
$UCSORGTOP
 10
0.0
 20
0.0
 30
0.0
  9
$UCSORGBOTTOM
 10
0.0
 20
0.0
 30
0.0
  9
$UCSORGLEFT
 10
0.0
 20
0.0
 30
0.0
  9
$UCSORGRIGHT
 10
0.0
 20
0.0
 30
0.0
  9
$UCSORGFRONT
 10
0.0
 20
0.0
 30
0.0
  9
$UCSORGBACK
 10
0.0
 20
0.0
 30
0.0
  9
$PUCSBASE
  2

  9
$PUCSNAME
  2

  9
$PUCSORG
 10
0.0
 20
0.0
 30
0.0
  9
$PUCSXDIR
 10
1.0
 20
0.0
 30
0.0
  9
$PUCSYDIR
 10
0.0
 20
1.0
 30
0.0
  9
$PUCSORTHOREF
  2

  9
$PUCSORTHOVIEW
 70
     0
  9
$PUCSORGTOP
 10
0.0
 20
0.0
 30
0.0
  9
$PUCSORGBOTTOM
 10
0.0
 20
0.0
 30
0.0
  9
$PUCSORGLEFT
 10
0.0
 20
0.0
 30
0.0
  9
$PUCSORGRIGHT
 10
0.0
 20
0.0
 30
0.0
  9
$PUCSORGFRONT
 10
0.0
 20
0.0
 30
0.0
  9
$PUCSORGBACK
 10
0.0
 20
0.0
 30
0.0
  9
$USERI1
 70
     0
  9
$USERI2
 70
     0
  9
$USERI3
 70
     0
  9
$USERI4
 70
     0
  9
$USERI5
 70
     0
  9
$USERR1
 40
0.0
  9
$USERR2
 40
0.0
  9
$USERR3
 40
0.0
  9
$USERR4
 40
0.0
  9
$USERR5
 40
0.0
  9
$WORLDVIEW
 70
     1
  9
$SHADEDGE
 70
     3
  9
$SHADEDIF
 70
    70
  9
$TILEMODE
 70
     1
  9
$MAXACTVP
 70
    48
  9
$PINSBASE
 10
0.0
 20
0.0
 30
0.0
  9
$PLIMCHECK
 70
     0
  9
$PEXTMIN
 10
1.000000000000000E+20
 20
1.000000000000000E+20
 30
1.000000000000000E+20
  9
$PEXTMAX
 10
-1.000000000000000E+20
 20
-1.000000000000000E+20
 30
-1.000000000000000E+20
  9
$PLIMMIN
 10
0.0
 20
0.0
  9
$PLIMMAX
 10
420.0
 20
297.0
  9
$UNITMODE
 70
     0
  9
$VISRETAIN
 70
     1
  9
$PLINEGEN
 70
     0
  9
$PSLTSCALE
 70
     1
  9
$TREEDEPTH
 70
  3020
  9
$CMLSTYLE
  2
STANDARD
  9
$CMLJUST
 70
     0
  9
$CMLSCALE
 40
20.0
  9
$PROXYGRAPHICS
 70
     1
  9
$MEASUREMENT
 70
     1
  9
$CELWEIGHT
370
    -1
  9
$ENDCAPS
280
     0
  9
$JOINSTYLE
280
     0
  9
$LWDISPLAY
290
     0
  9
$INSUNITS
 70
     0
  9
$HYPERLINKBASE
  1

  9
$STYLESHEET
  1
TAGAI1.CTB
  9
$XEDIT
290
     1
  9
$CEPSNTYPE
380
     0
  9
$PSTYLEMODE
290
     1
  9
$FINGERPRINTGUID
  2
{8B4E85C4-259A-11D8-AF91-00C04F101805}
  9
$VERSIONGUID
  2
{FBCE452E-D8D1-42D5-B837-B1CEBD9B1BD6}
  9
$EXTNAMES
290
     1
  9
$PSVPSCALE
 40
0.0
  9
$OLESTARTUP
290
     0
  9
$SORTENTS
280
    96
  9
$INDEXCTL
280
     0
  9
$HIDETEXT
280
     0
  9
$XCLIPFRAME
280
     2
  9
$HALOGAP
280
     0
  9
$OBSCOLOR
 70
   257
  9
$OBSLTYPE
280
     0
  9
$INTERSECTIONDISPLAY
280
     0
  9
$INTERSECTIONCOLOR
 70
   257
  9
$DIMASSOC
280
     1
  9
$PROJECTNAME
  1

  9
$CAMERADISPLAY
290
     0
  9
$LENSLENGTH
 40
50.0
  9
$CAMERAHEIGHT
 40
0.0
  9
$STEPSPERSEC
 40
2.0
  9
$STEPSIZE
 40
6.0
  9
$3DDWFPREC
 40
2.0
  9
$PSOLWIDTH
 40
0.25
  9
$PSOLHEIGHT
 40
4.0
  9
$LOFTANG1
 40
1.570796326794896
  9
$LOFTANG2
 40
1.570796326794896
  9
$LOFTMAG1
 40
0.0
  9
$LOFTMAG2
 40
0.0
  9
$LOFTPARAM
 70
     7
  9
$LOFTNORMALS
280
     1
  9
$LATITUDE
 40
37.795
  9
$LONGITUDE
 40
-122.394
  9
$NORTHDIRECTION
 40
0.0
  9
$TIMEZONE
 70
 -8000
  9
$LIGHTGLYPHDISPLAY
280
     1
  9
$TILEMODELIGHTSYNCH
280
     1
  9
$CMATERIAL
347
57AE
  9
$SOLIDHIST
280
     0
  9
$SHOWHIST
280
     1
  9
$DWFFRAME
280
     2
  9
$DGNFRAME
280
     0
  9
$REALWORLDSCALE
290
     1
  9
$INTERFERECOLOR
 62
     1
  9
$INTERFEREOBJVS
345
57D0
  9
$INTERFEREVPVS
346
57CD
  9
$CSHADOW
280
     0
  9
$SHADOWPLANELOCATION
 40
0.0
  0
ENDSEC
  0
SECTION
  2
CLASSES
  0
CLASS
  1
DICTIONARYVAR
  2
AcDbDictionaryVar
  3
ObjectDBX Classes
 90
        0
 91
       13
280
     0
281
     0
  0
CLASS
  1
ACDBDICTIONARYWDFLT
  2
AcDbDictionaryWithDefault
  3
ObjectDBX Classes
 90
        0
 91
        1
280
     0
281
     0
  0
CLASS
  1
PLOTSETTINGS
  2
AcDbPlotSettings
  3
ObjectDBX Classes
 90
        0
 91
        6
280
     0
281
     0
  0
CLASS
  1
MATERIAL
  2
AcDbMaterial
  3
ObjectDBX Classes
 90
     1153
 91
        3
280
     0
281
     0
  0
CLASS
  1
VISUALSTYLE
  2
AcDbVisualStyle
  3
ObjectDBX Classes
 90
     4095
 91
       24
280
     0
281
     0
  0
CLASS
  1
TABLESTYLE
  2
AcDbTableStyle
  3
ObjectDBX Classes
 90
     4095
 91
        1
280
     0
281
     0
  0
CLASS
  1
SCALE
  2
AcDbScale
  3
ObjectDBX Classes
 90
     1153
 91
       17
280
     0
281
     0
  0
CLASS
  1
MLEADERSTYLE
  2
AcDbMLeaderStyle
  3
ACDB_MLEADERSTYLE_CLASS
 90
     4095
 91
        1
280
     0
281
     0
  0
CLASS
  1
ACDBSECTIONVIEWSTYLE
  2
AcDbSectionViewStyle
  3
ObjectDBX Classes
 90
     1025
 91
        2
280
     0
281
     0
  0
CLASS
  1
ACDBDETAILVIEWSTYLE
  2
AcDbDetailViewStyle
  3
ObjectDBX Classes
 90
     1025
 91
        2
280
     0
281
     0
  0
CLASS
  1
CELLSTYLEMAP
  2
AcDbCellStyleMap
  3
ObjectDBX Classes
 90
     1152
 91
        4
280
     0
281
     0
  0
CLASS
  1
SORTENTSTABLE
  2
AcDbSortentsTable
  3
ObjectDBX Classes
 90
        0
 91
        3
280
     0
281
     0
  0
CLASS
  1
LARGE_RADIAL_DIMENSION
  2
AcDbRadialDimensionLarge
  3
ObjectDBX Classes
 90
     1025
 91
        0
280
     0
281
     1
  0
ENDSEC
  0
SECTION
  2
TABLES
  0
TABLE
  2
VPORT
  5
8
102
{ACAD_XDICTIONARY
360
5826
102
}
330
0
100
AcDbSymbolTable
 70
     1
  0
VPORT
  5
57AB
330
8
100
AcDbSymbolTableRecord
100
AcDbViewportTableRecord
  2
*Active
 70
     0
 10
0.0
 20
0.0
 11
1.0
 21
1.0
 12
2583.686393027768
 22
767.6299782974242
 13
0.0
 23
0.0
 14
10.0
 24
10.0
 15
10.0
 25
10.0
 16
0.0
 26
0.0
 36
1.0
 17
0.0
 27
0.0
 37
0.0
 40
413.363632309403
 41
1.865577889447236
 42
50.0
 43
0.0
 44
0.0
 50
0.0
 51
0.0
 71
     0
 72
   100
 73
     1
 74
     1
 75
     0
 76
     0
 77
     0
 78
     0
281
     0
 65
     1
110
0.0
120
0.0
130
0.0
111
1.0
121
0.0
131
0.0
112
0.0
122
1.0
132
0.0
 79
     0
146
0.0
348
57CC
 60
     3
 61
     5
292
     1
282
     1
141
0.0
142
0.0
 63
   250
421
  3355443
1001
ACAD_NAV_VCDISPLAY
1070
     3
  0
ENDTAB
  0
TABLE
  2
LTYPE
  5
5
330
0
100
AcDbSymbolTable
 70
     5
  0
LTYPE
  5
12
330
5
100
AcDbSymbolTableRecord
100
AcDbLinetypeTableRecord
  2
BYBLOCK
 70
     0
  3

 72
    65
 73
     0
 40
0.0
  0
LTYPE
  5
13
330
5
100
AcDbSymbolTableRecord
100
AcDbLinetypeTableRecord
  2
BYLAYER
 70
     0
  3

 72
    65
 73
     0
 40
0.0
  0
LTYPE
  5
14
330
5
100
AcDbSymbolTableRecord
100
AcDbLinetypeTableRecord
  2
CONTINUOUS
 70
     0
  3
Solid line
 72
    65
 73
     0
 40
0.0
  0
ENDTAB
  0
TABLE
  2
LAYER
  5
2
102
{ACAD_XDICTIONARY
360
2886
102
}
330
0
100
AcDbSymbolTable
 70
    17
  0
LAYER
  5
E
102
{ACAD_XDICTIONARY
360
5800
102
}
330
2
100
AcDbSymbolTableRecord
100
AcDbLayerTableRecord
  2
0
 70
     0
 62
     7
  6
CONTINUOUS
370
    -3
390
75D
347
57BE
348
0
  0
LAYER
  5
32B
330
2
100
AcDbSymbolTableRecord
100
AcDbLayerTableRecord
  2
DEFPOINTS
 70
     0
 62
     7
  6
CONTINUOUS
290
     0
370
    -3
390
75D
347
57BE
348
0
  0
LAYER
  5
32C
102
{ACAD_XDICTIONARY
360
5804
102
}
330
2
100
AcDbSymbolTableRecord
100
AcDbLayerTableRecord
  2
OBJECT1
 70
     0
 62
     7
  6
CONTINUOUS
370
    -3
390
75D
347
57BE
348
0
  0
LAYER
  5
796B
102
{ACAD_XDICTIONARY
360
796C
102
}
330
2
100
AcDbSymbolTableRecord
100
AcDbLayerTableRecord
  2
OBJECT2
 70
     0
 62
     5
  6
CONTINUOUS
370
    -3
390
75D
347
57BE
348
0
  0
LAYER
  5
D0AE
102
{ACAD_XDICTIONARY
360
D0AF
102
}
330
2
100
AcDbSymbolTableRecord
100
AcDbLayerTableRecord
  2
1：主線
 70
     0
 62
     7
  6
CONTINUOUS
370
    -3
390
75D
347
57BE
348
0
  0
LAYER
  5
D0DD
102
{ACAD_XDICTIONARY
360
D0DE
102
}
330
2
100
AcDbSymbolTableRecord
100
AcDbLayerTableRecord
  2
7：文字
 70
     0
 62
     2
  6
CONTINUOUS
370
    -3
390
75D
347
57BE
348
0
  0
ENDTAB
  0
TABLE
  2
STYLE
  5
3
330
0
100
AcDbSymbolTable
 70
     4
  0
STYLE
  5
F
330
3
100
AcDbSymbolTableRecord
100
AcDbTextStyleTableRecord
  2
STANDARD
 70
     0
 40
0.0
 41
1.0
 50
0.0
 71
     0
 42
3.0
  3
isocp.shx
  4
bigfont.shx
  0
ENDTAB
  0
TABLE
  2
VIEW
  5
6
330
0
100
AcDbSymbolTable
 70
     2
  0
ENDTAB
  0
TABLE
  2
UCS
  5
7
330
0
100
AcDbSymbolTable
 70
     0
  0
ENDTAB
  0
TABLE
  2
APPID
  5
9
330
0
100
AcDbSymbolTable
 70
    20
  0
APPID
  5
10
330
9
100
AcDbSymbolTableRecord
100
AcDbRegAppTableRecord
  2
ACAD
 70
     0
  0
APPID
  5
24
330
9
100
AcDbSymbolTableRecord
100
AcDbRegAppTableRecord
  2
CONTENTTABDATA
 70
     0
  0
APPID
  5
25
330
9
100
AcDbSymbolTableRecord
100
AcDbRegAppTableRecord
  2
CONTENTCURRENTTAB
 70
     0
  0
APPID
  5
469D
330
9
100
AcDbSymbolTableRecord
100
AcDbRegAppTableRecord
  2
GENIUS_GENODEF_13
 70
     0
  0
APPID
  5
469E
330
9
100
AcDbSymbolTableRecord
100
AcDbRegAppTableRecord
  2
GENIUS_GENOBJ-N-REC_13
 70
     0
  0
APPID
  5
469F
330
9
100
AcDbSymbolTableRecord
100
AcDbRegAppTableRecord
  2
GENIUS_GENREC_14
 70
     0
  0
APPID
  5
5820
330
9
100
AcDbSymbolTableRecord
100
AcDbRegAppTableRecord
  2
ACAD_PSEXT
 70
     0
  0
APPID
  5
5821
330
9
100
AcDbSymbolTableRecord
100
AcDbRegAppTableRecord
  2
ACAD_NAV_VCDISPLAY
 70
     0
  0
APPID
  5
5870
330
9
100
AcDbSymbolTableRecord
100
AcDbRegAppTableRecord
  2
ACAD_MLEADERVER
 70
     0
  0
APPID
  5
58E3
330
9
100
AcDbSymbolTableRecord
100
AcDbRegAppTableRecord
  2
ACAD_EXEMPT_FROM_CAD_STANDARDS
 70
     0
  0
APPID
  5
60EC
330
9
100
AcDbSymbolTableRecord
100
AcDbRegAppTableRecord
  2
ACAD_DSTYLE_DIMBREAK
 70
     0
  0
APPID
  5
60ED
330
9
100
AcDbSymbolTableRecord
100
AcDbRegAppTableRecord
  2
ACAD_DSTYLE_DIMJAG
 70
     0
  0
APPID
  5
60EE
330
9
100
AcDbSymbolTableRecord
100
AcDbRegAppTableRecord
  2
ACAD_DSTYLE_DIMTALN
 70
     0
  0
APPID
  5
6C6A
330
9
100
AcDbSymbolTableRecord
100
AcDbRegAppTableRecord
  2
AcadAnnoMonitorAlertIconDisabled
 70
     0
  0
APPID
  5
6E52
330
9
100
AcDbSymbolTableRecord
100
AcDbRegAppTableRecord
  2
ACAD_DSTYLE_DIMRADIAL_EXTENSION
 70
     0
  0
APPID
  5
7970
330
9
100
AcDbSymbolTableRecord
100
AcDbRegAppTableRecord
  2
AcAecLayerStandard
 70
     0
  0
APPID
  5
7971
330
9
100
AcDbSymbolTableRecord
100
AcDbRegAppTableRecord
  2
AcCmTransparency
 70
     0
  0
APPID
  5
7972
330
9
100
AcDbSymbolTableRecord
100
AcDbRegAppTableRecord
  2
GradientColor1ACI
 70
     0
  0
APPID
  5
7973
330
9
100
AcDbSymbolTableRecord
100
AcDbRegAppTableRecord
  2
GradientColor2ACI
 70
     0
  0
APPID
  5
9B48
330
9
100
AcDbSymbolTableRecord
100
AcDbRegAppTableRecord
  2
AcDbDynamicBlockGUID
 70
     0
  0
ENDTAB
  0
TABLE
  2
DIMSTYLE
  5
A
330
0
100
AcDbSymbolTable
 70
     7
100
AcDbDimStyleTable
 71
     1
340
1D
  0
DIMSTYLE
105
1D
330
A
100
AcDbSymbolTableRecord
100
AcDbDimStyleTableRecord
  2
STANDARD
 70
     0
 41
2.5
 42
1.25
 43
7.0
 44
1.25
 73
     0
 74
     0
 77
     3
 78
     8
 79
     2
140
3.0
141
3.0
147
1.0
172
     1
173
     1
176
     1
177
     1
178
     2
179
     2
271
     2
272
     2
289
     0
340
F
341
36
343
36
344
36
  0
ENDTAB
  0
TABLE
  2
BLOCK_RECORD
  5
1
330
0
100
AcDbSymbolTable
 70
    23
  0
BLOCK_RECORD
  5
18
102
{ACAD_XDICTIONARY
360
5B07
102
}
330
1
100
AcDbSymbolTableRecord
100
AcDbBlockTableRecord
  2
*MODEL_SPACE
340
760
 70
     0
280
     1
281
     0
  0
BLOCK_RECORD
  5
15
330
1
100
AcDbSymbolTableRecord
100
AcDbBlockTableRecord
  2
*PAPER_SPACE
340
761
 70
     0
280
     1
281
     0
  0
BLOCK_RECORD
  5
36
330
1
100
AcDbSymbolTableRecord
100
AcDbBlockTableRecord
  2
_OPEN
340
0
 70
     0
280
     1
281
     0
  0
ENDTAB
  0
ENDSEC
  0
SECTION
  2
BLOCKS
  0
BLOCK
  5
19
330
18
100
AcDbEntity
  8
0
100
AcDbBlockBegin
  2
*MODEL_SPACE
 70
     0
 10
0.0
 20
0.0
 30
0.0
  3
*MODEL_SPACE
  1

  0
ENDBLK
  5
1A
330
18
100
AcDbEntity
  8
0
100
AcDbBlockEnd
  0
BLOCK
  5
16
330
15
100
AcDbEntity
 67
     1
  8
0
100
AcDbBlockBegin
  2
*PAPER_SPACE
 70
     0
 10
0.0
 20
0.0
 30
0.0
  3
*PAPER_SPACE
  1

  0
ENDBLK
  5
17
330
15
100
AcDbEntity
 67
     1
  8
0
100
AcDbBlockEnd
  0
BLOCK
  5
3A
330
36
100
AcDbEntity
  8
0
 48
0.3
100
AcDbBlockBegin
  2
_OPEN
 70
     0
 10
0.0
 20
0.0
 30
0.0
  3
_OPEN
  1

  0
LINE
  5
37
330
36
100
AcDbEntity
  8
0
  6
ByBlock
 62
     0
 48
0.3
100
AcDbLine
 10
-1.0
 20
0.1666666666666666
 30
0.0
 11
0.0
 21
0.0
 31
0.0
  0
LINE
  5
38
330
36
100
AcDbEntity
  8
0
  6
ByBlock
 62
     0
 48
0.3
100
AcDbLine
 10
0.0
 20
0.0
 30
0.0
 11
-1.0
 21
-0.1666666666666666
 31
0.0
  0
LINE
  5
39
330
36
100
AcDbEntity
  8
0
  6
ByBlock
 62
     0
 48
0.3
100
AcDbLine
 10
0.0
 20
0.0
 30
0.0
 11
-1.0
 21
0.0
 31
0.0
  0
ENDBLK
  5
3B
330
36
100
AcDbEntity
  8
0
 48
0.3
100
AcDbBlockEnd
  0
ENDSEC
  0
SECTION
  2
ENTITIES
  0
MTEXT
  5
7A27
330
18
100
AcDbEntity
  8
OBJECT1
 62
     2
100
AcDbMText
 10
-161.5789866452596
 20
242.342904486376
 30
0.0
 40
3.0
 41
0.0
 46
0.0
 71
     7
 72
     1
  1
　　　
 73
     1
 44
1.0
  0
MTEXT
  5
D0E7
330
18
100
AcDbEntity
  8
7：文字
 62
     7
 48
2.0
100
AcDbMText
 10
2343.702554801174
 20
626.9809535872973
 30
0.0
 40
20.0
 41
539.5119091230699
 46
0.0
 71
     1
 72
     5
  1
{\fMS PGothic|b0|i0|c128|p50;LP-2096B-25N+ALP-2096A（専用アーム）\PLP-2096B-50N+ALP-2096A（専用アーム）}
 73
     1
 44
1.0
1001
ACAD
1000
ACAD_MTEXT_COLUMN_INFO_BEGIN
1070
    75
1070
     2
1070
    79
1070
     0
1070
    76
1070
     1
1070
    78
1070
     0
1070
    48
1040
539.5119091230699
1070
    49
1040
15.0
1070
    50
1070
     1
1040
0.0
1000
ACAD_MTEXT_COLUMN_INFO_END
  0
SPLINE
  5
D204
330
18
100
AcDbEntity
  8
1：主線
100
AcDbSpline
210
0.0000000000000105
220
0.0000000000000298
230
1.0
 70
     8
 71
     3
 72
    38
 73
    34
 74
     0
 42
0.000000001
 43
0.0000000001
 40
3.791596292448859
 40
3.791596292448859
 40
3.791596292448859
 40
3.791596292448859
 40
3.87665478306255
 40
3.87665478306255
 40
4.199661003102781
 40
4.199661003102781
 40
4.522667223143011
 40
4.522667223143011
 40
4.845673443183242
 40
4.845673443183242
 40
5.168679663223473
 40
5.168679663223473
 40
5.500668789368059
 40
5.500668789368059
 40
5.832657915512647
 40
5.832657915512647
 40
6.49663616780182
 40
6.49663616780182
 40
6.821964425034057
 40
6.821964425034057
 40
7.147292682266293
 40
7.147292682266293
 40
7.472620939498529
 40
7.472620939498529
 40
7.797949196730765
 40
7.797949196730765
 40
8.123277453963002
 40
8.123277453963002
 40
8.448605711195238
 40
8.448605711195238
 40
8.773933968427474
 40
8.773933968427474
 40
9.020082743047479
 40
9.020082743047479
 40
9.020082743047479
 40
9.020082743047479
 10
2720.900392066426
 20
882.7607619743744
 30
0.0000000000004547
 10
2721.095986280744
 20
882.8535310360862
 30
-0.000000000001819
 10
2721.28709233055
 20
882.9520296536598
 30
-0.000000000001819
 10
2722.179620594678
 20
883.4494491488536
 30
-0.000000000001819
 10
2722.863051808739
 20
883.9458637466682
 30
0.0000000000004547
 10
2724.094680893647
 20
885.1230328316356
 30
-0.000000000001819
 10
2724.642587642754
 20
885.8035776593393
 30
0.0000000000004547
 10
2725.535501087289
 20
887.2991382229125
 30
-0.000000000001819
 10
2725.880951736367
 20
888.1155209085395
 30
0.0000000000004547
 10
2726.336399296289
 20
889.817199703492
 30
-0.000000000001819
 10
2726.446159827339
 20
890.7024675878606
 30
-0.000000000001819
 10
2726.446159827335
 20
892.487432794725
 30
-0.000000000001819
 10
2726.330406223487
 20
893.4396154025593
 30
0.0000000000004547
 10
2725.8610960825
 20
895.3758568451316
 30
0.0000000000004547
 10
2725.507938086715
 20
896.3600315224597
 30
-0.000000000001819
 10
2724.150629338093
 20
899.276084214051
 30
0.0000000000004547
 10
2722.837928054175
 20
901.1765236975392
 30
-0.000000000001819
 10
2720.725543371701
 20
903.6678001901186
 30
-0.000000000001819
 10
2719.957587150993
 20
904.4912410408338
 30
0.0000000000004547
 10
2718.334838618536
 20
906.0843319871169
 30
-0.000000000001819
 10
2717.480274824874
 20
906.8542075684113
 30
-0.000000000001819
 10
2715.75464637025
 20
908.289751831348
 30
-0.0000000000040927
 10
2714.882120407911
 20
908.9567970082557
 30
-0.000000000001819
 10
2713.187662751273
 20
910.1485300637673
 30
-0.000000000001819
 10
2712.365793980525
 20
910.6731579967631
 30
-0.000000000001819
 10
2710.832181868526
 20
911.5563064762332
 30
-0.000000000001819
 10
2710.077315473494
 20
911.9396599378056
 30
-0.0000000000040927
 10
2708.653729421091
 20
912.5434888363312
 30
-0.000000000001819
 10
2707.98488288056
 20
912.764061050772
 30
0.0000000000004547
 10
2706.770338609135
 20
913.0216496550488
 30
-0.000000000001819
 10
2706.223253634127
 20
913.0589299178714
 30
0.0000000000004547
 10
2705.379823652916
 20
912.9661643506883
 30
0.0000000000004547
 10
2705.054681984887
 20
912.8745324231827
 30
-0.000000000001819
 10
2704.766458660602
 20
912.7379423667193
 30
-0.000000000001819
  0
LINE
  5
D205
330
18
100
AcDbEntity
  8
1：主線
100
AcDbLine
 10
2605.395763118945
 20
892.0551102717094
 30
0.0000000000004547
 11
2608.565635237757
 21
893.5598755509195
 31
0.0000000000004547
210
0.0
220
0.8175471248425395
230
0.5758617009853121
  0
LINE
  5
D206
330
18
100
AcDbEntity
  8
1：主線
100
AcDbLine
 10
2608.565635237757
 20
893.5598755509195
 30
0.0000000000004547
 11
2665.134177732679
 21
860.9842184475278
 31
0.0000000000004547
210
0.0
220
0.8175471248425395
230
0.5758617009853121
  0
LINE
  5
D207
330
18
100
AcDbEntity
  8
1：主線
100
AcDbLine
 10
2664.757058570355
 20
855.7833187518177
 30
-0.000000000001819
 11
2665.134177732679
 21
860.9842184475278
 31
0.0000000000004547
210
0.0
220
0.8175471248425395
230
0.5758617009853121
  0
LINE
  5
D208
330
18
100
AcDbEntity
  8
1：主線
100
AcDbLine
 10
2665.134177732679
 20
860.9842184475278
 30
0.0000000000004547
 11
2661.964305613864
 21
859.4794531683188
 31
0.0000000000004547
210
0.0
220
0.8175471248425395
230
0.5758617009853121
  0
LINE
  5
D209
330
18
100
AcDbEntity
  8
1：主線
100
AcDbLine
 10
2603.627996165979
 20
893.0730995561921
 30
0.0000000000004547
 11
2605.395763118945
 21
892.0551102717094
 31
0.0000000000004547
210
0.0
220
0.8175471248425395
230
0.5758617009853121
  0
LINE
  5
D20A
330
18
100
AcDbEntity
  8
1：主線
100
AcDbLine
 10
2661.964305613864
 20
859.4794531683188
 30
0.0000000000004547
 11
2663.73207256683
 21
858.4614638838379
 31
0.0000000000004547
210
0.0
220
0.8175471248425395
230
0.5758617009853121
  0
LINE
  5
D20B
330
18
100
AcDbEntity
  8
1：主線
100
AcDbLine
 10
2663.586746748076
 20
856.4572565084731
 30
0.0000000000004547
 11
2663.73207256683
 21
858.4614638838379
 31
0.0000000000004547
210
0.0
220
0.8175471248425395
230
0.5758617009853121
  0
LINE
  5
D20C
330
18
100
AcDbEntity
  8
1：主線
100
AcDbLine
 10
2601.64060406101
 20
892.1296676057394
 30
-0.000000000001819
 11
2603.627996165979
 21
893.0730995561921
 31
0.0000000000004547
210
0.0
220
0.8175471248425395
230
0.5758617009853121
  0
LINE
  5
D20D
330
18
100
AcDbEntity
  8
1：主線
100
AcDbLine
 10
2663.73207256683
 20
858.4614638838379
 30
0.0000000000004547
 11
2661.744680461857
 21
857.5180319333853
 31
-0.000000000001819
210
0.0
220
0.8175471248425395
230
0.5758617009853121
  0
LINE
  5
D20E
330
18
100
AcDbEntity
  8
1：主線
100
AcDbLine
 10
2656.069583915943
 20
814.8046834275906
 30
0.0000000000004547
 11
2663.242841925928
 21
788.6529306740926
 31
0.0000000000004547
210
0.0
220
0.8175471248425395
230
0.5758617009853121
  0
ELLIPSE
  5
D20F
330
18
100
AcDbEntity
  8
1：主線
100
AcDbEllipse
 10
2672.664841812407
 20
794.9070069233353
 30
0.0000000000004547
 11
1.634392470598695
 21
14.41122799162568
 31
0.000000000000001
210
0.0
220
-0.0000000000000001
230
1.0
 40
0.6900108788702953
 41
2.096321816081982
 42
4.997201573428132
  0
LINE
  5
D210
330
18
100
AcDbEntity
  8
OBJECT2
100
AcDbLine
 10
2682.667376704963
 20
797.8739226903976
 30
-0.000000000001819
 11
2676.14608527027
 21
801.6292846685987
 31
0.0000000000027285
210
0.0
220
0.8175471248425395
230
0.5758617009853121
  0
LINE
  5
D211
330
18
100
AcDbEntity
  8
1：主線
100
AcDbLine
 10
2682.667376704963
 20
797.8739226903976
 30
-0.000000000001819
 11
2680.208259837554
 21
826.2635183747002
 31
0.0000000000004547
210
0.0
220
0.8175471248425395
230
0.5758617009853121
  0
LINE
  5
D212
330
18
100
AcDbEntity
  8
1：主線
100
AcDbLine
 10
2676.14608527027
 20
801.6292846685987
 30
0.0000000000027285
 11
2680.208259837554
 21
826.2635183747002
 31
0.0000000000004547
210
0.0
220
0.8175471248425395
230
0.5758617009853121
  0
LINE
  5
D213
330
18
100
AcDbEntity
  8
1：主線
100
AcDbLine
 10
2680.208259837554
 20
826.2635183747002
 30
0.0000000000004547
 11
2656.069583915943
 21
814.8046834275906
 31
0.0000000000004547
210
0.0
220
0.8175471248425395
230
0.5758617009853121
  0
LINE
  5
D214
330
18
100
AcDbEntity
  8
1：主線
100
AcDbLine
 10
2656.069583915943
 20
814.8046834275906
 30
0.0000000000004547
 11
2642.77994492625
 21
808.495978667474
 31
0.0000000000004547
210
0.0
220
0.8175471248425395
230
0.5758617009853121
  0
LINE
  5
D215
330
18
100
AcDbEntity
  8
1：主線
100
AcDbLine
 10
2642.77994492625
 20
808.495978667474
 30
0.0000000000004547
 11
2649.03442232117
 21
766.5967768923005
 31
0.0000000000004547
210
0.0
220
0.8175471248425395
230
0.5758617009853121
  0
LINE
  5
D216
330
18
100
AcDbEntity
  8
1：主線
100
AcDbLine
 10
2649.03442232117
 20
766.5967768923005
 30
0.0000000000004547
 11
2710.67082463142
 21
795.8561017658107
 31
0.0000000000004547
210
0.0
220
0.8175471248425395
230
0.5758617009853121
  0
LINE
  5
D217
330
18
100
AcDbEntity
  8
1：主線
100
AcDbLine
 10
2710.67082463142
 20
795.8561017658107
 30
0.0000000000004547
 11
2704.230092415289
 21
832.325427811153
 31
0.0000000000027285
210
0.0
220
0.8175471248425395
230
0.5758617009853121
  0
LINE
  5
D218
330
18
100
AcDbEntity
  8
1：主線
100
AcDbLine
 10
2704.230092415289
 20
832.325427811153
 30
0.0000000000027285
 11
2699.837643064876
 21
835.5817536932359
 31
0.0000000000004547
210
0.0
220
0.8175471248425395
230
0.5758617009853121
  0
LINE
  5
D219
330
18
100
AcDbEntity
  8
1：主線
100
AcDbLine
 10
2699.837643064876
 20
835.5817536932359
 30
0.0000000000004547
 11
2680.208259837554
 21
826.2635183747002
 31
0.0000000000004547
210
0.0
220
0.8175471248425395
230
0.5758617009853121
  0
LINE
  5
D21A
330
18
100
AcDbEntity
  8
1：主線
100
AcDbLine
 10
2418.719689714625
 20
743.1615654074462
 30
0.0000000000004547
 11
2428.598989212384
 21
766.0659651662322
 31
0.0000000000004547
210
0.0
220
0.8175471248425395
230
0.5758617009853121
  0
LINE
  5
D21B
330
18
100
AcDbEntity
  8
1：主線
100
AcDbLine
 10
2428.598989212384
 20
766.0659651662322
 30
0.0000000000004547
 11
2580.752850915405
 21
838.2946985682652
 31
-0.000000000001819
210
0.0
220
0.8175471248425395
230
0.5758617009853121
  0
LINE
  5
D21C
330
18
100
AcDbEntity
  8
1：主線
100
AcDbLine
 10
2414.689181072395
 20
745.4825809699936
 30
-0.000000000001819
 11
2418.719689714625
 21
743.1615654074462
 31
0.0000000000004547
210
0.0
220
0.8175471248425395
230
0.5758617009853121
  0
LINE
  5
D21D
330
18
100
AcDbEntity
  8
1：主線
100
AcDbLine
 10
2414.689181072395
 20
745.4825809699936
 30
-0.000000000001819
 11
2421.016320397209
 21
748.4861278689972
 31
0.0000000000004547
210
0.0
220
0.8175471248425395
230
0.5758617009853121
  0
LINE
  5
D21E
330
18
100
AcDbEntity
  8
1：主線
100
AcDbLine
 10
2423.154266997253
 20
769.2013721624321
 30
0.0000000000004547
 11
2414.689181072395
 21
745.4825809699936
 31
-0.000000000001819
210
0.0
220
0.8175471248425395
230
0.5758617009853121
  0
LINE
  5
D21F
330
18
100
AcDbEntity
  8
1：主線
100
AcDbLine
 10
2575.268824592106
 20
835.6913845883141
 30
0.0000000000004547
 11
2575.308128700269
 21
841.4301055644669
 31
0.0000000000004547
210
0.0
220
0.8175471248425395
230
0.5758617009853121
  0
LINE
  5
D220
330
18
100
AcDbEntity
  8
1：主線
100
AcDbLine
 10
2575.308128700269
 20
841.4301055644669
 30
0.0000000000004547
 11
2423.154266997253
 21
769.2013721624321
 31
0.0000000000004547
210
0.0
220
0.8175471248425395
230
0.5758617009853121
  0
LINE
  5
D221
330
18
100
AcDbEntity
  8
1：主線
100
AcDbLine
 10
2446.155432824654
 20
727.3623717123014
 30
0.0000000000004547
 11
2456.034732322421
 21
750.2667714710865
 31
0.0000000000004547
210
0.0
220
0.8175471248425395
230
0.5758617009853121
  0
LINE
  5
D222
330
18
100
AcDbEntity
  8
1：主線
100
AcDbLine
 10
2456.034732322421
 20
750.2667714710865
 30
0.0000000000004547
 11
2608.188594025441
 21
822.4955048731212
 31
-0.000000000001819
210
0.0
220
0.8175471248425395
230
0.5758617009853121
  0
LINE
  5
D223
330
18
100
AcDbEntity
  8
1：主線
100
AcDbLine
 10
2442.124924182427
 20
729.6833872748507
 30
-0.000000000001819
 11
2446.155432824654
 21
727.3623717123014
 31
0.0000000000004547
210
0.0
220
0.8175471248425395
230
0.5758617009853121
  0
LINE
  5
D224
330
18
100
AcDbEntity
  8
1：主線
100
AcDbLine
 10
2442.124924182427
 20
729.6833872748507
 30
-0.000000000001819
 11
2448.452063507242
 21
732.6869341738543
 31
0.0000000000004547
210
0.0
220
0.8175471248425395
230
0.5758617009853121
  0
LINE
  5
D225
330
18
100
AcDbEntity
  8
1：主線
100
AcDbLine
 10
2450.590010107281
 20
753.4021784672873
 30
0.0000000000004547
 11
2442.124924182427
 21
729.6833872748507
 31
-0.000000000001819
210
0.0
220
0.8175471248425395
230
0.5758617009853121
  0
LINE
  5
D226
330
18
100
AcDbEntity
  8
1：主線
100
AcDbLine
 10
2602.704567702142
 20
819.892190893171
 30
0.0000000000004547
 11
2602.743871810305
 21
825.630911869322
 31
0.0000000000004547
210
0.0
220
0.8175471248425395
230
0.5758617009853121
  0
LINE
  5
D227
330
18
100
AcDbEntity
  8
1：主線
100
AcDbLine
 10
2602.743871810305
 20
825.630911869322
 30
0.0000000000004547
 11
2450.590010107281
 21
753.4021784672873
 31
0.0000000000004547
210
0.0
220
0.8175471248425395
230
0.5758617009853121
  0
LINE
  5
D228
330
18
100
AcDbEntity
  8
1：主線
100
AcDbLine
 10
2473.59117593469
 20
711.5631780171557
 30
0.0000000000004547
 11
2483.470475432453
 21
734.4675777759416
 31
0.0000000000004547
210
0.0
220
0.8175471248425395
230
0.5758617009853121
  0
LINE
  5
D229
330
18
100
AcDbEntity
  8
1：主線
100
AcDbLine
 10
2483.470475432453
 20
734.4675777759416
 30
0.0000000000004547
 11
2635.62433713547
 21
806.6963111779765
 31
-0.000000000001819
210
0.0
220
0.8175471248425395
230
0.5758617009853121
  0
LINE
  5
D22A
330
18
100
AcDbEntity
  8
1：主線
100
AcDbLine
 10
2469.560667292463
 20
713.8841935797049
 30
0.0000000000004547
 11
2473.59117593469
 21
711.5631780171557
 31
0.0000000000004547
210
0.0
220
0.8175471248425395
230
0.5758617009853121
  0
LINE
  5
D22B
330
18
100
AcDbEntity
  8
1：主線
100
AcDbLine
 10
2469.560667292463
 20
713.8841935797049
 30
0.0000000000004547
 11
2475.887806617278
 21
716.8877404787068
 31
0.0000000000004547
210
0.0
220
0.8175471248425395
230
0.5758617009853121
  0
LINE
  5
D22C
330
18
100
AcDbEntity
  8
1：主線
100
AcDbLine
 10
2478.025753217317
 20
737.6029847721443
 30
0.0000000000004547
 11
2469.560667292463
 21
713.8841935797049
 31
0.0000000000004547
210
0.0
220
0.8175471248425395
230
0.5758617009853121
  0
LINE
  5
D22D
330
18
100
AcDbEntity
  8
1：主線
100
AcDbLine
 10
2630.140310812171
 20
804.0929971980263
 30
0.0000000000004547
 11
2630.179614920337
 21
809.8317181741773
 31
0.0000000000004547
210
0.0
220
0.8175471248425395
230
0.5758617009853121
  0
LINE
  5
D22E
330
18
100
AcDbEntity
  8
1：主線
100
AcDbLine
 10
2630.179614920337
 20
809.8317181741773
 30
0.0000000000004547
 11
2478.025753217317
 21
737.6029847721443
 31
0.0000000000004547
210
0.0
220
0.8175471248425395
230
0.5758617009853121
  0
LINE
  5
D22F
330
18
100
AcDbEntity
  8
1：主線
100
AcDbLine
 10
2453.014368602163
 20
723.4125732885163
 30
0.0000000000004547
 11
2462.89366809993
 21
746.3169730473005
 31
-0.000000000001819
210
0.0
220
0.8175471248425395
230
0.5758617009853121
  0
LINE
  5
D230
330
18
100
AcDbEntity
  8
1：主線
100
AcDbLine
 10
2462.89366809993
 20
746.3169730473005
 30
-0.000000000001819
 11
2615.047529802946
 21
818.5457064493352
 31
0.0000000000004547
210
0.0
220
0.8175471248425395
230
0.5758617009853121
  0
LINE
  5
D231
330
18
100
AcDbEntity
  8
1：主線
100
AcDbLine
 10
2448.983859959936
 20
725.7335888510638
 30
0.0000000000004547
 11
2453.014368602163
 21
723.4125732885163
 31
0.0000000000004547
210
0.0
220
0.8175471248425395
230
0.5758617009853121
  0
LINE
  5
D232
330
18
100
AcDbEntity
  8
1：主線
100
AcDbLine
 10
2448.983859959936
 20
725.7335888510638
 30
0.0000000000004547
 11
2455.31099928475
 21
728.7371357500674
 31
-0.000000000001819
210
0.0
220
0.8175471248425395
230
0.5758617009853121
  0
LINE
  5
D233
330
18
100
AcDbEntity
  8
1：主線
100
AcDbLine
 10
2457.44894588479
 20
749.4523800435022
 30
0.0000000000004547
 11
2448.983859959936
 21
725.7335888510638
 31
0.0000000000004547
210
0.0
220
0.8175471248425395
230
0.5758617009853121
  0
LINE
  5
D234
330
18
100
AcDbEntity
  8
1：主線
100
AcDbLine
 10
2609.563503479648
 20
815.9423924693841
 30
0.0000000000004547
 11
2609.602807587811
 21
821.6811134455369
 31
0.0000000000004547
210
0.0
220
0.8175471248425395
230
0.5758617009853121
  0
LINE
  5
D235
330
18
100
AcDbEntity
  8
1：主線
100
AcDbLine
 10
2609.602807587811
 20
821.6811134455369
 30
0.0000000000004547
 11
2457.44894588479
 21
749.4523800435022
 31
0.0000000000004547
210
0.0
220
0.8175471248425395
230
0.5758617009853121
  0
LINE
  5
D236
330
18
100
AcDbEntity
  8
1：主線
100
AcDbLine
 10
2425.578625492131
 20
739.2117669836594
 30
0.0000000000004547
 11
2435.457924989893
 21
762.1161667424453
 31
0.0000000000004547
210
0.0
220
0.8175471248425395
230
0.5758617009853121
  0
LINE
  5
D237
330
18
100
AcDbEntity
  8
1：主線
100
AcDbLine
 10
2435.457924989893
 20
762.1161667424453
 30
0.0000000000004547
 11
2587.61178669291
 21
834.3449001444801
 31
0.0000000000027285
210
0.0
220
0.8175471248425395
230
0.5758617009853121
  0
LINE
  5
D238
330
18
100
AcDbEntity
  8
1：主線
100
AcDbLine
 10
2421.548116849908
 20
741.5327825462068
 30
0.0000000000027285
 11
2425.578625492131
 21
739.2117669836594
 31
0.0000000000004547
210
0.0
220
0.8175471248425395
230
0.5758617009853121
  0
LINE
  5
D239
330
18
100
AcDbEntity
  8
1：主線
100
AcDbLine
 10
2421.548116849908
 20
741.5327825462068
 30
0.0000000000027285
 11
2427.875256174715
 21
744.5363294452103
 31
0.0000000000004547
210
0.0
220
0.8175471248425395
230
0.5758617009853121
  0
LINE
  5
D23A
330
18
100
AcDbEntity
  8
1：主線
100
AcDbLine
 10
2430.013202774758
 20
765.2515737386461
 30
0.0000000000004547
 11
2421.548116849908
 21
741.5327825462068
 31
0.0000000000027285
210
0.0
220
0.8175471248425395
230
0.5758617009853121
  0
LINE
  5
D23B
330
18
100
AcDbEntity
  8
1：主線
100
AcDbLine
 10
2582.127760369619
 20
831.7415861645299
 30
0.0000000000004547
 11
2582.167064477778
 21
837.4803071406827
 31
-0.000000000001819
210
0.0
220
0.8175471248425395
230
0.5758617009853121
  0
LINE
  5
D23C
330
18
100
AcDbEntity
  8
1：主線
100
AcDbLine
 10
2582.167064477778
 20
837.4803071406827
 30
-0.000000000001819
 11
2430.013202774758
 21
765.2515737386461
 31
0.0000000000004547
210
0.0
220
0.8175471248425395
230
0.5758617009853121
  0
LINE
  5
D23D
330
18
100
AcDbEntity
  8
1：主線
100
AcDbLine
 10
2411.860753937113
 20
747.1113638312331
 30
0.0000000000004547
 11
2421.740053434876
 21
770.0157635900163
 31
-0.000000000001819
210
0.0
220
0.8175471248425395
230
0.5758617009853121
  0
LINE
  5
D23E
330
18
100
AcDbEntity
  8
1：主線
100
AcDbLine
 10
2421.740053434876
 20
770.0157635900163
 30
-0.000000000001819
 11
2573.893915137892
 21
842.2444969920539
 31
0.0000000000004547
210
0.0
220
0.8175471248425395
230
0.5758617009853121
  0
LINE
  5
D23F
330
18
100
AcDbEntity
  8
1：主線
100
AcDbLine
 10
2407.830245294889
 20
749.4323793937805
 30
0.0000000000004547
 11
2411.860753937113
 21
747.1113638312331
 31
0.0000000000004547
210
0.0
220
0.8175471248425395
230
0.5758617009853121
  0
LINE
  5
D240
330
18
100
AcDbEntity
  8
1：主線
100
AcDbLine
 10
2407.830245294889
 20
749.4323793937805
 30
0.0000000000004547
 11
2414.1573846197
 21
752.4359262927841
 31
0.0000000000004547
210
0.0
220
0.8175471248425395
230
0.5758617009853121
  0
LINE
  5
D241
330
18
100
AcDbEntity
  8
1：主線
100
AcDbLine
 10
2416.29533121974
 20
773.1511705862171
 30
0.0000000000004547
 11
2407.830245294889
 21
749.4323793937805
 31
0.0000000000004547
210
0.0
220
0.8175471248425395
230
0.5758617009853121
  0
LINE
  5
D242
330
18
100
AcDbEntity
  8
1：主線
100
AcDbLine
 10
2568.409888814597
 20
839.641183012101
 30
0.0000000000027285
 11
2568.44919292276
 21
845.3799039882547
 31
0.0000000000004547
210
0.0
220
0.8175471248425395
230
0.5758617009853121
  0
LINE
  5
D243
330
18
100
AcDbEntity
  8
1：主線
100
AcDbLine
 10
2568.44919292276
 20
845.3799039882547
 30
0.0000000000004547
 11
2416.29533121974
 21
773.1511705862171
 31
0.0000000000004547
210
0.0
220
0.8175471248425395
230
0.5758617009853121
  0
LINE
  5
D244
330
18
100
AcDbEntity
  8
1：主線
100
AcDbLine
 10
2435.265988404925
 20
733.6331856986348
 30
0.0000000000004547
 11
2439.296497047145
 21
731.3121701360874
 31
0.0000000000004547
210
0.0
220
0.8175471248425395
230
0.5758617009853121
  0
LINE
  5
D245
330
18
100
AcDbEntity
  8
1：主線
100
AcDbLine
 10
2435.265988404925
 20
733.6331856986348
 30
0.0000000000004547
 11
2441.593127729732
 21
736.6367325976393
 31
0.0000000000004547
210
0.0
220
0.8175471248425395
230
0.5758617009853121
  0
LINE
  5
D246
330
18
100
AcDbEntity
  8
1：主線
100
AcDbLine
 10
2439.296497047145
 20
731.3121701360874
 30
0.0000000000004547
 11
2449.175796544912
 21
754.2165698948743
 31
-0.000000000001819
210
0.0
220
0.8175471248425395
230
0.5758617009853121
  0
LINE
  5
D247
330
18
100
AcDbEntity
  8
1：主線
100
AcDbLine
 10
2449.175796544912
 20
754.2165698948743
 30
-0.000000000001819
 11
2601.329658247928
 21
826.445303296909
 31
0.0000000000004547
210
0.0
220
0.8175471248425395
230
0.5758617009853121
  0
LINE
  5
D248
330
18
100
AcDbEntity
  8
1：主線
100
AcDbLine
 10
2443.731074329772
 20
757.3519768910742
 30
0.0000000000004547
 11
2435.265988404925
 21
733.6331856986348
 31
0.0000000000004547
210
0.0
220
0.8175471248425395
230
0.5758617009853121
  0
LINE
  5
D249
330
18
100
AcDbEntity
  8
1：主線
100
AcDbLine
 10
2595.845631924634
 20
823.8419893169561
 30
0.0000000000004547
 11
2595.884936032792
 21
829.5807102931089
 31
0.0000000000004547
210
0.0
220
0.8175471248425395
230
0.5758617009853121
  0
LINE
  5
D24A
330
18
100
AcDbEntity
  8
1：主線
100
AcDbLine
 10
2595.884936032792
 20
829.5807102931089
 30
0.0000000000004547
 11
2443.731074329772
 21
757.3519768910742
 31
0.0000000000004547
210
0.0
220
0.8175471248425395
230
0.5758617009853121
  0
LINE
  5
D24B
330
18
100
AcDbEntity
  8
1：主線
100
AcDbLine
 10
2466.732240157181
 20
715.5129764409426
 30
-0.000000000001819
 11
2476.611539654944
 21
738.4173761997285
 31
-0.000000000001819
210
0.0
220
0.8175471248425395
230
0.5758617009853121
  0
LINE
  5
D24C
330
18
100
AcDbEntity
  8
1：主線
100
AcDbLine
 10
2476.611539654944
 20
738.4173761997285
 30
-0.000000000001819
 11
2628.765401357961
 21
810.6461096017634
 31
0.0000000000004547
210
0.0
220
0.8175471248425395
230
0.5758617009853121
  0
LINE
  5
D24D
330
18
100
AcDbEntity
  8
1：主線
100
AcDbLine
 10
2462.701731514954
 20
717.8339920034927
 30
0.0000000000004547
 11
2466.732240157181
 21
715.5129764409426
 31
-0.000000000001819
210
0.0
220
0.8175471248425395
230
0.5758617009853121
  0
LINE
  5
D24E
330
18
100
AcDbEntity
  8
1：主線
100
AcDbLine
 10
2462.701731514954
 20
717.8339920034927
 30
0.0000000000004547
 11
2469.028870839761
 21
720.8375389024936
 31
0.0000000000004547
210
0.0
220
0.8175471248425395
230
0.5758617009853121
  0
LINE
  5
D24F
330
18
100
AcDbEntity
  8
1：主線
100
AcDbLine
 10
2471.166817439808
 20
741.5527831959284
 30
0.0000000000004547
 11
2462.701731514954
 21
717.8339920034927
 31
0.0000000000004547
210
0.0
220
0.8175471248425395
230
0.5758617009853121
  0
LINE
  5
D250
330
18
100
AcDbEntity
  8
1：主線
100
AcDbLine
 10
2623.281375034666
 20
808.0427956218123
 30
0.0000000000004547
 11
2623.320679142829
 21
813.7815165979631
 31
-0.000000000001819
210
0.0
220
0.8175471248425395
230
0.5758617009853121
  0
LINE
  5
D251
330
18
100
AcDbEntity
  8
1：主線
100
AcDbLine
 10
2623.320679142829
 20
813.7815165979631
 30
-0.000000000001819
 11
2471.166817439808
 21
741.5527831959284
 31
0.0000000000004547
210
0.0
220
0.8175471248425395
230
0.5758617009853121
  0
LINE
  5
D252
330
18
100
AcDbEntity
  8
1：主線
100
AcDbLine
 10
2459.873304379672
 20
719.4627748647294
 30
0.0000000000004547
 11
2469.752603877435
 21
742.3671746235154
 31
0.0000000000004547
210
0.0
220
0.8175471248425395
230
0.5758617009853121
  0
LINE
  5
D253
330
18
100
AcDbEntity
  8
1：主線
100
AcDbLine
 10
2469.752603877435
 20
742.3671746235154
 30
0.0000000000004547
 11
2621.906465580459
 21
814.5959080255474
 31
0.0000000000004547
210
0.0
220
0.8175471248425395
230
0.5758617009853121
  0
LINE
  5
D254
330
18
100
AcDbEntity
  8
1：主線
100
AcDbLine
 10
2455.842795737445
 20
721.7837904272769
 30
0.0000000000004547
 11
2459.873304379672
 21
719.4627748647294
 31
0.0000000000004547
210
0.0
220
0.8175471248425395
230
0.5758617009853121
  0
LINE
  5
D255
330
18
100
AcDbEntity
  8
1：主線
100
AcDbLine
 10
2455.842795737445
 20
721.7837904272769
 30
0.0000000000004547
 11
2462.16993506226
 21
724.7873373262805
 31
0.0000000000004547
210
0.0
220
0.8175471248425395
230
0.5758617009853121
  0
LINE
  5
D256
330
18
100
AcDbEntity
  8
1：主線
100
AcDbLine
 10
2464.307881662299
 20
745.5025816197162
 30
0.0000000000027285
 11
2455.842795737445
 21
721.7837904272769
 31
0.0000000000004547
210
0.0
220
0.8175471248425395
230
0.5758617009853121
  0
LINE
  5
D257
330
18
100
AcDbEntity
  8
1：主線
100
AcDbLine
 10
2616.42243925716
 20
811.9925940455972
 30
-0.000000000001819
 11
2616.46174336532
 21
817.7313150217511
 31
0.0000000000027285
210
0.0
220
0.8175471248425395
230
0.5758617009853121
  0
LINE
  5
D258
330
18
100
AcDbEntity
  8
1：主線
100
AcDbLine
 10
2616.46174336532
 20
817.7313150217511
 30
0.0000000000027285
 11
2464.307881662299
 21
745.5025816197162
 31
0.0000000000027285
210
0.0
220
0.8175471248425395
230
0.5758617009853121
  0
LINE
  5
D259
330
18
100
AcDbEntity
  8
1：主線
100
AcDbLine
 10
2432.437561269636
 20
735.2619685598751
 30
0.0000000000004547
 11
2442.316860767403
 21
758.1663683186584
 31
0.0000000000004547
210
0.0
220
0.8175471248425395
230
0.5758617009853121
  0
LINE
  5
D25A
330
18
100
AcDbEntity
  8
1：主線
100
AcDbLine
 10
2442.316860767403
 20
758.1663683186584
 30
0.0000000000004547
 11
2594.470722470422
 21
830.3951017206932
 31
0.0000000000004547
210
0.0
220
0.8175471248425395
230
0.5758617009853121
  0
LINE
  5
D25B
330
18
100
AcDbEntity
  8
1：主線
100
AcDbLine
 10
2428.407052627413
 20
737.5829841224226
 30
0.0000000000004547
 11
2432.437561269636
 21
735.2619685598751
 31
0.0000000000004547
210
0.0
220
0.8175471248425395
230
0.5758617009853121
  0
LINE
  5
D25C
330
18
100
AcDbEntity
  8
1：主線
100
AcDbLine
 10
2428.407052627413
 20
737.5829841224226
 30
0.0000000000004547
 11
2434.734191952224
 21
740.5865310214253
 31
0.0000000000027285
210
0.0
220
0.8175471248425395
230
0.5758617009853121
  0
LINE
  5
D25D
330
18
100
AcDbEntity
  8
1：主線
100
AcDbLine
 10
2436.872138552271
 20
761.3017753148583
 30
0.0000000000027285
 11
2428.407052627413
 21
737.5829841224226
 31
0.0000000000004547
210
0.0
220
0.8175471248425395
230
0.5758617009853121
  0
LINE
  5
D25E
330
18
100
AcDbEntity
  8
1：主線
100
AcDbLine
 10
2588.986696147125
 20
827.7917877407421
 30
-0.000000000001819
 11
2589.026000255287
 21
833.5305087168958
 31
0.0000000000027285
210
0.0
220
0.8175471248425395
230
0.5758617009853121
  0
LINE
  5
D25F
330
18
100
AcDbEntity
  8
1：主線
100
AcDbLine
 10
2589.026000255287
 20
833.5305087168958
 30
0.0000000000027285
 11
2436.872138552271
 21
761.3017753148583
 31
0.0000000000027285
210
0.0
220
0.8175471248425395
230
0.5758617009853121
  0
LINE
  5
D260
330
18
100
AcDbEntity
  8
1：主線
100
AcDbLine
 10
2405.001818159607
 20
751.0611622550173
 30
0.0000000000004547
 11
2414.881117657366
 21
773.9655620138042
 31
0.0000000000004547
210
0.0
220
0.8175471248425395
230
0.5758617009853121
  0
LINE
  5
D261
330
18
100
AcDbEntity
  8
1：主線
100
AcDbLine
 10
2414.881117657366
 20
773.9655620138042
 30
0.0000000000004547
 11
2567.034979360387
 21
846.194295415839
 31
0.0000000000004547
210
0.0
220
0.8175471248425395
230
0.5758617009853121
  0
LINE
  5
D262
330
18
100
AcDbEntity
  8
1：主線
100
AcDbLine
 10
2484.990755012002
 20
733.5921069912878
 30
0.0000000000004547
 11
2483.470475432453
 21
734.4675777759416
 31
0.0000000000004547
210
0.0
220
0.8175471248425395
230
0.5758617009853121
  0
LINE
  5
D263
330
18
100
AcDbEntity
  8
1：主線
100
AcDbLine
 10
2637.144616715018
 20
805.8208403933226
 30
0.0000000000004547
 11
2484.990755012002
 21
733.5921069912878
 31
0.0000000000004547
210
0.0
220
0.8175471248425395
230
0.5758617009853121
  0
LINE
  5
D264
330
18
100
AcDbEntity
  8
1：主線
100
AcDbLine
 10
2635.62433713547
 20
806.6963111779765
 30
-0.000000000001819
 11
2637.144616715018
 21
805.8208403933226
 31
0.0000000000004547
210
0.0
220
0.8175471248425395
230
0.5758617009853121
  0
LINE
  5
D265
330
18
100
AcDbEntity
  8
1：主線
100
AcDbLine
 10
2436.872138552271
 20
761.3017753148583
 30
0.0000000000027285
 11
2435.457924989893
 21
762.1161667424453
 31
0.0000000000004547
210
0.0
220
0.8175471248425395
230
0.5758617009853121
  0
LINE
  5
D266
330
18
100
AcDbEntity
  8
1：主線
100
AcDbLine
 10
2587.61178669291
 20
834.3449001444801
 30
0.0000000000027285
 11
2589.026000255287
 21
833.5305087168958
 31
0.0000000000027285
210
0.0
220
0.8175471248425395
230
0.5758617009853121
  0
LINE
  5
D267
330
18
100
AcDbEntity
  8
1：主線
100
AcDbLine
 10
2464.307881662299
 20
745.5025816197162
 30
0.0000000000027285
 11
2462.89366809993
 21
746.3169730473005
 31
-0.000000000001819
210
0.0
220
0.8175471248425395
230
0.5758617009853121
  0
LINE
  5
D268
330
18
100
AcDbEntity
  8
1：主線
100
AcDbLine
 10
2615.047529802946
 20
818.5457064493352
 30
0.0000000000004547
 11
2616.46174336532
 21
817.7313150217511
 31
0.0000000000027285
210
0.0
220
0.8175471248425395
230
0.5758617009853121
  0
LINE
  5
D269
330
18
100
AcDbEntity
  8
1：主線
100
AcDbLine
 10
2621.906465580459
 20
814.5959080255474
 30
0.0000000000004547
 11
2623.320679142829
 21
813.7815165979631
 31
-0.000000000001819
210
0.0
220
0.8175471248425395
230
0.5758617009853121
  0
LINE
  5
D26A
330
18
100
AcDbEntity
  8
1：主線
100
AcDbLine
 10
2471.166817439808
 20
741.5527831959284
 30
0.0000000000004547
 11
2469.752603877435
 21
742.3671746235154
 31
0.0000000000004547
210
0.0
220
0.8175471248425395
230
0.5758617009853121
  0
LINE
  5
D26B
330
18
100
AcDbEntity
  8
1：主線
100
AcDbLine
 10
2594.470722470422
 20
830.3951017206932
 30
0.0000000000004547
 11
2595.884936032792
 21
829.5807102931089
 31
0.0000000000004547
210
0.0
220
0.8175471248425395
230
0.5758617009853121
  0
LINE
  5
D26C
330
18
100
AcDbEntity
  8
1：主線
100
AcDbLine
 10
2443.731074329772
 20
757.3519768910742
 30
0.0000000000004547
 11
2442.316860767403
 21
758.1663683186584
 31
0.0000000000004547
210
0.0
220
0.8175471248425395
230
0.5758617009853121
  0
LINE
  5
D26D
330
18
100
AcDbEntity
  8
1：主線
100
AcDbLine
 10
2567.034979360387
 20
846.194295415839
 30
0.0000000000004547
 11
2568.44919292276
 21
845.3799039882547
 31
0.0000000000004547
210
0.0
220
0.8175471248425395
230
0.5758617009853121
  0
LINE
  5
D26E
330
18
100
AcDbEntity
  8
1：主線
100
AcDbLine
 10
2416.29533121974
 20
773.1511705862171
 30
0.0000000000004547
 11
2414.881117657366
 21
773.9655620138042
 31
0.0000000000004547
210
0.0
220
0.8175471248425395
230
0.5758617009853121
  0
LINE
  5
D26F
330
18
100
AcDbEntity
  8
1：主線
100
AcDbLine
 10
2430.013202774758
 20
765.2515737386461
 30
0.0000000000004547
 11
2428.598989212384
 21
766.0659651662322
 31
0.0000000000004547
210
0.0
220
0.8175471248425395
230
0.5758617009853121
  0
LINE
  5
D270
330
18
100
AcDbEntity
  8
1：主線
100
AcDbLine
 10
2580.752850915405
 20
838.2946985682652
 30
-0.000000000001819
 11
2582.167064477778
 21
837.4803071406827
 31
-0.000000000001819
210
0.0
220
0.8175471248425395
230
0.5758617009853121
  0
LINE
  5
D271
330
18
100
AcDbEntity
  8
1：主線
100
AcDbLine
 10
2457.44894588479
 20
749.4523800435022
 30
0.0000000000004547
 11
2456.034732322421
 21
750.2667714710865
 31
0.0000000000004547
210
0.0
220
0.8175471248425395
230
0.5758617009853121
  0
LINE
  5
D272
330
18
100
AcDbEntity
  8
1：主線
100
AcDbLine
 10
2608.188594025441
 20
822.4955048731212
 30
-0.000000000001819
 11
2609.602807587811
 21
821.6811134455369
 31
0.0000000000004547
210
0.0
220
0.8175471248425395
230
0.5758617009853121
  0
LINE
  5
D273
330
18
100
AcDbEntity
  8
1：主線
100
AcDbLine
 10
2628.765401357961
 20
810.6461096017634
 30
0.0000000000004547
 11
2630.179614920337
 21
809.8317181741773
 31
0.0000000000004547
210
0.0
220
0.8175471248425395
230
0.5758617009853121
  0
LINE
  5
D274
330
18
100
AcDbEntity
  8
1：主線
100
AcDbLine
 10
2478.025753217317
 20
737.6029847721443
 30
0.0000000000004547
 11
2476.611539654944
 21
738.4173761997285
 31
-0.000000000001819
210
0.0
220
0.8175471248425395
230
0.5758617009853121
  0
LINE
  5
D275
330
18
100
AcDbEntity
  8
1：主線
100
AcDbLine
 10
2601.329658247928
 20
826.445303296909
 30
0.0000000000004547
 11
2602.743871810305
 21
825.630911869322
 31
0.0000000000004547
210
0.0
220
0.8175471248425395
230
0.5758617009853121
  0
LINE
  5
D276
330
18
100
AcDbEntity
  8
1：主線
100
AcDbLine
 10
2450.590010107281
 20
753.4021784672873
 30
0.0000000000004547
 11
2449.175796544912
 21
754.2165698948743
 31
-0.000000000001819
210
0.0
220
0.8175471248425395
230
0.5758617009853121
  0
LINE
  5
D277
330
18
100
AcDbEntity
  8
1：主線
100
AcDbLine
 10
2708.006072798636
 20
788.0257612100072
 30
0.0000000000004547
 11
2708.000230036444
 21
787.9451829123431
 31
0.0000000000004547
210
0.0
220
0.8175471248425395
230
0.5758617009853121
  0
LINE
  5
D278
330
18
100
AcDbEntity
  8
1：主線
100
AcDbLine
 10
2478.360605429113
 20
678.9332982407554
 30
0.0000000000004547
 11
2478.366448191305
 21
679.0138765384167
 31
-0.000000000001819
210
0.0
220
0.8175471248425395
230
0.5758617009853121
  0
LINE
  5
D279
330
18
100
AcDbEntity
  8
1：主線
100
AcDbLine
 10
2478.360605429113
 20
678.9332982407554
 30
0.0000000000004547
 11
2708.000230036444
 21
787.9451829123431
 31
0.0000000000004547
210
0.0
220
0.8175471248425395
230
0.5758617009853121
  0
LINE
  5
D27A
330
18
100
AcDbEntity
  8
1：主線
100
AcDbLine
 10
2484.990755012002
 20
733.5921069912878
 30
0.0000000000004547
 11
2478.213535918473
 21
685.5066479571437
 31
0.0000000000027285
210
0.0
220
0.8175471248425395
230
0.5758617009853121
  0
LINE
  5
D27B
330
18
100
AcDbEntity
  8
1：主線
100
AcDbLine
 10
2478.213535918473
 20
685.5066479571437
 30
0.0000000000027285
 11
2645.512342189156
 21
764.9248154709571
 31
0.0000000000004547
210
0.0
220
0.8175471248425395
230
0.5758617009853121
  0
LINE
  5
D27C
330
18
100
AcDbEntity
  8
1：主線
100
AcDbLine
 10
2645.512342189156
 20
764.9248154709571
 30
0.0000000000004547
 11
2637.144616715018
 21
805.8208403933226
 31
0.0000000000004547
210
0.0
220
0.8175471248425395
230
0.5758617009853121
  0
LINE
  5
D27D
330
18
100
AcDbEntity
  8
1：主線
100
AcDbLine
 10
2477.720508584746
 20
678.7072435084442
 30
0.0000000000004547
 11
2478.213535918473
 21
685.5066479571437
 31
0.0000000000027285
210
0.0
220
0.8175471248425395
230
0.5758617009853121
  0
LINE
  5
D27E
330
18
100
AcDbEntity
  8
1：主線
100
AcDbLine
 10
2477.720508584746
 20
678.7072435084442
 30
0.0000000000004547
 11
2710.17779729769
 21
789.0566973171112
 31
0.0000000000004547
210
0.0
220
0.8175471248425395
230
0.5758617009853121
  0
LINE
  5
D27F
330
18
100
AcDbEntity
  8
1：主線
100
AcDbLine
 10
2710.17779729769
 20
789.0566973171112
 30
0.0000000000004547
 11
2710.67082463142
 21
795.8561017658107
 31
0.0000000000004547
210
0.0
220
0.8175471248425395
230
0.5758617009853121
  0
LINE
  5
D280
330
18
100
AcDbEntity
  8
1：主線
100
AcDbLine
 10
2645.512342189156
 20
764.9248154709571
 30
0.0000000000004547
 11
2649.03442232117
 21
766.5967768923005
 31
0.0000000000004547
210
0.0
220
0.8175471248425395
230
0.5758617009853121
  0
LINE
  5
D281
330
18
100
AcDbEntity
  8
1：主線
100
AcDbLine
 10
2476.734453917285
 20
665.1084346110442
 30
0.0000000000004547
 11
2477.658880167111
 21
677.8573179396921
 31
-0.000000000001819
210
0.0
220
0.8175471248425395
230
0.5758617009853121
  0
LINE
  5
D282
330
18
100
AcDbEntity
  8
1：主線
100
AcDbLine
 10
2476.734453917285
 20
665.1084346110442
 30
0.0000000000004547
 11
2709.191742630229
 21
775.4578884197112
 31
0.0000000000004547
210
0.0
220
0.8175471248425395
230
0.5758617009853121
  0
LINE
  5
D283
330
18
100
AcDbEntity
  8
1：主線
100
AcDbLine
 10
2709.191742630229
 20
775.4578884197112
 30
0.0000000000004547
 11
2710.116168880054
 21
788.2067717483591
 31
0.0000000000004547
210
0.0
220
0.8175471248425395
230
0.5758617009853121
  0
LINE
  5
D284
330
18
100
AcDbEntity
  8
1：主線
100
AcDbLine
 10
2477.658880167111
 20
677.8573179396921
 30
-0.000000000001819
 11
2710.116168880054
 21
788.2067717483591
 31
0.0000000000004547
210
0.0
220
0.8175471248425395
230
0.5758617009853121
  0
LINE
  5
D285
330
18
100
AcDbEntity
  8
1：主線
100
AcDbLine
 10
2573.893915137892
 20
842.2444969920539
 30
0.0000000000004547
 11
2575.308128700269
 21
841.4301055644669
 31
0.0000000000004547
210
0.0
220
0.8175471248425395
230
0.5758617009853121
  0
LINE
  5
D286
330
18
100
AcDbEntity
  8
1：主線
100
AcDbLine
 10
2423.154266997253
 20
769.2013721624321
 30
0.0000000000004547
 11
2421.740053434876
 21
770.0157635900163
 31
-0.000000000001819
210
0.0
220
0.8175471248425395
230
0.5758617009853121
  0
LINE
  5
D287
330
18
100
AcDbEntity
  8
1：主線
100
AcDbLine
 10
2534.544262913148
 20
910.1458354159317
 30
0.0000000000004547
 11
2510.405586991537
 21
898.6870004688229
 31
0.0000000000004547
210
0.0
220
0.8175471248425395
230
0.5758617009853121
  0
LINE
  5
D288
330
18
100
AcDbEntity
  8
1：主線
100
AcDbLine
 10
2554.17364614047
 20
919.4640707344701
 30
0.0000000000004547
 11
2699.837643064876
 21
835.5817536932359
 31
0.0000000000004547
210
0.0
220
0.8175471248425395
230
0.5758617009853121
  0
LINE
  5
D289
330
18
100
AcDbEntity
  8
1：主線
100
AcDbLine
 10
2554.17364614047
 20
919.4640707344701
 30
0.0000000000004547
 11
2534.544262913148
 21
910.1458354159317
 31
0.0000000000004547
210
0.0
220
0.8175471248425395
230
0.5758617009853121
  0
LINE
  5
D28A
330
18
100
AcDbEntity
  8
1：主線
100
AcDbLine
 10
2510.405586991537
 20
898.6870004688229
 30
0.0000000000004547
 11
2497.115948001841
 21
892.3782957087055
 31
0.0000000000004547
210
0.0
220
0.8175471248425395
230
0.5758617009853121
  0
LINE
  5
D28B
330
18
100
AcDbEntity
  8
1：主線
100
AcDbLine
 10
2642.77994492625
 20
808.495978667474
 30
0.0000000000004547
 11
2497.115948001841
 21
892.3782957087055
 31
0.0000000000004547
210
0.0
220
0.8175471248425395
230
0.5758617009853121
  0
LINE
  5
D28C
330
18
100
AcDbEntity
  8
1：主線
100
AcDbLine
 10
2497.115948001841
 20
892.3782957087055
 30
0.0000000000004547
 11
2492.998110408041
 21
883.1062997244147
 31
-0.000000000001819
210
0.0
220
0.8175471248425395
230
0.5758617009853121
  0
LINE
  5
D28D
330
18
100
AcDbEntity
  8
1：主線
100
AcDbLine
 10
2387.253437951823
 20
761.2817746712075
 30
0.0000000000004547
 11
2395.718523887216
 21
785.0005658575778
 31
0.0000000000004547
210
0.0
220
0.8175471248425395
230
0.5758617009853121
  0
LINE
  5
D28E
330
18
100
AcDbEntity
  8
1：主線
100
AcDbLine
 10
2387.253437951823
 20
761.2817746712075
 30
0.0000000000004547
 11
2393.580577280479
 21
764.2853215720347
 31
0.0000000000004547
210
0.0
220
0.8175471248425395
230
0.5758617009853121
  0
LINE
  5
D28F
330
18
100
AcDbEntity
  8
1：主線
100
AcDbLine
 10
2547.872385590233
 20
857.2292992596127
 30
0.0000000000004547
 11
2547.833081478993
 21
851.4905782819974
 31
0.0000000000004547
210
0.0
220
0.8175471248425395
230
0.5758617009853121
  0
LINE
  5
D290
330
18
100
AcDbEntity
  8
1：主線
100
AcDbLine
 10
2395.718523887216
 20
785.0005658575778
 30
0.0000000000004547
 11
2547.872385590233
 21
857.2292992596127
 31
0.0000000000004547
210
0.0
220
0.8175471248425395
230
0.5758617009853121
  0
LINE
  5
D291
330
18
100
AcDbEntity
  8
1：主線
100
AcDbLine
 10
2391.28394659405
 20
758.9607591086574
 30
0.0000000000027285
 11
2387.253437951823
 21
761.2817746712075
 31
0.0000000000004547
210
0.0
220
0.8175471248425395
230
0.5758617009853121
  0
LINE
  5
D292
330
18
100
AcDbEntity
  8
1：主線
100
AcDbLine
 10
2401.163246102348
 20
781.8651588613752
 30
0.0000000000004547
 11
2391.28394659405
 21
758.9607591086574
 31
0.0000000000027285
210
0.0
220
0.8175471248425395
230
0.5758617009853121
  0
LINE
  5
D293
330
18
100
AcDbEntity
  8
1：主線
100
AcDbLine
 10
2553.317107805368
 20
854.0938922634127
 30
0.0000000000004547
 11
2401.163246102348
 21
781.8651588613752
 31
0.0000000000004547
210
0.0
220
0.8175471248425395
230
0.5758617009853121
  0
LINE
  5
D294
330
18
100
AcDbEntity
  8
1：主線
100
AcDbLine
 10
2359.817694841794
 20
777.0809683663523
 30
0.0000000000004547
 11
2368.282780777184
 21
800.7997595527209
 31
0.0000000000004547
210
0.0
220
0.8175471248425395
230
0.5758617009853121
  0
LINE
  5
D295
330
18
100
AcDbEntity
  8
1：主線
100
AcDbLine
 10
2359.817694841794
 20
777.0809683663523
 30
0.0000000000004547
 11
2366.144834170446
 21
780.0845152671777
 31
0.0000000000004547
210
0.0
220
0.8175471248425395
230
0.5758617009853121
  0
LINE
  5
D296
330
18
100
AcDbEntity
  8
1：主線
100
AcDbLine
 10
2520.436642480201
 20
873.0284929547556
 30
0.0000000000027285
 11
2520.39733836896
 21
867.289771977143
 31
-0.000000000001819
210
0.0
220
0.8175471248425395
230
0.5758617009853121
  0
LINE
  5
D297
330
18
100
AcDbEntity
  8
1：主線
100
AcDbLine
 10
2368.282780777184
 20
800.7997595527209
 30
0.0000000000004547
 11
2520.436642480201
 21
873.0284929547556
 31
0.0000000000027285
210
0.0
220
0.8175471248425395
230
0.5758617009853121
  0
LINE
  5
D298
330
18
100
AcDbEntity
  8
1：主線
100
AcDbLine
 10
2363.848203484014
 20
774.7599528038031
 30
-0.000000000001819
 11
2359.817694841794
 21
777.0809683663523
 31
0.0000000000004547
210
0.0
220
0.8175471248425395
230
0.5758617009853121
  0
LINE
  5
D299
330
18
100
AcDbEntity
  8
1：主線
100
AcDbLine
 10
2373.727502992316
 20
797.66435255652
 30
0.0000000000027285
 11
2363.848203484014
 21
774.7599528038031
 31
-0.000000000001819
210
0.0
220
0.8175471248425395
230
0.5758617009853121
  0
LINE
  5
D29A
330
18
100
AcDbEntity
  8
1：主線
100
AcDbLine
 10
2525.881364695336
 20
869.8930859585574
 30
0.0000000000004547
 11
2373.727502992316
 21
797.66435255652
 31
0.0000000000027285
210
0.0
220
0.8175471248425395
230
0.5758617009853121
  0
LINE
  5
D29B
330
18
100
AcDbEntity
  8
1：主線
100
AcDbLine
 10
2332.381951731758
 20
792.8801620614981
 30
0.0000000000004547
 11
2340.847037667148
 21
816.5989532478656
 31
0.0000000000004547
210
0.0
220
0.8175471248425395
230
0.5758617009853121
  0
LINE
  5
D29C
330
18
100
AcDbEntity
  8
1：主線
100
AcDbLine
 10
2332.381951731758
 20
792.8801620614981
 30
0.0000000000004547
 11
2338.70909106041
 21
795.8837089623252
 31
0.0000000000004547
210
0.0
220
0.8175471248425395
230
0.5758617009853121
  0
LINE
  5
D29D
330
18
100
AcDbEntity
  8
1：主線
100
AcDbLine
 10
2493.000899370164
 20
888.8276866499031
 30
0.0000000000004547
 11
2492.961595258928
 21
883.0889656722879
 31
-0.000000000001819
210
0.0
220
0.8175471248425395
230
0.5758617009853121
  0
LINE
  5
D29E
330
18
100
AcDbEntity
  8
1：主線
100
AcDbLine
 10
2340.847037667148
 20
816.5989532478656
 30
0.0000000000004547
 11
2493.000899370164
 21
888.8276866499031
 31
0.0000000000004547
210
0.0
220
0.8175471248425395
230
0.5758617009853121
  0
LINE
  5
D29F
330
18
100
AcDbEntity
  8
1：主線
100
AcDbLine
 10
2336.412460373981
 20
790.5591464989488
 30
-0.000000000001819
 11
2332.381951731758
 21
792.8801620614981
 31
0.0000000000004547
210
0.0
220
0.8175471248425395
230
0.5758617009853121
  0
LINE
  5
D2A0
330
18
100
AcDbEntity
  8
1：主線
100
AcDbLine
 10
2346.291759882287
 20
813.4635462516657
 30
0.0000000000004547
 11
2336.412460373981
 21
790.5591464989488
 31
-0.000000000001819
210
0.0
220
0.8175471248425395
230
0.5758617009853121
  0
LINE
  5
D2A1
330
18
100
AcDbEntity
  8
1：主線
100
AcDbLine
 10
2498.445621585303
 20
885.6922796537006
 30
-0.000000000001819
 11
2346.291759882287
 21
813.4635462516657
 31
0.0000000000004547
210
0.0
220
0.8175471248425395
230
0.5758617009853121
  0
LINE
  5
D2A2
330
18
100
AcDbEntity
  8
1：主線
100
AcDbLine
 10
2352.958759064282
 20
781.0307667901402
 30
0.0000000000004547
 11
2361.423844999675
 21
804.7495579765078
 31
0.0000000000004547
210
0.0
220
0.8175471248425395
230
0.5758617009853121
  0
LINE
  5
D2A3
330
18
100
AcDbEntity
  8
1：主線
100
AcDbLine
 10
2352.958759064282
 20
781.0307667901402
 30
0.0000000000004547
 11
2359.285898392937
 21
784.0343136909673
 31
0.0000000000004547
210
0.0
220
0.8175471248425395
230
0.5758617009853121
  0
LINE
  5
D2A4
330
18
100
AcDbEntity
  8
1：主線
100
AcDbLine
 10
2513.577706702691
 20
876.9782913785425
 30
0.0000000000004547
 11
2513.538402591451
 21
871.2395704009272
 31
0.0000000000004547
210
0.0
220
0.8175471248425395
230
0.5758617009853121
  0
LINE
  5
D2A5
330
18
100
AcDbEntity
  8
1：主線
100
AcDbLine
 10
2361.423844999675
 20
804.7495579765078
 30
0.0000000000004547
 11
2513.577706702691
 21
876.9782913785425
 31
0.0000000000004547
210
0.0
220
0.8175471248425395
230
0.5758617009853121
  0
LINE
  5
D2A6
330
18
100
AcDbEntity
  8
1：主線
100
AcDbLine
 10
2356.989267706512
 20
778.70975122759
 30
0.0000000000004547
 11
2352.958759064282
 21
781.0307667901402
 31
0.0000000000004547
210
0.0
220
0.8175471248425395
230
0.5758617009853121
  0
LINE
  5
D2A7
330
18
100
AcDbEntity
  8
1：主線
100
AcDbLine
 10
2366.868567214807
 20
801.6141509803079
 30
-0.000000000001819
 11
2356.989267706512
 21
778.70975122759
 31
0.0000000000004547
210
0.0
220
0.8175471248425395
230
0.5758617009853121
  0
LINE
  5
D2A8
330
18
100
AcDbEntity
  8
1：主線
100
AcDbLine
 10
2519.022428917827
 20
873.8428843823426
 30
0.0000000000004547
 11
2366.868567214807
 21
801.6141509803079
 31
-0.000000000001819
210
0.0
220
0.8175471248425395
230
0.5758617009853121
  0
LINE
  5
D2A9
330
18
100
AcDbEntity
  8
1：主線
100
AcDbLine
 10
2380.394502174314
 20
765.2315730949944
 30
0.0000000000004547
 11
2388.859588109704
 21
788.9503642813647
 31
0.0000000000004547
210
0.0
220
0.8175471248425395
230
0.5758617009853121
  0
LINE
  5
D2AA
330
18
100
AcDbEntity
  8
1：主線
100
AcDbLine
 10
2380.394502174314
 20
765.2315730949944
 30
0.0000000000004547
 11
2386.72164150297
 21
768.2351199958215
 31
0.0000000000004547
210
0.0
220
0.8175471248425395
230
0.5758617009853121
  0
LINE
  5
D2AB
330
18
100
AcDbEntity
  8
1：主線
100
AcDbLine
 10
2541.013449812723
 20
861.1790976833995
 30
0.0000000000004547
 11
2540.97414570148
 21
855.4403767057843
 31
0.0000000000004547
210
0.0
220
0.8175471248425395
230
0.5758617009853121
  0
LINE
  5
D2AC
330
18
100
AcDbEntity
  8
1：主線
100
AcDbLine
 10
2388.859588109704
 20
788.9503642813647
 30
0.0000000000004547
 11
2541.013449812723
 21
861.1790976833995
 31
0.0000000000004547
210
0.0
220
0.8175471248425395
230
0.5758617009853121
  0
LINE
  5
D2AD
330
18
100
AcDbEntity
  8
1：主線
100
AcDbLine
 10
2384.425010816541
 20
762.9105575324452
 30
0.0000000000004547
 11
2380.394502174314
 21
765.2315730949944
 31
0.0000000000004547
210
0.0
220
0.8175471248425395
230
0.5758617009853121
  0
LINE
  5
D2AE
330
18
100
AcDbEntity
  8
1：主線
100
AcDbLine
 10
2394.304310324839
 20
785.8149572851621
 30
-0.000000000001819
 11
2384.425010816541
 21
762.9105575324452
 31
0.0000000000004547
210
0.0
220
0.8175471248425395
230
0.5758617009853121
  0
LINE
  5
D2AF
330
18
100
AcDbEntity
  8
1：主線
100
AcDbLine
 10
2546.458172027863
 20
858.0436906871968
 30
0.0000000000004547
 11
2394.304310324839
 21
785.8149572851621
 31
-0.000000000001819
210
0.0
220
0.8175471248425395
230
0.5758617009853121
  0
LINE
  5
D2B0
330
18
100
AcDbEntity
  8
1：主線
100
AcDbLine
 10
2394.112373729332
 20
757.3319762474207
 30
-0.000000000001819
 11
2402.577459664722
 21
781.0507674337909
 31
0.0000000000004547
210
0.0
220
0.8175471248425395
230
0.5758617009853121
  0
LINE
  5
D2B1
330
18
100
AcDbEntity
  8
1：主線
100
AcDbLine
 10
2394.112373729332
 20
757.3319762474207
 30
-0.000000000001819
 11
2400.439513057988
 21
760.3355231482478
 31
0.0000000000004547
210
0.0
220
0.8175471248425395
230
0.5758617009853121
  0
LINE
  5
D2B2
330
18
100
AcDbEntity
  8
1：主線
100
AcDbLine
 10
2554.731321367742
 20
853.2795008358258
 30
0.0000000000004547
 11
2554.692017256498
 21
847.5407798582132
 31
0.0000000000004547
210
0.0
220
0.8175471248425395
230
0.5758617009853121
  0
LINE
  5
D2B3
330
18
100
AcDbEntity
  8
1：主線
100
AcDbLine
 10
2402.577459664722
 20
781.0507674337909
 30
0.0000000000004547
 11
2554.731321367742
 21
853.2795008358258
 31
0.0000000000004547
210
0.0
220
0.8175471248425395
230
0.5758617009853121
  0
LINE
  5
D2B4
330
18
100
AcDbEntity
  8
1：主線
100
AcDbLine
 10
2398.142882371559
 20
755.0109606848732
 30
0.0000000000004547
 11
2394.112373729332
 21
757.3319762474207
 31
-0.000000000001819
210
0.0
220
0.8175471248425395
230
0.5758617009853121
  0
LINE
  5
D2B5
330
18
100
AcDbEntity
  8
1：主線
100
AcDbLine
 10
2408.022181879861
 20
777.9153604375883
 30
0.0000000000004547
 11
2398.142882371559
 21
755.0109606848732
 31
0.0000000000004547
210
0.0
220
0.8175471248425395
230
0.5758617009853121
  0
LINE
  5
D2B6
330
18
100
AcDbEntity
  8
1：主線
100
AcDbLine
 10
2560.176043582874
 20
850.144093839625
 30
0.0000000000004547
 11
2408.022181879861
 21
777.9153604375883
 31
0.0000000000004547
210
0.0
220
0.8175471248425395
230
0.5758617009853121
  0
LINE
  5
D2B7
330
18
100
AcDbEntity
  8
1：主線
100
AcDbLine
 10
2370.70713926153
 20
770.8101543800162
 30
0.0000000000027285
 11
2366.676630619296
 21
773.1311699425682
 31
-0.000000000001819
210
0.0
220
0.8175471248425395
230
0.5758617009853121
  0
LINE
  5
D2B8
330
18
100
AcDbEntity
  8
1：主線
100
AcDbLine
 10
2366.676630619296
 20
773.1311699425682
 30
-0.000000000001819
 11
2373.003769947955
 21
776.1347168433953
 31
-0.000000000001819
210
0.0
220
0.8175471248425395
230
0.5758617009853121
  0
LINE
  5
D2B9
330
18
100
AcDbEntity
  8
1：主線
100
AcDbLine
 10
2366.676630619296
 20
773.1311699425682
 30
-0.000000000001819
 11
2375.141716554685
 21
796.8499611289358
 31
0.0000000000004547
210
0.0
220
0.8175471248425395
230
0.5758617009853121
  0
LINE
  5
D2BA
330
18
100
AcDbEntity
  8
1：主線
100
AcDbLine
 10
2527.295578257709
 20
869.0786945309705
 30
-0.000000000001819
 11
2527.256274146469
 21
863.3399735533552
 31
0.0000000000027285
210
0.0
220
0.8175471248425395
230
0.5758617009853121
  0
LINE
  5
D2BB
330
18
100
AcDbEntity
  8
1：主線
100
AcDbLine
 10
2375.141716554685
 20
796.8499611289358
 30
0.0000000000004547
 11
2527.295578257709
 21
869.0786945309705
 31
-0.000000000001819
210
0.0
220
0.8175471248425395
230
0.5758617009853121
  0
LINE
  5
D2BC
330
18
100
AcDbEntity
  8
1：主線
100
AcDbLine
 10
2380.586438769825
 20
793.714554132734
 30
0.0000000000004547
 11
2370.70713926153
 21
770.8101543800162
 31
0.0000000000027285
210
0.0
220
0.8175471248425395
230
0.5758617009853121
  0
LINE
  5
D2BD
330
18
100
AcDbEntity
  8
1：主線
100
AcDbLine
 10
2532.740300472845
 20
865.9432875347706
 30
0.0000000000027285
 11
2380.586438769825
 21
793.714554132734
 31
0.0000000000004547
210
0.0
220
0.8175471248425395
230
0.5758617009853121
  0
LINE
  5
D2BE
330
18
100
AcDbEntity
  8
1：主線
100
AcDbLine
 10
2339.240887509264
 20
788.9303636377112
 30
-0.000000000001819
 11
2347.705973444657
 21
812.6491548240815
 31
-0.000000000001819
210
0.0
220
0.8175471248425395
230
0.5758617009853121
  0
LINE
  5
D2BF
330
18
100
AcDbEntity
  8
1：主線
100
AcDbLine
 10
2339.240887509264
 20
788.9303636377112
 30
-0.000000000001819
 11
2345.568026837919
 21
791.9339105385383
 31
-0.000000000001819
210
0.0
220
0.8175471248425395
230
0.5758617009853121
  0
LINE
  5
D2C0
330
18
100
AcDbEntity
  8
1：主線
100
AcDbLine
 10
2499.859835147673
 20
884.8778882261163
 30
-0.000000000001819
 11
2499.820531036437
 21
879.139167248501
 31
0.0000000000004547
210
0.0
220
0.8175471248425395
230
0.5758617009853121
  0
LINE
  5
D2C1
330
18
100
AcDbEntity
  8
1：主線
100
AcDbLine
 10
2347.705973444657
 20
812.6491548240815
 30
-0.000000000001819
 11
2499.859835147673
 21
884.8778882261163
 31
-0.000000000001819
210
0.0
220
0.8175471248425395
230
0.5758617009853121
  0
LINE
  5
D2C2
330
18
100
AcDbEntity
  8
1：主線
100
AcDbLine
 10
2343.271396151494
 20
786.609348075161
 30
0.0000000000004547
 11
2339.240887509264
 21
788.9303636377112
 31
-0.000000000001819
210
0.0
220
0.8175471248425395
230
0.5758617009853121
  0
LINE
  5
D2C3
330
18
100
AcDbEntity
  8
1：主線
100
AcDbLine
 10
2353.150695659792
 20
809.5137478278788
 30
0.0000000000004547
 11
2343.271396151494
 21
786.609348075161
 31
0.0000000000004547
210
0.0
220
0.8175471248425395
230
0.5758617009853121
  0
LINE
  5
D2C4
330
18
100
AcDbEntity
  8
1：主線
100
AcDbLine
 10
2505.304557362809
 20
881.7424812299163
 30
0.0000000000004547
 11
2353.150695659792
 21
809.5137478278788
 31
0.0000000000004547
210
0.0
220
0.8175471248425395
230
0.5758617009853121
  0
LINE
  5
D2C5
330
18
100
AcDbEntity
  8
1：主線
100
AcDbLine
 10
2346.099823286776
 20
784.9805652139261
 30
0.0000000000004547
 11
2354.564909222165
 21
808.6993564002947
 31
0.0000000000004547
210
0.0
220
0.8175471248425395
230
0.5758617009853121
  0
LINE
  5
D2C6
330
18
100
AcDbEntity
  8
1：主線
100
AcDbLine
 10
2346.099823286776
 20
784.9805652139261
 30
0.0000000000004547
 11
2352.426962615428
 21
787.9841121147515
 31
0.0000000000004547
210
0.0
220
0.8175471248425395
230
0.5758617009853121
  0
LINE
  5
D2C7
330
18
100
AcDbEntity
  8
1：主線
100
AcDbLine
 10
2506.718770925183
 20
880.928089802332
 30
0.0000000000004547
 11
2506.679466813942
 21
875.1893688247141
 31
0.0000000000004547
210
0.0
220
0.8175471248425395
230
0.5758617009853121
  0
LINE
  5
D2C8
330
18
100
AcDbEntity
  8
1：主線
100
AcDbLine
 10
2354.564909222165
 20
808.6993564002947
 30
0.0000000000004547
 11
2506.718770925183
 21
880.928089802332
 31
0.0000000000004547
210
0.0
220
0.8175471248425395
230
0.5758617009853121
  0
LINE
  5
D2C9
330
18
100
AcDbEntity
  8
1：主線
100
AcDbLine
 10
2350.130331928999
 20
782.6595496513751
 30
0.0000000000004547
 11
2346.099823286776
 21
784.9805652139261
 31
0.0000000000004547
210
0.0
220
0.8175471248425395
230
0.5758617009853121
  0
LINE
  5
D2CA
330
18
100
AcDbEntity
  8
1：主線
100
AcDbLine
 10
2360.009631437298
 20
805.5639494040919
 30
0.0000000000004547
 11
2350.130331928999
 21
782.6595496513751
 31
0.0000000000004547
210
0.0
220
0.8175471248425395
230
0.5758617009853121
  0
LINE
  5
D2CB
330
18
100
AcDbEntity
  8
1：主線
100
AcDbLine
 10
2512.163493140318
 20
877.7926828061286
 30
0.0000000000004547
 11
2360.009631437298
 21
805.5639494040919
 31
0.0000000000004547
210
0.0
220
0.8175471248425395
230
0.5758617009853121
  0
LINE
  5
D2CC
330
18
100
AcDbEntity
  8
1：主線
100
AcDbLine
 10
2373.535566396805
 20
769.1813715187786
 30
0.0000000000027285
 11
2382.000652332198
 21
792.9001627051498
 31
0.0000000000027285
210
0.0
220
0.8175471248425395
230
0.5758617009853121
  0
LINE
  5
D2CD
330
18
100
AcDbEntity
  8
1：主線
100
AcDbLine
 10
2373.535566396805
 20
769.1813715187786
 30
0.0000000000027285
 11
2379.862705725461
 21
772.1849184196058
 31
0.0000000000004547
210
0.0
220
0.8175471248425395
230
0.5758617009853121
  0
LINE
  5
D2CE
330
18
100
AcDbEntity
  8
1：主線
100
AcDbLine
 10
2534.154514035215
 20
865.1288961071845
 30
0.0000000000027285
 11
2534.115209923978
 21
859.3901751295712
 31
0.0000000000004547
210
0.0
220
0.8175471248425395
230
0.5758617009853121
  0
LINE
  5
D2CF
330
18
100
AcDbEntity
  8
1：主線
100
AcDbLine
 10
2382.000652332198
 20
792.9001627051498
 30
0.0000000000027285
 11
2534.154514035215
 21
865.1288961071845
 31
0.0000000000027285
210
0.0
220
0.8175471248425395
230
0.5758617009853121
  0
LINE
  5
D2D0
330
18
100
AcDbEntity
  8
1：主線
100
AcDbLine
 10
2377.566075039032
 20
766.8603559562312
 30
0.0000000000004547
 11
2373.535566396805
 21
769.1813715187786
 31
0.0000000000027285
210
0.0
220
0.8175471248425395
230
0.5758617009853121
  0
LINE
  5
D2D1
330
18
100
AcDbEntity
  8
1：主線
100
AcDbLine
 10
2387.445374547334
 20
789.764755708949
 30
0.0000000000004547
 11
2377.566075039032
 21
766.8603559562312
 31
0.0000000000004547
210
0.0
220
0.8175471248425395
230
0.5758617009853121
  0
LINE
  5
D2D2
330
18
100
AcDbEntity
  8
1：主線
100
AcDbLine
 10
2539.599236250354
 20
861.9934891109837
 30
0.0000000000004547
 11
2387.445374547334
 21
789.764755708949
 31
0.0000000000004547
210
0.0
220
0.8175471248425395
230
0.5758617009853121
  0
LINE
  5
D2D3
330
18
100
AcDbEntity
  8
1：主線
100
AcDbLine
 10
2400.971309506841
 20
753.3821778236365
 30
0.0000000000004547
 11
2409.436395442234
 21
777.1009690100059
 31
0.0000000000004547
210
0.0
220
0.8175471248425395
230
0.5758617009853121
  0
LINE
  5
D2D4
330
18
100
AcDbEntity
  8
1：主線
100
AcDbLine
 10
2400.971309506841
 20
753.3821778236365
 30
0.0000000000004547
 11
2407.298448848194
 21
756.3857247304909
 31
-0.000000000001819
210
0.0
220
0.8175471248425395
230
0.5758617009853121
  0
LINE
  5
D2D5
330
18
100
AcDbEntity
  8
1：主線
100
AcDbLine
 10
2561.590257145251
 20
849.3297024120407
 30
0.0000000000004547
 11
2561.550953034011
 21
843.5909814344254
 31
0.0000000000004547
210
0.0
220
0.8175471248425395
230
0.5758617009853121
  0
LINE
  5
D2D6
330
18
100
AcDbEntity
  8
1：主線
100
AcDbLine
 10
2409.436395442234
 20
777.1009690100059
 30
0.0000000000004547
 11
2561.590257145251
 21
849.3297024120407
 31
0.0000000000004547
210
0.0
220
0.8175471248425395
230
0.5758617009853121
  0
LINE
  5
D2D7
330
18
100
AcDbEntity
  8
1：主線
100
AcDbLine
 10
2405.001818159607
 20
751.0611622550173
 30
0.0000000000004547
 11
2400.971309506841
 21
753.3821778236365
 31
0.0000000000004547
210
0.0
220
0.8175471248425395
230
0.5758617009853121
  0
LINE
  5
D2D8
330
18
100
AcDbEntity
  8
1：主線
100
AcDbLine
 10
2394.304310324839
 20
785.8149572851621
 30
-0.000000000001819
 11
2395.718523887216
 21
785.0005658575778
 31
0.0000000000004547
210
0.0
220
0.8175471248425395
230
0.5758617009853121
  0
LINE
  5
D2D9
330
18
100
AcDbEntity
  8
1：主線
100
AcDbLine
 10
2387.445374547334
 20
789.764755708949
 30
0.0000000000004547
 11
2388.859588109704
 21
788.9503642813647
 31
0.0000000000004547
210
0.0
220
0.8175471248425395
230
0.5758617009853121
  0
LINE
  5
D2DA
330
18
100
AcDbEntity
  8
1：主線
100
AcDbLine
 10
2380.586438769825
 20
793.714554132734
 30
0.0000000000004547
 11
2382.000652332198
 21
792.9001627051498
 31
0.0000000000027285
210
0.0
220
0.8175471248425395
230
0.5758617009853121
  0
LINE
  5
D2DB
330
18
100
AcDbEntity
  8
1：主線
100
AcDbLine
 10
2373.727502992316
 20
797.66435255652
 30
0.0000000000027285
 11
2375.141716554685
 21
796.8499611289358
 31
0.0000000000004547
210
0.0
220
0.8175471248425395
230
0.5758617009853121
  0
LINE
  5
D2DC
330
18
100
AcDbEntity
  8
1：主線
100
AcDbLine
 10
2366.868567214807
 20
801.6141509803079
 30
-0.000000000001819
 11
2368.282780777184
 21
800.7997595527209
 31
0.0000000000004547
210
0.0
220
0.8175471248425395
230
0.5758617009853121
  0
LINE
  5
D2DD
330
18
100
AcDbEntity
  8
1：主線
100
AcDbLine
 10
2360.009631437298
 20
805.5639494040919
 30
0.0000000000004547
 11
2361.423844999675
 21
804.7495579765078
 31
0.0000000000004547
210
0.0
220
0.8175471248425395
230
0.5758617009853121
  0
LINE
  5
D2DE
330
18
100
AcDbEntity
  8
1：主線
100
AcDbLine
 10
2353.150695659792
 20
809.5137478278788
 30
0.0000000000004547
 11
2354.564909222165
 21
808.6993564002947
 31
0.0000000000004547
210
0.0
220
0.8175471248425395
230
0.5758617009853121
  0
LINE
  5
D2DF
330
18
100
AcDbEntity
  8
1：主線
100
AcDbLine
 10
2346.291759882287
 20
813.4635462516657
 30
0.0000000000004547
 11
2347.705973444657
 21
812.6491548240815
 31
-0.000000000001819
210
0.0
220
0.8175471248425395
230
0.5758617009853121
  0
LINE
  5
D2E0
330
18
100
AcDbEntity
  8
1：主線
100
AcDbLine
 10
2339.326758087596
 20
817.4744240325221
 30
0.0000000000004547
 11
2340.847037667148
 21
816.5989532478656
 31
0.0000000000004547
210
0.0
220
0.8175471248425395
230
0.5758617009853121
  0
LINE
  5
D2E1
330
18
100
AcDbEntity
  8
1：主線
100
AcDbLine
 10
2339.326758087596
 20
817.4744240325221
 30
0.0000000000004547
 11
2312.750549120848
 21
780.7904449845651
 31
-0.000000000001819
210
0.0
220
0.8175471248425395
230
0.5758617009853121
  0
LINE
  5
D2E2
330
18
100
AcDbEntity
  8
1：主線
100
AcDbLine
 10
2478.213535918473
 20
685.5066479571437
 30
0.0000000000027285
 11
2312.750549120848
 21
780.7904449845651
 31
-0.000000000001819
210
0.0
220
0.8175471248425395
230
0.5758617009853121
  0
LINE
  5
D2E3
330
18
100
AcDbEntity
  8
1：主線
100
AcDbLine
 10
2408.022181879861
 20
777.9153604375883
 30
0.0000000000004547
 11
2409.436395442234
 21
777.1009690100059
 31
0.0000000000004547
210
0.0
220
0.8175471248425395
230
0.5758617009853121
  0
LINE
  5
D2E4
330
18
100
AcDbEntity
  8
1：主線
100
AcDbLine
 10
2401.163246102348
 20
781.8651588613752
 30
0.0000000000004547
 11
2402.577459664722
 21
781.0507674337909
 31
0.0000000000004547
210
0.0
220
0.8175471248425395
230
0.5758617009853121
  0
LINE
  5
D2E5
330
18
100
AcDbEntity
  8
1：主線
100
AcDbLine
 10
2493.000899370164
 20
888.8276866499031
 30
0.0000000000004547
 11
2491.480619790616
 21
889.703157434557
 31
-0.000000000001819
210
0.0
220
0.8175471248425395
230
0.5758617009853121
  0
LINE
  5
D2E6
330
18
100
AcDbEntity
  8
1：主線
100
AcDbLine
 10
2491.480619790616
 20
889.703157434557
 30
-0.000000000001819
 11
2339.326758087596
 21
817.4744240325221
 31
0.0000000000004547
210
0.0
220
0.8175471248425395
230
0.5758617009853121
  0
LINE
  5
D2E7
330
18
100
AcDbEntity
  8
1：主線
100
AcDbLine
 10
2541.013449812723
 20
861.1790976833995
 30
0.0000000000004547
 11
2539.599236250354
 21
861.9934891109837
 31
0.0000000000004547
210
0.0
220
0.8175471248425395
230
0.5758617009853121
  0
LINE
  5
D2E8
330
18
100
AcDbEntity
  8
1：主線
100
AcDbLine
 10
2513.577706702691
 20
876.9782913785425
 30
0.0000000000004547
 11
2512.163493140318
 21
877.7926828061286
 31
0.0000000000004547
210
0.0
220
0.8175471248425395
230
0.5758617009853121
  0
LINE
  5
D2E9
330
18
100
AcDbEntity
  8
1：主線
100
AcDbLine
 10
2506.718770925183
 20
880.928089802332
 30
0.0000000000004547
 11
2505.304557362809
 21
881.7424812299163
 31
0.0000000000004547
210
0.0
220
0.8175471248425395
230
0.5758617009853121
  0
LINE
  5
D2EA
330
18
100
AcDbEntity
  8
1：主線
100
AcDbLine
 10
2534.154514035215
 20
865.1288961071845
 30
0.0000000000027285
 11
2532.740300472845
 21
865.9432875347706
 31
0.0000000000027285
210
0.0
220
0.8175471248425395
230
0.5758617009853121
  0
LINE
  5
D2EB
330
18
100
AcDbEntity
  8
1：主線
100
AcDbLine
 10
2561.590257145251
 20
849.3297024120407
 30
0.0000000000004547
 11
2560.176043582874
 21
850.144093839625
 31
0.0000000000004547
210
0.0
220
0.8175471248425395
230
0.5758617009853121
  0
LINE
  5
D2EC
330
18
100
AcDbEntity
  8
1：主線
100
AcDbLine
 10
2547.872385590233
 20
857.2292992596127
 30
0.0000000000004547
 11
2546.458172027863
 21
858.0436906871968
 31
0.0000000000004547
210
0.0
220
0.8175471248425395
230
0.5758617009853121
  0
LINE
  5
D2ED
330
18
100
AcDbEntity
  8
1：主線
100
AcDbLine
 10
2520.436642480201
 20
873.0284929547556
 30
0.0000000000027285
 11
2519.022428917827
 21
873.8428843823426
 31
0.0000000000004547
210
0.0
220
0.8175471248425395
230
0.5758617009853121
  0
LINE
  5
D2EE
330
18
100
AcDbEntity
  8
1：主線
100
AcDbLine
 10
2499.859835147673
 20
884.8778882261163
 30
-0.000000000001819
 11
2498.445621585303
 21
885.6922796537006
 31
-0.000000000001819
210
0.0
220
0.8175471248425395
230
0.5758617009853121
  0
LINE
  5
D2EF
330
18
100
AcDbEntity
  8
1：主線
100
AcDbLine
 10
2527.295578257709
 20
869.0786945309705
 30
-0.000000000001819
 11
2525.881364695336
 21
869.8930859585574
 31
0.0000000000004547
210
0.0
220
0.8175471248425395
230
0.5758617009853121
  0
LINE
  5
D2F0
330
18
100
AcDbEntity
  8
1：主線
100
AcDbLine
 10
2312.257521787117
 20
773.9910405358628
 30
0.0000000000004547
 11
2477.720508584746
 21
678.7072435084442
 31
0.0000000000004547
210
0.0
220
0.8175471248425395
230
0.5758617009853121
  0
LINE
  5
D2F1
330
18
100
AcDbEntity
  8
1：主線
100
AcDbLine
 10
2709.335002591954
 20
788.6566154957758
 30
0.0000000000004547
 11
2710.116168880054
 21
788.2067717483591
 31
0.0000000000004547
210
0.0
220
0.8175471248425395
230
0.5758617009853121
  0
LINE
  5
D2F2
330
18
100
AcDbEntity
  8
1：主線
100
AcDbLine
 10
2478.360605429113
 20
678.9332982407554
 30
0.0000000000004547
 11
2478.286545932731
 21
678.9759462683118
 31
0.0000000000027285
210
0.0
220
0.8175471248425395
230
0.5758617009853121
  0
LINE
  5
D2F3
330
18
100
AcDbEntity
  8
1：主線
100
AcDbLine
 10
2312.195893369481
 20
773.1411149671125
 30
-0.000000000001819
 11
2477.658880167111
 21
677.8573179396921
 31
-0.000000000001819
210
0.0
220
0.8175471248425395
230
0.5758617009853121
  0
LINE
  5
D2F4
330
18
100
AcDbEntity
  8
1：主線
100
AcDbLine
 10
2312.195893369481
 20
773.1411149671125
 30
-0.000000000001819
 11
2313.038688075216
 21
773.5411967884451
 31
0.0000000000027285
210
0.0
220
0.8175471248425395
230
0.5758617009853121
  0
LINE
  5
D2F5
330
18
100
AcDbEntity
  8
1：主線
100
AcDbLine
 10
2311.271467119656
 20
760.3922316384655
 30
0.0000000000004547
 11
2312.195893369481
 21
773.1411149671125
 31
-0.000000000001819
210
0.0
220
0.8175471248425395
230
0.5758617009853121
  0
LINE
  5
D2F6
330
18
100
AcDbEntity
  8
1：主線
100
AcDbLine
 10
2476.734453917285
 20
665.1084346110442
 30
0.0000000000004547
 11
2311.271467119656
 21
760.3922316384655
 31
0.0000000000004547
210
0.0
220
0.8175471248425395
230
0.5758617009853121
  0
LINE
  5
D2F7
330
18
100
AcDbEntity
  8
1：主線
100
AcDbLine
 10
2312.257521787117
 20
773.9910405358628
 30
0.0000000000004547
 11
2312.750549120848
 21
780.7904449845651
 31
-0.000000000001819
210
0.0
220
0.8175471248425395
230
0.5758617009853121
  0
LINE
  5
D2F8
330
18
100
AcDbEntity
  8
1：主線
100
AcDbLine
 10
2649.03442232117
 20
766.5967768923005
 30
0.0000000000004547
 11
2644.654125726074
 21
769.1192219403742
 31
0.0000000000004547
210
0.0
220
0.8175471248425395
230
0.5758617009853121
  0
LINE
  5
D2F9
330
18
100
AcDbEntity
  8
1：主線
100
AcDbLine
 10
2554.731321367742
 20
853.2795008358258
 30
0.0000000000004547
 11
2553.317107805368
 21
854.0938922634127
 31
0.0000000000004547
210
0.0
220
0.8175471248425395
230
0.5758617009853121
  0
LINE
  5
D2FA
330
18
100
AcDbEntity
  8
1：主線
100
AcDbLine
 10
2700.425111626792
 20
746.4597124563956
 30
0.0000000000004547
 11
2700.425111626792
 21
771.2962940540196
 31
0.0000000000004547
210
0.0
220
0.8175471248425395
230
0.5758617009853121
  0
LINE
  5
D2FB
330
18
100
AcDbEntity
  8
1：主線
100
AcDbLine
 10
2700.425111626792
 20
835.1462360741438
 30
0.0000000000004547
 11
2700.425111626792
 21
873.0407818764147
 31
0.0000000000004547
210
0.0
220
0.8175471248425395
230
0.5758617009853121
  0
LINE
  5
D2FC
330
18
100
AcDbEntity
  8
1：主線
100
AcDbLine
 10
2700.425111626792
 20
910.6772334486473
 30
0.0000000000027285
 11
2700.425111626792
 21
950.8464936670284
 31
0.0000000000027285
210
0.0
220
0.8175471248425395
230
0.5758617009853121
  0
LINE
  5
D2FD
330
18
100
AcDbEntity
  8
1：主線
100
AcDbLine
 10
2776.725111626796
 20
746.4597124563938
 30
-0.000000000001819
 11
2776.725111626796
 21
950.8464936670284
 31
-0.000000000001819
210
0.0
220
0.8175471248425395
230
0.5758617009853121
  0
LINE
  5
D2FE
330
18
100
AcDbEntity
  8
1：主線
100
AcDbLine
 10
2633.779673458391
 20
879.0400766124744
 30
0.0000000000004547
 11
2704.766390539292
 21
912.7380755047411
 31
0.0000000000004547
210
0.0
220
0.8175471248425395
230
0.5758617009853121
  0
LINE
  5
D2FF
330
18
100
AcDbEntity
  8
1：主線
100
AcDbLine
 10
2664.781504678887
 20
856.120458232232
 30
0.0000000000004547
 11
2720.900472212431
 21
882.7606098485544
 31
0.0000000000004547
210
0.0
220
0.8175471248425395
230
0.5758617009853121
  0
ELLIPSE
  5
D300
330
18
100
AcDbEntity
  8
1：主線
100
AcDbEllipse
 10
2738.575111626794
 20
950.8464936670302
 30
0.0000000000004547
 11
38.14999999999999
 21
0.0000000000022756
 31
-0.0000000000000097
210
0.0000000000000003
220
0.0000000000000001
230
1.0
 40
0.5758617009853121
 41
-2.356194490192816
 42
3.926990816986769
  0
ELLIPSE
  5
D301
330
18
100
AcDbEntity
  8
1：主線
100
AcDbEllipse
 10
2738.575111626794
 20
746.4597124563938
 30
-0.000000000001819
 11
38.14999999999999
 21
0.0000000000022834
 31
-0.0000000000000077
210
0.0000000000000002
220
0.0
230
1.0
 40
0.5758617009853119
 41
3.14159265358927
 42
6.283185307179063
  0
ELLIPSE
  5
D302
330
18
100
AcDbEntity
  8
1：主線
100
AcDbEllipse
 10
2666.536583042122
 20
798.4360364428689
 30
0.0000000000004547
 11
6.93063663090752
 21
12.03524495386131
 31
-0.000000000000001
210
0.0000000000000002
220
-0.0000000000000001
230
1.0
 40
0.5780931159158106
 41
3.684858184929057
 42
5.288230524637564
  0
ENDSEC
  0
SECTION
  2
OBJECTS
  0
DICTIONARY
  5
C
330
0
100
AcDbDictionary
281
     1
  3
ACAD_CIP_PREVIOUS_PRODUCT_INFO
350
57FF
  3
ACAD_COLOR
350
57DF
  3
ACAD_DETAILVIEWSTYLE
350
57F8
  3
ACAD_GROUP
350
D
  3
ACAD_LAYOUT
350
75E
  3
ACAD_MATERIAL
350
57AD
  3
ACAD_MLEADERSTYLE
350
57F4
  3
ACAD_MLINESTYLE
350
1B
  3
ACAD_PLOTSETTINGS
350
75F
  3
ACAD_PLOTSTYLENAME
350
75C
  3
ACAD_SCALELIST
350
57E2
  3
ACAD_SECTIONVIEWSTYLE
350
57F6
  3
ACAD_TABLESTYLE
350
57E0
  3
ACAD_VISUALSTYLE
350
57C6
  3
AcadDim
350
2413
  3
ACDB_RECOMPOSE_DATA
350
D31D
  3
ACDBVARIABLEDICTIONARY
350
33
  3
AEC_PROPERTY_SET_DEFS
350
BDB1
  3
CONTENTDICTIONARY
350
23
  0
DICTIONARY
  5
5826
330
8
100
AcDbDictionary
280
     1
281
     1
  0
DICTIONARY
  5
2886
330
2
100
AcDbDictionary
280
     1
281
     1
  3
ACAD_LAYERSTATES
360
46A0
  0
DICTIONARY
  5
5800
330
E
100
AcDbDictionary
280
     1
281
     1
  3
ADSK_XREC_LAYER_RECONCILED
360
5801
  0
DICTIONARY
  5
5804
330
32C
100
AcDbDictionary
280
     1
281
     1
  3
ADSK_XREC_LAYER_RECONCILED
360
5805
  0
DICTIONARY
  5
796C
330
796B
100
AcDbDictionary
280
     1
281
     1
  0
DICTIONARY
  5
D0AF
330
D0AE
100
AcDbDictionary
280
     1
281
     1
  0
DICTIONARY
  5
D0DE
330
D0DD
100
AcDbDictionary
280
     1
281
     1
  0
DICTIONARY
  5
5B07
330
18
100
AcDbDictionary
280
     1
281
     1
  3
ACAD_SORTENTS
360
5B08
  0
XRECORD
  5
57FF
102
{ACAD_REACTORS
330
C
102
}
330
C
100
AcDbXrecord
280
     1
300
ACDLT
300
2014
300
ACDLT_F_S
  0
DICTIONARY
  5
57DF
102
{ACAD_REACTORS
330
C
102
}
330
C
100
AcDbDictionary
281
     1
  0
DICTIONARY
  5
57F8
102
{ACAD_REACTORS
330
C
102
}
330
C
100
AcDbDictionary
281
     1
  3
Imperial24
350
A70A
  3
Metric50
350
57F9
  0
DICTIONARY
  5
D
102
{ACAD_REACTORS
330
C
102
}
330
C
100
AcDbDictionary
281
     1
  0
DICTIONARY
  5
75E
102
{ACAD_REACTORS
330
C
102
}
330
C
100
AcDbDictionary
281
     1
  3
Model
350
760
  3
ﾚｲｱｳﾄ1
350
761
  0
DICTIONARY
  5
57AD
102
{ACAD_REACTORS
330
C
102
}
330
C
100
AcDbDictionary
281
     1
  3
ByBlock
350
57B6
  3
ByLayer
350
57AE
  3
Global
350
57BE
  0
DICTIONARY
  5
57F4
102
{ACAD_REACTORS
330
C
102
}
330
C
100
AcDbDictionary
281
     1
  3
Standard
350
57F5
  0
DICTIONARY
  5
1B
102
{ACAD_REACTORS
330
C
102
}
330
C
100
AcDbDictionary
281
     1
  3
STANDARD
350
1C
  0
DICTIONARY
  5
75F
102
{ACAD_REACTORS
330
C
102
}
330
C
100
AcDbDictionary
281
     1
  3
オブA3
350
5884
  3
オブA3PDF
350
5885
  3
オブA3PDFカラー
350
5889
  3
オブA4
350
5887
  3
オブA4PDF
350
5886
  3
オブA4裏
350
5888
  0
ACDBDICTIONARYWDFLT
  5
75C
102
{ACAD_REACTORS
330
C
102
}
330
C
100
AcDbDictionary
281
     1
  3
Normal
350
75D
100
AcDbDictionaryWithDefault
340
75D
  0
DICTIONARY
  5
57E2
102
{ACAD_REACTORS
330
C
102
}
330
C
100
AcDbDictionary
281
     1
  3
A0
350
57E3
  3
A1
350
57E4
  3
A2
350
57E5
  3
A3
350
57E6
  3
A4
350
57E7
  3
A5
350
57E8
  3
A6
350
57E9
  3
A7
350
57EA
  3
A8
350
57EB
  3
A9
350
57EC
  3
B0
350
57ED
  3
B1
350
57EE
  3
B2
350
57EF
  3
B3
350
57F0
  3
B4
350
57F1
  3
B5
350
57F2
  3
B6
350
57F3
  0
DICTIONARY
  5
57F6
102
{ACAD_REACTORS
330
C
102
}
330
C
100
AcDbDictionary
281
     1
  3
Imperial24
350
A709
  3
Metric50
350
57F7
  0
DICTIONARY
  5
57E0
102
{ACAD_REACTORS
330
C
102
}
330
C
100
AcDbDictionary
281
     1
  3
Standard
350
57E1
  0
DICTIONARY
  5
57C6
102
{ACAD_REACTORS
330
C
102
}
330
C
100
AcDbDictionary
281
     1
  3
2dWireframe
350
57CC
  3
Basic
350
57CB
  3
Brighten
350
57D2
  3
ColorChange
350
57D6
  3
Conceptual
350
57CF
  3
Dim
350
57D1
  3
EdgeColorOff
350
57DE
  3
Facepattern
350
57D5
  3
Flat
350
57C7
  3
FlatWithEdges
350
57C8
  3
Gouraud
350
57C9
  3
GouraudWithEdges
350
57CA
  3
Hidden
350
57CE
  3
JitterOff
350
57DC
  3
Linepattern
350
57D4
  3
OverhangOff
350
57DD
  3
Realistic
350
57D0
  3
Shaded
350
57DB
  3
Shaded with edges
350
57DA
  3
Shades of Gray
350
57D7
  3
Sketchy
350
57D8
  3
Thicken
350
57D3
  3
Wireframe
350
57CD
  3
X-Ray
350
57D9
  0
XRECORD
  5
2413
102
{ACAD_REACTORS
330
C
102
}
330
C
100
AcDbXrecord
280
     1
 90
   990106
  3
OPEN
 60
     0
 61
     0
 62
     1
 63
     3
 64
     1
 65
     0
 66
     0
 67
     3
 68
     1
 69
     0
 70
     0
 71
     0
 72
     0
 40
0.0
170
     2
  0
XRECORD
  5
D31D
102
{ACAD_REACTORS
330
C
102
}
330
C
100
AcDbXrecord
280
     1
 90
        1
330
57E1
330
57F7
330
57F9
330
A709
330
A70A
330
D0E7
  0
DICTIONARY
  5
33
102
{ACAD_REACTORS
330
C
102
}
330
C
100
AcDbDictionary
281
     1
  3
CANNOSCALE
350
587B
  3
CMLEADERSTYLE
350
5878
  3
CTABLESTYLE
350
5877
  3
CVIEWDETAILSTYLE
350
5879
  3
CVIEWSECTIONSTYLE
350
587A
  3
DIMADEC
350
34
  3
DIMASSOC
350
23F7
  3
INDEXCTL
350
587C
  3
LAYEREVAL
350
D09C
  3
LAYERNOTIFY
350
D09D
  3
LIGHTINGUNITS
350
D09B
  3
MSLTSCALE
350
D09A
  3
SORTENTS
350
1383
  0
DICTIONARY
  5
BDB1
102
{ACAD_REACTORS
330
C
102
}
330
C
100
AcDbDictionary
281
     1
  0
DICTIONARY
  5
23
102
{ACAD_REACTORS
330
C
102
}
330
C
100
AcDbDictionary
281
     1
  0
DICTIONARY
  5
46A0
102
{ACAD_REACTORS
330
2886
102
}
330
2886
100
AcDbDictionary
281
     1
  0
XRECORD
  5
5801
102
{ACAD_REACTORS
330
5800
102
}
330
5800
100
AcDbXrecord
280
     1
290
     1
  0
XRECORD
  5
5805
102
{ACAD_REACTORS
330
5804
102
}
330
5804
100
AcDbXrecord
280
     1
290
     1
  0
SORTENTSTABLE
  5
5B08
102
{ACAD_REACTORS
330
5B07
102
}
330
5B07
100
AcDbSortentsTable
330
18
331
7A27
  5
7A27
  0
ACDBDETAILVIEWSTYLE
  5
A70A
102
{ACAD_XDICTIONARY
360
D0A5
102
}
102
{ACAD_REACTORS
330
57F8
102
}
330
57F8
100
AcDbModelDocViewStyle
 70
     0
  3
Imperial24
290
     0
100
AcDbDetailViewStyle
 70
     0
 71
     0
 90
        3
 71
     1
340
F
 62
   256
 40
0.24
340
0
 62
   256
 40
0.24
300

 40
0.36
280
     3
 71
     2
340
14
 90
       25
 62
   256
 71
     3
340
F
 62
   256
 40
0.24
 90
        1
 40
0.75
 90
        1
300
%<\AcVar ViewType \f "%tc1">% %<\AcVar ViewDetailId>%\PSCALE %<\AcVar ViewScale \f "%sn">%
 71
     4
340
14
 90
       25
 62
   256
340
14
 90
       25
 62
   256
280
     0
  0
ACDBDETAILVIEWSTYLE
  5
57F9
102
{ACAD_XDICTIONARY
360
D0A1
102
}
102
{ACAD_REACTORS
330
57F8
102
}
330
57F8
100
AcDbModelDocViewStyle
 70
     0
  3
Metric50
290
     0
100
AcDbDetailViewStyle
 70
     0
 71
     0
 90
        3
 71
     1
340
F
 62
   256
 40
5.0
340
0
 62
   256
 40
5.0
300

 40
0.0
280
     1
 71
     2
340
14
 90
       25
 62
   256
 71
     3
340
F
 62
   256
 40
5.0
 90
        0
 40
15.0
 90
        1
300
%<\AcVar ViewDetailId>% (%<\AcVar ViewScale \f "%sn">%)
 71
     4
340
14
 90
       25
 62
   256
340
14
 90
       25
 62
   256
280
     0
  0
LAYOUT
  5
760
102
{ACAD_REACTORS
330
75E
102
}
330
75E
100
AcDbPlotSettings
  1

  2
KONICA MINOLTA C364SeriesPCL
  4
A3
  6

 40
5.027082920074462
 41
5.027069091796875
 42
5.027099609375
 43
5.027069091796875
 44
296.9259948730469
 45
419.9466552734373
 46
0.8104534522212246
 47
0.844643083534379
 48
0.6602245427074767
 49
2.274885139995582
140
11080.66022454271
141
15602.27488513999
142
1.0
143
4.0
 70
  3748
 72
     1
 73
     1
 74
     1
  7
TAGAI1.CTB
 75
     0
147
0.2027157928435555
 76
     0
 77
     2
 78
   300
148
0.0342067849396699
149
0.0064483113992537
100
AcDbLayout
  1
Model
 70
     1
 71
     0
 10
0.0
 20
0.0
 11
12.0
 21
9.0
 12
0.0
 22
0.0
 32
0.0
 14
0.0
 24
0.0
 34
0.0
 15
0.0
 25
0.0
 35
0.0
146
0.0
 13
0.0
 23
0.0
 33
0.0
 16
1.0
 26
0.0
 36
0.0
 17
0.0
 27
1.0
 37
0.0
 76
     0
330
18
331
57AB
1001
ACAD_PSEXT
1000
KONICA MINOLTA C364SeriesPCL
1000
KONICA MINOLTA C364SeriesPCL
1000
IP_192.168.21.25
1000

1070
     0
  0
LAYOUT
  5
761
102
{ACAD_REACTORS
330
75E
102
}
330
75E
100
AcDbPlotSettings
  1

  2
Canon LASER SHOT LBP-850
  4

  6

 40
0.0
 41
0.0
 42
0.0
 43
0.0
 44
0.0
 45
0.0
 46
0.0
 47
0.0
 48
0.0
 49
0.0
140
0.0
141
0.0
142
1.0
143
1.0
 70
   688
 72
     0
 73
     0
 74
     5
  7
tagai1.ctb
 75
    16
147
1.0
 76
     0
 77
     2
 78
   300
148
0.0
149
0.0
100
AcDbLayout
  1
ﾚｲｱｳﾄ1
 70
     1
 71
     1
 10
0.0
 20
0.0
 11
420.0
 21
297.0
 12
0.0
 22
0.0
 32
0.0
 14
1.000000000000000E+20
 24
1.000000000000000E+20
 34
1.000000000000000E+20
 15
-1.000000000000000E+20
 25
-1.000000000000000E+20
 35
-1.000000000000000E+20
146
0.0
 13
0.0
 23
0.0
 33
0.0
 16
1.0
 26
0.0
 36
0.0
 17
0.0
 27
1.0
 37
0.0
 76
     0
330
15
  0
MATERIAL
  5
57B6
102
{ACAD_XDICTIONARY
360
57B7
102
}
102
{ACAD_REACTORS
330
57AD
102
}
330
57AD
100
AcDbMaterial
  1
ByBlock
 72
     0
 43
0.0208333333333333
 43
0.0
 43
0.0
 43
0.0
 43
0.0
 43
0.0208333333333333
 43
0.0
 43
0.0
 43
0.0
 43
0.0
 43
1.0
 43
0.0
 43
0.0
 43
0.0
 43
0.0
 43
1.0
 77
     0
 47
0.0208333333333333
 47
0.0
 47
0.0
 47
0.0
 47
0.0
 47
0.0208333333333333
 47
0.0
 47
0.0
 47
0.0
 47
0.0
 47
1.0
 47
0.0
 47
0.0
 47
0.0
 47
0.0
 47
1.0
171
     0
 49
0.0208333333333333
 49
0.0
 49
0.0
 49
0.0
 49
0.0
 49
0.0208333333333333
 49
0.0
 49
0.0
 49
0.0
 49
0.0
 49
1.0
 49
0.0
 49
0.0
 49
0.0
 49
0.0
 49
1.0
175
     0
142
0.0208333333333333
142
0.0
142
0.0
142
0.0
142
0.0
142
0.0208333333333333
142
0.0
142
0.0
142
0.0
142
0.0
142
1.0
142
0.0
142
0.0
142
0.0
142
0.0
142
1.0
179
     0
144
0.0208333333333333
144
0.0
144
0.0
144
0.0
144
0.0
144
0.0208333333333333
144
0.0
144
0.0
144
0.0
144
0.0
144
1.0
144
0.0
144
0.0
144
0.0
144
0.0
144
1.0
147
0.0208333333333333
147
0.0
147
0.0
147
0.0
147
0.0
147
0.0208333333333333
147
0.0
147
0.0
147
0.0
147
0.0
147
1.0
147
0.0
147
0.0
147
0.0
147
0.0
147
1.0
  0
MATERIAL
  5
57AE
102
{ACAD_XDICTIONARY
360
57AF
102
}
102
{ACAD_REACTORS
330
57AD
102
}
330
57AD
100
AcDbMaterial
  1
ByLayer
 72
     0
 43
0.0208333333333333
 43
0.0
 43
0.0
 43
0.0
 43
0.0
 43
0.0208333333333333
 43
0.0
 43
0.0
 43
0.0
 43
0.0
 43
1.0
 43
0.0
 43
0.0
 43
0.0
 43
0.0
 43
1.0
 77
     0
 47
0.0208333333333333
 47
0.0
 47
0.0
 47
0.0
 47
0.0
 47
0.0208333333333333
 47
0.0
 47
0.0
 47
0.0
 47
0.0
 47
1.0
 47
0.0
 47
0.0
 47
0.0
 47
0.0
 47
1.0
171
     0
 49
0.0208333333333333
 49
0.0
 49
0.0
 49
0.0
 49
0.0
 49
0.0208333333333333
 49
0.0
 49
0.0
 49
0.0
 49
0.0
 49
1.0
 49
0.0
 49
0.0
 49
0.0
 49
0.0
 49
1.0
175
     0
142
0.0208333333333333
142
0.0
142
0.0
142
0.0
142
0.0
142
0.0208333333333333
142
0.0
142
0.0
142
0.0
142
0.0
142
1.0
142
0.0
142
0.0
142
0.0
142
0.0
142
1.0
179
     0
144
0.0208333333333333
144
0.0
144
0.0
144
0.0
144
0.0
144
0.0208333333333333
144
0.0
144
0.0
144
0.0
144
0.0
144
1.0
144
0.0
144
0.0
144
0.0
144
0.0
144
1.0
147
0.0208333333333333
147
0.0
147
0.0
147
0.0
147
0.0
147
0.0208333333333333
147
0.0
147
0.0
147
0.0
147
0.0
147
1.0
147
0.0
147
0.0
147
0.0
147
0.0
147
1.0
  0
MATERIAL
  5
57BE
102
{ACAD_XDICTIONARY
360
57BF
102
}
102
{ACAD_REACTORS
330
57AD
102
}
330
57AD
100
AcDbMaterial
  1
Global
 72
     0
 43
0.0208333333333333
 43
0.0
 43
0.0
 43
0.0
 43
0.0
 43
0.0208333333333333
 43
0.0
 43
0.0
 43
0.0
 43
0.0
 43
1.0
 43
0.0
 43
0.0
 43
0.0
 43
0.0
 43
1.0
 77
     0
 47
0.0208333333333333
 47
0.0
 47
0.0
 47
0.0
 47
0.0
 47
0.0208333333333333
 47
0.0
 47
0.0
 47
0.0
 47
0.0
 47
1.0
 47
0.0
 47
0.0
 47
0.0
 47
0.0
 47
1.0
171
     0
 49
0.0208333333333333
 49
0.0
 49
0.0
 49
0.0
 49
0.0
 49
0.0208333333333333
 49
0.0
 49
0.0
 49
0.0
 49
0.0
 49
1.0
 49
0.0
 49
0.0
 49
0.0
 49
0.0
 49
1.0
175
     0
142
0.0208333333333333
142
0.0
142
0.0
142
0.0
142
0.0
142
0.0208333333333333
142
0.0
142
0.0
142
0.0
142
0.0
142
1.0
142
0.0
142
0.0
142
0.0
142
0.0
142
1.0
179
     0
144
0.0208333333333333
144
0.0
144
0.0
144
0.0
144
0.0
144
0.0208333333333333
144
0.0
144
0.0
144
0.0
144
0.0
144
1.0
144
0.0
144
0.0
144
0.0
144
0.0
144
1.0
147
0.0208333333333333
147
0.0
147
0.0
147
0.0
147
0.0
147
0.0208333333333333
147
0.0
147
0.0
147
0.0
147
0.0
147
1.0
147
0.0
147
0.0
147
0.0
147
0.0
147
1.0
  0
MLEADERSTYLE
  5
57F5
102
{ACAD_REACTORS
330
57F4
102
}
330
57F4
100
AcDbMLeaderStyle
179
     2
170
     2
171
     1
172
     0
 90
        2
 40
0.0
 41
0.0
173
     1
 91
-1056964608
340
12
 92
       -2
290
     1
 42
2.0
291
     1
 43
0.36
  3
Standard
 44
4.0
300

342
F
174
     1
178
     6
175
     1
176
     0
 93
-1056964608
 45
4.0
292
     0
297
     0
 46
4.0
 94
-1056964608
 47
1.0
 49
1.0
140
1.0
293
     1
141
0.0
294
     1
177
     0
142
1.0
295
     0
296
     0
143
0.125
271
     0
272
     9
273
     9
298
     1
  0
MLINESTYLE
  5
1C
102
{ACAD_REACTORS
330
1B
102
}
330
1B
100
AcDbMlineStyle
  2
STANDARD
 70
     0
  3

 62
   256
 51
90.0
 52
90.0
 71
     2
 49
0.5
 62
   256
  6
BYLAYER
 49
-0.5
 62
   256
  6
BYLAYER
  0
PLOTSETTINGS
  5
5884
102
{ACAD_REACTORS
330
75F
102
}
330
75F
100
AcDbPlotSettings
  1
オブA3
  2
EPSON LP-S3000
  4
A3
  6

 40
5.873749732971191
 41
5.873747825622557
 42
5.873748779296875
 43
5.873748779296875
 44
297.0106506347656
 45
419.9466552734373
 46
0.0
 47
0.0
 48
0.6602245427074767
 49
2.274885139995582
140
11080.66022454271
141
15602.27488513999
142
1.0
143
1.000009796045915
 70
  1716
 72
     1
 73
     1
 74
     1
  7
TAGAI1.CTB
 75
     0
147
0.9999902040500462
 76
     0
 77
     2
 78
   300
148
0.0062252642686644
149
0.0087050081928055
  0
PLOTSETTINGS
  5
5885
102
{ACAD_REACTORS
330
75F
102
}
330
75F
100
AcDbPlotSettings
  1
オブA3PDF
  2
Adobe PDF
  4
A3
  6

 40
3.174999952316282
 41
3.174999952316282
 42
3.17498779296875
 43
3.17498779296875
 44
297.0318298339844
 45
420.1583251953125
 46
0.7618695942057912
 47
0.0
 48
0.6602245427074767
 49
2.274885139995582
140
11080.66022454271
141
15602.27488513999
142
1.0
143
0.9864847522617806
 70
  3764
 72
     1
 73
     1
 74
     1
  7
TAGAI1.CTB
 75
     0
147
1.013700412203262
 76
     0
 77
     2
 78
   300
148
0.0186822558410995
149
-0.0043545630755943
1001
ACAD_PSEXT
1000
Adobe PDF
1000
Adobe PDF Converter
1000
My Documents
1000

1070
     0
  0
PLOTSETTINGS
  5
5889
102
{ACAD_REACTORS
330
75F
102
}
330
75F
100
AcDbPlotSettings
  1
オブA3PDFカラー
  2
Adobe PDF
  4
A3
  6

 40
3.174999952316282
 41
3.174999952316282
 42
3.17498779296875
 43
3.17498779296875
 44
297.0318298339844
 45
420.1583251953125
 46
0.7618695942057912
 47
0.0
 48
0.6602245427074767
 49
2.274885139995582
140
11080.66022454271
141
15602.27488513999
142
1.0
143
0.9864847522617806
 70
  3732
 72
     1
 73
     1
 74
     1
  7
TAGAI1.CTB
 75
     0
147
1.013700412203262
 76
     0
 77
     2
 78
   300
148
0.0186822558410995
149
-0.0043545630755943
1001
ACAD_PSEXT
1000
Adobe PDF
1000
Adobe PDF Converter
1000
My Documents
1000

1070
     0
  0
PLOTSETTINGS
  5
5887
102
{ACAD_REACTORS
330
75F
102
}
330
75F
100
AcDbPlotSettings
  1
オブA4
  2
EPSON LP-S3000
  4
A4
  6

 40
5.873749732971191
 41
5.873747825622557
 42
5.873748779296875
 43
5.873748779296875
 44
209.9733276367186
 45
297.0106506347656
 46
0.0
 47
0.8
 48
0.6602245427074767
 49
2.274885139995582
140
11080.66022454271
141
15602.27488513999
142
1.0
143
1.439081479612396
 70
  1716
 72
     1
 73
     1
 74
     1
  7
TAGAI1.CTB
 75
     0
147
0.6948876864632718
 76
     0
 77
     2
 78
   300
148
0.0062252642686644
149
0.0087050081928055
  0
PLOTSETTINGS
  5
5886
102
{ACAD_REACTORS
330
75F
102
}
330
75F
100
AcDbPlotSettings
  1
オブA4PDF
  2
Adobe PDF
  4
A4
  6

 40
3.174999952316282
 41
3.174999952316282
 42
3.175003051757812
 43
3.17498779296875
 44
209.9733276367186
 45
297.0318298339844
 46
0.2513475533557994
 47
0.0
 48
0.6602245427074767
 49
2.274885139995582
140
11080.66022454271
141
15602.27488513999
142
1.0
143
1.404338201244389
 70
  3764
 72
     1
 73
     1
 74
     1
  7
TAGAI1.CTB
 75
     0
147
0.7120791837136498
 76
     0
 77
     2
 78
   300
148
0.0186822558410995
149
-0.0043545630755943
1001
ACAD_PSEXT
1000
Adobe PDF
1000
Adobe PDF Converter
1000
My Documents
1000

1070
     0
  0
PLOTSETTINGS
  5
5888
102
{ACAD_REACTORS
330
75F
102
}
330
75F
100
AcDbPlotSettings
  1
オブA4裏
  2
EPSON LP-S3000.pc3
  4
A4
  6

 40
5.873749732971191
 41
5.873747825622557
 42
5.873748779296875
 43
5.873748779296875
 44
209.9733276367186
 45
297.0106506347656
 46
0.0
 47
0.8
 48
0.6602245427074767
 49
2.274885139995582
140
11080.66022454271
141
15602.27488513999
142
1.0
143
1.439081479612396
 70
  1716
 72
     1
 73
     1
 74
     1
  7
TAGAI1.CTB
 75
     0
147
0.6948876864632718
 76
     0
 77
     2
 78
   300
148
0.0062252642686644
149
0.0087050081928055
  0
ACDBPLACEHOLDER
  5
75D
102
{ACAD_REACTORS
330
75C
102
}
330
75C
  0
SCALE
  5
57E3
102
{ACAD_REACTORS
330
57E2
102
}
330
57E2
100
AcDbScale
 70
     0
300
1:1
140
1.0
141
1.0
290
     1
  0
SCALE
  5
57E4
102
{ACAD_REACTORS
330
57E2
102
}
330
57E2
100
AcDbScale
 70
     0
300
1:2
140
1.0
141
2.0
290
     0
  0
SCALE
  5
57E5
102
{ACAD_REACTORS
330
57E2
102
}
330
57E2
100
AcDbScale
 70
     0
300
1:4
140
1.0
141
4.0
290
     0
  0
SCALE
  5
57E6
102
{ACAD_REACTORS
330
57E2
102
}
330
57E2
100
AcDbScale
 70
     0
300
1:5
140
1.0
141
5.0
290
     0
  0
SCALE
  5
57E7
102
{ACAD_REACTORS
330
57E2
102
}
330
57E2
100
AcDbScale
 70
     0
300
1:8
140
1.0
141
8.0
290
     0
  0
SCALE
  5
57E8
102
{ACAD_REACTORS
330
57E2
102
}
330
57E2
100
AcDbScale
 70
     0
300
1:10
140
1.0
141
10.0
290
     0
  0
SCALE
  5
57E9
102
{ACAD_REACTORS
330
57E2
102
}
330
57E2
100
AcDbScale
 70
     0
300
1:16
140
1.0
141
16.0
290
     0
  0
SCALE
  5
57EA
102
{ACAD_REACTORS
330
57E2
102
}
330
57E2
100
AcDbScale
 70
     0
300
1:20
140
1.0
141
20.0
290
     0
  0
SCALE
  5
57EB
102
{ACAD_REACTORS
330
57E2
102
}
330
57E2
100
AcDbScale
 70
     0
300
1:30
140
1.0
141
30.0
290
     0
  0
SCALE
  5
57EC
102
{ACAD_REACTORS
330
57E2
102
}
330
57E2
100
AcDbScale
 70
     0
300
1:40
140
1.0
141
40.0
290
     0
  0
SCALE
  5
57ED
102
{ACAD_REACTORS
330
57E2
102
}
330
57E2
100
AcDbScale
 70
     0
300
1:50
140
1.0
141
50.0
290
     0
  0
SCALE
  5
57EE
102
{ACAD_REACTORS
330
57E2
102
}
330
57E2
100
AcDbScale
 70
     0
300
1:100
140
1.0
141
100.0
290
     0
  0
SCALE
  5
57EF
102
{ACAD_REACTORS
330
57E2
102
}
330
57E2
100
AcDbScale
 70
     0
300
2:1
140
2.0
141
1.0
290
     0
  0
SCALE
  5
57F0
102
{ACAD_REACTORS
330
57E2
102
}
330
57E2
100
AcDbScale
 70
     0
300
4:1
140
4.0
141
1.0
290
     0
  0
SCALE
  5
57F1
102
{ACAD_REACTORS
330
57E2
102
}
330
57E2
100
AcDbScale
 70
     0
300
8:1
140
8.0
141
1.0
290
     0
  0
SCALE
  5
57F2
102
{ACAD_REACTORS
330
57E2
102
}
330
57E2
100
AcDbScale
 70
     0
300
10:1
140
10.0
141
1.0
290
     0
  0
SCALE
  5
57F3
102
{ACAD_REACTORS
330
57E2
102
}
330
57E2
100
AcDbScale
 70
     0
300
100:1
140
100.0
141
1.0
290
     0
  0
ACDBSECTIONVIEWSTYLE
  5
A709
102
{ACAD_XDICTIONARY
360
D0A3
102
}
102
{ACAD_REACTORS
330
57F6
102
}
330
57F6
100
AcDbModelDocViewStyle
 70
     0
  3
Imperial24
290
     0
100
AcDbSectionViewStyle
 70
     0
 71
     0
 90
       78
 71
     1
340
F
 62
   256
 40
0.24
340
0
340
0
 62
   256
 40
0.24
300
I, O, Q, S, X, Z
 40
0.48
 90
        3
 40
0.18
 90
        1
 71
     2
340
14
 90
       25
 62
   256
340
14
 90
       50
 62
   256
 40
0.24
 40
0.0
 40
0.24
 71
     3
340
F
 62
   256
 40
0.24
 90
        1
 40
0.75
 90
        1
300
%<\AcVar ViewType \f "%tc1">% %<\AcVar ViewSectionStartId>%-%<\AcVar ViewSectionEndId>%\PSCALE %<\AcVar ViewScale \f "%sn">%
 71
     4
 62
   256
 62
   257
300
ANSI31
 40
1.0
 90
        0
290
     0
290
     0
 90
        6
 40
0.0
 40
1.570796326794896
 40
0.2617993877991494
 40
1.308996938995747
 40
-0.2617993877991494
 40
1.832595714594044
  0
ACDBSECTIONVIEWSTYLE
  5
57F7
102
{ACAD_XDICTIONARY
360
D09F
102
}
102
{ACAD_REACTORS
330
57F6
102
}
330
57F6
100
AcDbModelDocViewStyle
 70
     0
  3
Metric50
290
     0
100
AcDbSectionViewStyle
 70
     0
 71
     0
 90
      102
 71
     1
340
F
 62
   256
 40
5.0
340
0
340
0
 62
   256
 40
5.0
300
I, O, Q, S, X, Z
 40
10.0
 90
        0
 40
2.5
 90
        0
 71
     2
340
14
 90
       25
 62
   256
340
14
 90
       50
 62
   256
 40
5.0
 40
2.5
 40
5.0
 71
     3
340
F
 62
   256
 40
5.0
 90
        0
 40
15.0
 90
        1
300
%<\AcVar ViewSectionStartId>%-%<\AcVar ViewSectionEndId>% (%<\AcVar ViewScale \f "%sn">%)
 71
     4
 62
   256
 62
   257
300
ANSI31
 40
1.0
 90
        0
290
     0
290
     0
 90
        6
 40
0.0
 40
1.570796326794896
 40
0.2617993877991494
 40
1.308996938995747
 40
-0.2617993877991494
 40
1.832595714594044
  0
TABLESTYLE
  5
57E1
102
{ACAD_XDICTIONARY
360
5822
102
}
102
{ACAD_REACTORS
330
57E0
102
}
330
57E0
100
AcDbTableStyle
280
     0
  3
Standard
 70
     0
 71
     0
 40
1.5
 41
1.5
280
     0
281
     0
  7
STANDARD
140
4.5
170
     2
 62
     0
 63
     7
283
     0
 90
      512
 91
        0
  1

274
    -2
284
     1
 64
     0
275
    -2
285
     1
 65
     0
276
    -2
286
     1
 66
     0
277
    -2
287
     1
 67
     0
278
    -2
288
     1
 68
     0
279
    -2
289
     1
 69
     0
  7
STANDARD
140
6.0
170
     5
 62
     0
 63
     7
283
     0
 90
      512
 91
        0
  1

274
    -2
284
     1
 64
     0
275
    -2
285
     1
 65
     0
276
    -2
286
     1
 66
     0
277
    -2
287
     1
 67
     0
278
    -2
288
     1
 68
     0
279
    -2
289
     1
 69
     0
  7
STANDARD
140
4.5
170
     5
 62
     0
 63
     7
283
     0
 90
      512
 91
        0
  1

274
    -2
284
     1
 64
     0
275
    -2
285
     1
 65
     0
276
    -2
286
     1
 66
     0
277
    -2
287
     1
 67
     0
278
    -2
288
     1
 68
     0
279
    -2
289
     1
 69
     0
  0
VISUALSTYLE
  5
57CC
102
{ACAD_REACTORS
330
57C6
102
}
330
57C6
100
AcDbVisualStyle
  2
2dWireframe
 70
     4
177
     3
291
     0
 70
    58
 90
        0
176
     1
 90
        2
176
     1
 90
        0
176
     1
 90
        0
176
     1
 40
0.6
176
     1
 40
30.0
176
     1
 62
     7
176
     1
 90
        1
176
     1
 90
        4
176
     1
 62
     7
176
     1
 62
   257
176
     1
 90
        1
176
     1
 90
        1
176
     1
 40
1.0
176
     1
 90
        0
176
     1
 62
   257
176
     1
 40
1.0
176
     1
 90
        1
176
     1
 90
        6
176
     1
 90
        2
176
     1
 62
     7
176
     1
 90
        5
176
     1
 90
        0
176
     1
 90
        0
176
     1
290
     0
176
     1
 90
        1
176
     1
 40
0.0
176
     1
 90
        0
176
     1
290
     1
176
     1
290
     1
176
     1
290
     0
176
     1
290
     0
176
     1
290
     0
176
     1
290
     0
176
     1
290
     0
176
     1
290
     0
176
     1
290
     0
176
     1
 90
       50
176
     1
 40
0.0
176
     1
 40
1.0
176
     1
 90
        0
176
     1
 62
    18
176
     1
 90
       50
176
     1
 90
        3
176
     1
 62
     5
420
      255
176
     1
290
     0
176
     1
 90
       50
176
     1
 90
       50
176
     1
 90
       50
176
     1
290
     0
176
     1
 90
       50
176
     1
 62
   256
176
     0
 40
1.0
176
     0
 90
        2
176
     1
  1
strokes_ogs.tif
176
     1
290
     0
176
     1
 40
1.0
176
     1
 40
1.0
176
     1
  0
VISUALSTYLE
  5
57CB
102
{ACAD_REACTORS
330
57C6
102
}
330
57C6
100
AcDbVisualStyle
  2
Basic
 70
     7
177
     3
291
     1
 70
    58
 90
        1
176
     1
 90
        0
176
     1
 90
        1
176
     1
 90
        0
176
     1
 40
0.6
176
     1
 40
30.0
176
     1
 62
     7
176
     1
 90
        0
176
     1
 90
        4
176
     1
 62
     7
176
     1
 62
   257
176
     1
 90
        1
176
     1
 90
        1
176
     1
 40
1.0
176
     1
 90
        8
176
     1
 62
     7
176
     1
 40
1.0
176
     1
 90
        1
176
     1
 90
        6
176
     1
 90
        2
176
     1
 62
     7
176
     1
 90
        5
176
     1
 90
        0
176
     1
 90
        0
176
     1
290
     0
176
     1
 90
        1
176
     1
 40
0.0
176
     1
 90
        0
176
     1
290
     0
176
     1
290
     1
176
     1
290
     1
176
     1
290
     0
176
     1
290
     0
176
     1
290
     0
176
     1
290
     0
176
     1
290
     0
176
     1
290
     0
176
     1
 90
       50
176
     1
 40
0.0
176
     1
 40
1.0
176
     1
 90
        0
176
     1
 62
    18
176
     1
 90
       50
176
     1
 90
        3
176
     1
 62
     5
420
      255
176
     1
290
     0
176
     1
 90
       50
176
     1
 90
       50
176
     1
 90
       50
176
     1
290
     0
176
     1
 90
       50
176
     1
 62
   256
176
     0
 40
1.0
176
     0
 90
        2
176
     1
  1
strokes_ogs.tif
176
     1
290
     0
176
     1
 40
1.0
176
     1
 40
1.0
176
     1
  0
VISUALSTYLE
  5
57D2
102
{ACAD_REACTORS
330
57C6
102
}
330
57C6
100
AcDbVisualStyle
  2
Brighten
 70
    12
177
     3
291
     1
 70
    58
 90
        2
176
     1
 90
        2
176
     1
 90
        0
176
     1
 90
        0
176
     1
 40
0.6
176
     1
 40
30.0
176
     1
 62
     7
176
     1
 90
        1
176
     1
 90
        4
176
     1
 62
     7
176
     1
 62
   257
176
     1
 90
        1
176
     1
 90
        1
176
     1
 40
1.0
176
     1
 90
        8
176
     1
 62
     7
176
     1
 40
1.0
176
     1
 90
        1
176
     1
 90
        6
176
     1
 90
        2
176
     1
 62
     7
176
     1
 90
        5
176
     1
 90
        0
176
     1
 90
        0
176
     1
290
     0
176
     1
 90
        1
176
     1
 40
50.0
176
     1
 90
        0
176
     1
290
     0
176
     1
290
     1
176
     1
290
     1
176
     1
290
     0
176
     1
290
     0
176
     1
290
     0
176
     1
290
     0
176
     1
290
     0
176
     1
290
     0
176
     1
 90
       50
176
     1
 40
0.0
176
     1
 40
1.0
176
     1
 90
        0
176
     1
 62
    18
176
     1
 90
       50
176
     1
 90
        3
176
     1
 62
     5
420
      255
176
     1
290
     0
176
     1
 90
       50
176
     1
 90
       50
176
     1
 90
       50
176
     1
290
     0
176
     1
 90
       50
176
     1
 62
   256
176
     0
 40
1.0
176
     0
 90
        2
176
     1
  1
strokes_ogs.tif
176
     1
290
     0
176
     1
 40
1.0
176
     1
 40
1.0
176
     1
  0
VISUALSTYLE
  5
57D6
102
{ACAD_REACTORS
330
57C6
102
}
330
57C6
100
AcDbVisualStyle
  2
ColorChange
 70
    16
177
     3
291
     1
 70
    58
 90
        2
176
     1
 90
        2
176
     1
 90
        3
176
     1
 90
        0
176
     1
 40
0.6
176
     1
 40
30.0
176
     1
 62
     8
176
     1
 90
        1
176
     1
 90
        4
176
     1
 62
     7
176
     1
 62
   257
176
     1
 90
        1
176
     1
 90
        1
176
     1
 40
1.0
176
     1
 90
        8
176
     1
 62
     8
176
     1
 40
1.0
176
     1
 90
        1
176
     1
 90
        6
176
     1
 90
        2
176
     1
 62
     7
176
     1
 90
        5
176
     1
 90
        0
176
     1
 90
        0
176
     1
290
     0
176
     1
 90
        1
176
     1
 40
0.0
176
     1
 90
        0
176
     1
290
     0
176
     1
290
     1
176
     1
290
     1
176
     1
290
     0
176
     1
290
     0
176
     1
290
     0
176
     1
290
     0
176
     1
290
     0
176
     1
290
     0
176
     1
 90
       50
176
     1
 40
0.0
176
     1
 40
1.0
176
     1
 90
        0
176
     1
 62
    18
176
     1
 90
       50
176
     1
 90
        3
176
     1
 62
     5
420
      255
176
     1
290
     0
176
     1
 90
       50
176
     1
 90
       50
176
     1
 90
       50
176
     1
290
     0
176
     1
 90
       50
176
     1
 62
   256
176
     0
 40
1.0
176
     0
 90
        2
176
     1
  1
strokes_ogs.tif
176
     1
290
     0
176
     1
 40
1.0
176
     1
 40
1.0
176
     1
  0
VISUALSTYLE
  5
57CF
102
{ACAD_REACTORS
330
57C6
102
}
330
57C6
100
AcDbVisualStyle
  2
Conceptual
 70
     9
177
     3
291
     0
 70
    58
 90
        3
176
     1
 90
        2
176
     1
 90
        0
176
     1
 90
        0
176
     1
 40
0.6
176
     1
 40
30.0
176
     1
 62
     7
176
     1
 90
        2
176
     1
 90
        2
176
     1
 62
     7
176
     1
 62
   257
176
     1
 90
        1
176
     1
 90
        1
176
     1
 40
179.0
176
     1
 90
        8
176
     1
 62
     7
176
     1
 40
1.0
176
     1
 90
        1
176
     1
 90
        6
176
     1
 90
        2
176
     1
 62
     7
176
     1
 90
        3
176
     1
 90
        0
176
     1
 90
        0
176
     1
290
     0
176
     1
 90
        1
176
     1
 40
0.0
176
     1
 90
        0
176
     1
290
     0
176
     1
290
     1
176
     1
290
     1
176
     1
290
     0
176
     1
290
     0
176
     1
290
     0
176
     1
290
     0
176
     1
290
     0
176
     1
290
     0
176
     1
 90
       50
176
     1
 40
0.0
176
     1
 40
1.0
176
     1
 90
        0
176
     1
 62
    18
176
     1
 90
       50
176
     1
 90
        3
176
     1
 62
     5
420
      255
176
     1
290
     0
176
     1
 90
       50
176
     1
 90
       50
176
     1
 90
       50
176
     1
290
     0
176
     1
 90
       50
176
     1
 62
   256
176
     0
 40
1.0
176
     0
 90
        2
176
     1
  1
strokes_ogs.tif
176
     1
290
     0
176
     1
 40
1.0
176
     1
 40
1.0
176
     1
  0
VISUALSTYLE
  5
57D1
102
{ACAD_REACTORS
330
57C6
102
}
330
57C6
100
AcDbVisualStyle
  2
Dim
 70
    11
177
     3
291
     1
 70
    58
 90
        2
176
     1
 90
        2
176
     1
 90
        0
176
     1
 90
        0
176
     1
 40
0.6
176
     1
 40
30.0
176
     1
 62
     7
176
     1
 90
        1
176
     1
 90
        4
176
     1
 62
     7
176
     1
 62
   257
176
     1
 90
        1
176
     1
 90
        1
176
     1
 40
1.0
176
     1
 90
        8
176
     1
 62
     7
176
     1
 40
1.0
176
     1
 90
        1
176
     1
 90
        6
176
     1
 90
        2
176
     1
 62
     7
176
     1
 90
        5
176
     1
 90
        0
176
     1
 90
        0
176
     1
290
     0
176
     1
 90
        1
176
     1
 40
-50.0
176
     1
 90
        0
176
     1
290
     0
176
     1
290
     1
176
     1
290
     1
176
     1
290
     0
176
     1
290
     0
176
     1
290
     0
176
     1
290
     0
176
     1
290
     0
176
     1
290
     0
176
     1
 90
       50
176
     1
 40
0.0
176
     1
 40
1.0
176
     1
 90
        0
176
     1
 62
    18
176
     1
 90
       50
176
     1
 90
        3
176
     1
 62
     5
420
      255
176
     1
290
     0
176
     1
 90
       50
176
     1
 90
       50
176
     1
 90
       50
176
     1
290
     0
176
     1
 90
       50
176
     1
 62
   256
176
     0
 40
1.0
176
     0
 90
        2
176
     1
  1
strokes_ogs.tif
176
     1
290
     0
176
     1
 40
1.0
176
     1
 40
1.0
176
     1
  0
VISUALSTYLE
  5
57DE
102
{ACAD_REACTORS
330
57C6
102
}
330
57C6
100
AcDbVisualStyle
  2
EdgeColorOff
 70
    22
177
     3
291
     1
 70
    58
 90
        2
176
     0
 90
        2
176
     0
 90
        0
176
     0
 90
        0
176
     0
 40
0.6
176
     0
 40
30.0
176
     0
 62
     7
176
     0
 90
        1
176
     0
 90
        4
176
     0
 62
     7
176
     0
 62
   257
176
     0
 90
        1
176
     0
 90
        1
176
     0
 40
1.0
176
     0
 90
        8
176
     2
 62
     7
176
     0
 40
1.0
176
     0
 90
        1
176
     0
 90
        6
176
     0
 90
        2
176
     0
 62
     7
176
     0
 90
        5
176
     0
 90
        0
176
     0
 90
        0
176
     0
290
     0
176
     0
 90
        1
176
     0
 40
0.0
176
     0
 90
        0
176
     0
290
     0
176
     0
290
     1
176
     0
290
     1
176
     0
290
     0
176
     0
290
     0
176
     0
290
     0
176
     0
290
     0
176
     0
290
     0
176
     0
290
     0
176
     0
 90
       50
176
     0
 40
0.0
176
     0
 40
1.0
176
     0
 90
        0
176
     0
 62
    18
176
     0
 90
       50
176
     0
 90
        3
176
     0
 62
     5
420
      255
176
     0
290
     0
176
     0
 90
       50
176
     0
 90
       50
176
     0
 90
       50
176
     0
290
     0
176
     0
 90
       50
176
     0
 62
   256
176
     0
 40
1.0
176
     0
 90
        2
176
     0
  1
strokes_ogs.tif
176
     0
290
     0
176
     0
 40
1.0
176
     0
 40
1.0
176
     0
  0
VISUALSTYLE
  5
57D5
102
{ACAD_REACTORS
330
57C6
102
}
330
57C6
100
AcDbVisualStyle
  2
Facepattern
 70
    15
177
     3
291
     1
 70
    58
 90
        2
176
     1
 90
        2
176
     1
 90
        0
176
     1
 90
        0
176
     1
 40
0.6
176
     1
 40
30.0
176
     1
 62
     7
176
     1
 90
        1
176
     1
 90
        4
176
     1
 62
     7
176
     1
 62
   257
176
     1
 90
        1
176
     1
 90
        1
176
     1
 40
1.0
176
     1
 90
        8
176
     1
 62
     7
176
     1
 40
1.0
176
     1
 90
        1
176
     1
 90
        6
176
     1
 90
        2
176
     1
 62
     7
176
     1
 90
        5
176
     1
 90
        0
176
     1
 90
        0
176
     1
290
     0
176
     1
 90
        1
176
     1
 40
0.0
176
     1
 90
        0
176
     1
290
     0
176
     1
290
     1
176
     1
290
     1
176
     1
290
     0
176
     1
290
     0
176
     1
290
     0
176
     1
290
     0
176
     1
290
     0
176
     1
290
     0
176
     1
 90
       50
176
     1
 40
0.0
176
     1
 40
1.0
176
     1
 90
        0
176
     1
 62
    18
176
     1
 90
       50
176
     1
 90
        3
176
     1
 62
     5
420
      255
176
     1
290
     0
176
     1
 90
       50
176
     1
 90
       50
176
     1
 90
       50
176
     1
290
     0
176
     1
 90
       50
176
     1
 62
   256
176
     0
 40
1.0
176
     0
 90
        2
176
     1
  1
strokes_ogs.tif
176
     1
290
     0
176
     1
 40
1.0
176
     1
 40
1.0
176
     1
  0
VISUALSTYLE
  5
57C7
102
{ACAD_REACTORS
330
57C6
102
}
330
57C6
100
AcDbVisualStyle
  2
Flat
 70
     0
177
     3
291
     1
 70
    58
 90
        2
176
     1
 90
        1
176
     1
 90
        1
176
     1
 90
        2
176
     1
 40
0.6
176
     1
 40
30.0
176
     1
 62
     7
176
     1
 90
        0
176
     1
 90
        0
176
     1
 62
     7
176
     1
 62
   257
176
     1
 90
        1
176
     1
 90
        1
176
     1
 40
1.0
176
     1
 90
        8
176
     1
 62
     7
176
     1
 40
1.0
176
     1
 90
        1
176
     1
 90
        6
176
     1
 90
        2
176
     1
 62
     7
176
     1
 90
        5
176
     1
 90
        0
176
     1
 90
        0
176
     1
290
     0
176
     1
 90
       13
176
     1
 40
0.0
176
     1
 90
        0
176
     1
290
     0
176
     1
290
     1
176
     1
290
     1
176
     1
290
     0
176
     1
290
     0
176
     1
290
     0
176
     1
290
     0
176
     1
290
     0
176
     1
290
     0
176
     1
 90
       50
176
     1
 40
0.0
176
     1
 40
1.0
176
     1
 90
        0
176
     1
 62
    18
176
     1
 90
       50
176
     1
 90
        3
176
     1
 62
     5
420
      255
176
     1
290
     0
176
     1
 90
       50
176
     1
 90
       50
176
     1
 90
       50
176
     1
290
     0
176
     1
 90
       50
176
     1
 62
   256
176
     0
 40
1.0
176
     0
 90
        2
176
     1
  1
strokes_ogs.tif
176
     1
290
     0
176
     1
 40
1.0
176
     1
 40
1.0
176
     1
  0
VISUALSTYLE
  5
57C8
102
{ACAD_REACTORS
330
57C6
102
}
330
57C6
100
AcDbVisualStyle
  2
FlatWithEdges
 70
     1
177
     3
291
     1
 70
    58
 90
        2
176
     1
 90
        1
176
     1
 90
        1
176
     1
 90
        2
176
     1
 40
0.6
176
     1
 40
30.0
176
     1
 62
     7
176
     1
 90
        1
176
     1
 90
        0
176
     1
 62
     7
176
     1
 62
   257
176
     1
 90
        1
176
     1
 90
        1
176
     1
 40
1.0
176
     1
 90
        0
176
     1
 62
   257
176
     1
 40
1.0
176
     1
 90
        1
176
     1
 90
        6
176
     1
 90
        2
176
     1
 62
     7
176
     1
 90
        5
176
     1
 90
        0
176
     1
 90
        0
176
     1
290
     0
176
     1
 90
       13
176
     1
 40
0.0
176
     1
 90
        0
176
     1
290
     0
176
     1
290
     1
176
     1
290
     1
176
     1
290
     0
176
     1
290
     0
176
     1
290
     0
176
     1
290
     0
176
     1
290
     0
176
     1
290
     0
176
     1
 90
       50
176
     1
 40
0.0
176
     1
 40
1.0
176
     1
 90
        0
176
     1
 62
    18
176
     1
 90
       50
176
     1
 90
        3
176
     1
 62
     5
420
      255
176
     1
290
     0
176
     1
 90
       50
176
     1
 90
       50
176
     1
 90
       50
176
     1
290
     0
176
     1
 90
       50
176
     1
 62
   256
176
     0
 40
1.0
176
     0
 90
        2
176
     1
  1
strokes_ogs.tif
176
     1
290
     0
176
     1
 40
1.0
176
     1
 40
1.0
176
     1
  0
VISUALSTYLE
  5
57C9
102
{ACAD_REACTORS
330
57C6
102
}
330
57C6
100
AcDbVisualStyle
  2
Gouraud
 70
     2
177
     3
291
     1
 70
    58
 90
        2
176
     1
 90
        2
176
     1
 90
        1
176
     1
 90
        2
176
     1
 40
0.6
176
     1
 40
30.0
176
     1
 62
     7
176
     1
 90
        0
176
     1
 90
        0
176
     1
 62
     7
176
     1
 62
   257
176
     1
 90
        1
176
     1
 90
        1
176
     1
 40
1.0
176
     1
 90
        0
176
     1
 62
     7
176
     1
 40
1.0
176
     1
 90
        1
176
     1
 90
        6
176
     1
 90
        2
176
     1
 62
     7
176
     1
 90
        5
176
     1
 90
        0
176
     1
 90
        0
176
     1
290
     0
176
     1
 90
       13
176
     1
 40
0.0
176
     1
 90
        0
176
     1
290
     0
176
     1
290
     1
176
     1
290
     1
176
     1
290
     0
176
     1
290
     0
176
     1
290
     0
176
     1
290
     0
176
     1
290
     0
176
     1
290
     0
176
     1
 90
       50
176
     1
 40
0.0
176
     1
 40
1.0
176
     1
 90
        0
176
     1
 62
    18
176
     1
 90
       50
176
     1
 90
        3
176
     1
 62
     5
420
      255
176
     1
290
     0
176
     1
 90
       50
176
     1
 90
       50
176
     1
 90
       50
176
     1
290
     0
176
     1
 90
       50
176
     1
 62
   256
176
     0
 40
1.0
176
     0
 90
        2
176
     1
  1
strokes_ogs.tif
176
     1
290
     0
176
     1
 40
1.0
176
     1
 40
1.0
176
     1
  0
VISUALSTYLE
  5
57CA
102
{ACAD_REACTORS
330
57C6
102
}
330
57C6
100
AcDbVisualStyle
  2
GouraudWithEdges
 70
     3
177
     3
291
     1
 70
    58
 90
        2
176
     1
 90
        2
176
     1
 90
        1
176
     1
 90
        2
176
     1
 40
0.6
176
     1
 40
30.0
176
     1
 62
     7
176
     1
 90
        1
176
     1
 90
        0
176
     1
 62
     7
176
     1
 62
   257
176
     1
 90
        1
176
     1
 90
        1
176
     1
 40
1.0
176
     1
 90
        0
176
     1
 62
   257
176
     1
 40
1.0
176
     1
 90
        1
176
     1
 90
        6
176
     1
 90
        2
176
     1
 62
     7
176
     1
 90
        5
176
     1
 90
        0
176
     1
 90
        0
176
     1
290
     0
176
     1
 90
       13
176
     1
 40
0.0
176
     1
 90
        0
176
     1
290
     0
176
     1
290
     1
176
     1
290
     1
176
     1
290
     0
176
     1
290
     0
176
     1
290
     0
176
     1
290
     0
176
     1
290
     0
176
     1
290
     0
176
     1
 90
       50
176
     1
 40
0.0
176
     1
 40
1.0
176
     1
 90
        0
176
     1
 62
    18
176
     1
 90
       50
176
     1
 90
        3
176
     1
 62
     5
420
      255
176
     1
290
     0
176
     1
 90
       50
176
     1
 90
       50
176
     1
 90
       50
176
     1
290
     0
176
     1
 90
       50
176
     1
 62
   256
176
     0
 40
1.0
176
     0
 90
        2
176
     1
  1
strokes_ogs.tif
176
     1
290
     0
176
     1
 40
1.0
176
     1
 40
1.0
176
     1
  0
VISUALSTYLE
  5
57CE
102
{ACAD_REACTORS
330
57C6
102
}
330
57C6
100
AcDbVisualStyle
  2
Hidden
 70
     6
177
     3
291
     0
 70
    58
 90
        1
176
     1
 90
        2
176
     1
 90
        2
176
     1
 90
        0
176
     1
 40
0.6
176
     1
 40
30.0
176
     1
 62
     7
176
     1
 90
        2
176
     1
 90
        2
176
     1
 62
     7
176
     1
 62
   257
176
     1
 90
        2
176
     1
 90
        1
176
     1
 40
40.0
176
     1
 90
        0
176
     1
 62
   257
176
     1
 40
1.0
176
     1
 90
        1
176
     1
 90
        6
176
     1
 90
        2
176
     1
 62
     7
176
     1
 90
        3
176
     1
 90
        0
176
     1
 90
        0
176
     1
290
     0
176
     1
 90
        1
176
     1
 40
0.0
176
     1
 90
        0
176
     1
290
     0
176
     1
290
     1
176
     1
290
     1
176
     1
290
     0
176
     1
290
     0
176
     1
290
     0
176
     1
290
     0
176
     1
290
     0
176
     1
290
     0
176
     1
 90
       50
176
     1
 40
0.0
176
     1
 40
1.0
176
     1
 90
        0
176
     1
 62
    18
176
     1
 90
       50
176
     1
 90
        3
176
     1
 62
     5
420
      255
176
     1
290
     0
176
     1
 90
       50
176
     1
 90
       50
176
     1
 90
       50
176
     1
290
     0
176
     1
 90
       50
176
     1
 62
   256
176
     0
 40
1.0
176
     0
 90
        2
176
     1
  1
strokes_ogs.tif
176
     1
290
     0
176
     1
 40
1.0
176
     1
 40
1.0
176
     1
  0
VISUALSTYLE
  5
57DC
102
{ACAD_REACTORS
330
57C6
102
}
330
57C6
100
AcDbVisualStyle
  2
JitterOff
 70
    20
177
     3
291
     1
 70
    58
 90
        2
176
     0
 90
        2
176
     0
 90
        0
176
     0
 90
        0
176
     0
 40
0.6
176
     0
 40
30.0
176
     0
 62
     7
176
     0
 90
        1
176
     0
 90
        4
176
     0
 62
     7
176
     0
 62
   257
176
     0
 90
        1
176
     0
 90
        1
176
     0
 40
1.0
176
     0
 90
       10
176
     2
 62
     7
176
     0
 40
1.0
176
     0
 90
        1
176
     0
 90
        6
176
     0
 90
        2
176
     0
 62
     7
176
     0
 90
        5
176
     0
 90
        0
176
     0
 90
        0
176
     0
290
     0
176
     0
 90
        1
176
     0
 40
0.0
176
     0
 90
        0
176
     0
290
     0
176
     0
290
     1
176
     0
290
     1
176
     0
290
     0
176
     0
290
     0
176
     0
290
     0
176
     0
290
     0
176
     0
290
     0
176
     0
290
     0
176
     0
 90
       50
176
     0
 40
0.0
176
     0
 40
1.0
176
     0
 90
        0
176
     0
 62
    18
176
     0
 90
       50
176
     0
 90
        3
176
     0
 62
     5
420
      255
176
     0
290
     0
176
     0
 90
       50
176
     0
 90
       50
176
     0
 90
       50
176
     0
290
     0
176
     0
 90
       50
176
     0
 62
   256
176
     0
 40
1.0
176
     0
 90
        2
176
     0
  1
strokes_ogs.tif
176
     0
290
     0
176
     0
 40
1.0
176
     0
 40
1.0
176
     0
  0
VISUALSTYLE
  5
57D4
102
{ACAD_REACTORS
330
57C6
102
}
330
57C6
100
AcDbVisualStyle
  2
Linepattern
 70
    14
177
     3
291
     1
 70
    58
 90
        2
176
     1
 90
        2
176
     1
 90
        0
176
     1
 90
        0
176
     1
 40
0.6
176
     1
 40
30.0
176
     1
 62
     7
176
     1
 90
        1
176
     1
 90
        4
176
     1
 62
     7
176
     1
 62
   257
176
     1
 90
        7
176
     1
 90
        7
176
     1
 40
1.0
176
     1
 90
        8
176
     1
 62
     7
176
     1
 40
1.0
176
     1
 90
        1
176
     1
 90
        6
176
     1
 90
        2
176
     1
 62
     7
176
     1
 90
        5
176
     1
 90
        0
176
     1
 90
        0
176
     1
290
     0
176
     1
 90
        1
176
     1
 40
0.0
176
     1
 90
        0
176
     1
290
     0
176
     1
290
     1
176
     1
290
     1
176
     1
290
     0
176
     1
290
     0
176
     1
290
     0
176
     1
290
     0
176
     1
290
     0
176
     1
290
     0
176
     1
 90
       50
176
     1
 40
0.0
176
     1
 40
1.0
176
     1
 90
        0
176
     1
 62
    18
176
     1
 90
       50
176
     1
 90
        3
176
     1
 62
     5
420
      255
176
     1
290
     0
176
     1
 90
       50
176
     1
 90
       50
176
     1
 90
       50
176
     1
290
     0
176
     1
 90
       50
176
     1
 62
   256
176
     0
 40
1.0
176
     0
 90
        2
176
     1
  1
strokes_ogs.tif
176
     1
290
     0
176
     1
 40
1.0
176
     1
 40
1.0
176
     1
  0
VISUALSTYLE
  5
57DD
102
{ACAD_REACTORS
330
57C6
102
}
330
57C6
100
AcDbVisualStyle
  2
OverhangOff
 70
    21
177
     3
291
     1
 70
    58
 90
        2
176
     0
 90
        2
176
     0
 90
        0
176
     0
 90
        0
176
     0
 40
0.6
176
     0
 40
30.0
176
     0
 62
     7
176
     0
 90
        1
176
     0
 90
        4
176
     0
 62
     7
176
     0
 62
   257
176
     0
 90
        1
176
     0
 90
        1
176
     0
 40
1.0
176
     0
 90
        9
176
     2
 62
     7
176
     0
 40
1.0
176
     0
 90
        1
176
     0
 90
        6
176
     0
 90
        2
176
     0
 62
     7
176
     0
 90
        5
176
     0
 90
        0
176
     0
 90
        0
176
     0
290
     0
176
     0
 90
        1
176
     0
 40
0.0
176
     0
 90
        0
176
     0
290
     0
176
     0
290
     1
176
     0
290
     1
176
     0
290
     0
176
     0
290
     0
176
     0
290
     0
176
     0
290
     0
176
     0
290
     0
176
     0
290
     0
176
     0
 90
       50
176
     0
 40
0.0
176
     0
 40
1.0
176
     0
 90
        0
176
     0
 62
    18
176
     0
 90
       50
176
     0
 90
        3
176
     0
 62
     5
420
      255
176
     0
290
     0
176
     0
 90
       50
176
     0
 90
       50
176
     0
 90
       50
176
     0
290
     0
176
     0
 90
       50
176
     0
 62
   256
176
     0
 40
1.0
176
     0
 90
        2
176
     0
  1
strokes_ogs.tif
176
     0
290
     0
176
     0
 40
1.0
176
     0
 40
1.0
176
     0
  0
VISUALSTYLE
  5
57D0
102
{ACAD_REACTORS
330
57C6
102
}
330
57C6
100
AcDbVisualStyle
  2
Realistic
 70
     8
177
     3
291
     0
 70
    58
 90
        2
176
     1
 90
        2
176
     1
 90
        0
176
     1
 90
        2
176
     1
 40
0.6
176
     1
 40
30.0
176
     1
 62
     7
176
     1
 90
        0
176
     1
 90
        0
176
     1
 62
     7
176
     1
 62
   257
176
     1
 90
        1
176
     1
 90
        1
176
     1
 40
1.0
176
     1
 90
        8
176
     1
 62
   257
176
     1
 40
1.0
176
     1
 90
        1
176
     1
 90
        6
176
     1
 90
        2
176
     1
 62
     7
176
     1
 90
        3
176
     1
 90
        0
176
     1
 90
        0
176
     1
290
     0
176
     1
 90
       13
176
     1
 40
0.0
176
     1
 90
        0
176
     1
290
     0
176
     1
290
     1
176
     1
290
     1
176
     1
290
     0
176
     1
290
     0
176
     1
290
     0
176
     1
290
     0
176
     1
290
     0
176
     1
290
     0
176
     1
 90
       50
176
     1
 40
0.0
176
     1
 40
1.0
176
     1
 90
        0
176
     1
 62
    18
176
     1
 90
       50
176
     1
 90
        3
176
     1
 62
     5
420
      255
176
     1
290
     0
176
     1
 90
       50
176
     1
 90
       50
176
     1
 90
       50
176
     1
290
     0
176
     1
 90
       50
176
     1
 62
   256
176
     0
 40
1.0
176
     0
 90
        2
176
     1
  1
strokes_ogs.tif
176
     1
290
     0
176
     1
 40
1.0
176
     1
 40
1.0
176
     1
  0
VISUALSTYLE
  5
57DB
102
{ACAD_REACTORS
330
57C6
102
}
330
57C6
100
AcDbVisualStyle
  2
Shaded
 70
    27
177
     3
291
     0
 70
    58
 90
        2
176
     1
 90
        2
176
     1
 90
        1
176
     1
 90
        2
176
     1
 40
0.6
176
     1
 40
30.0
176
     1
 62
     7
176
     1
 90
        0
176
     1
 90
        4
176
     1
 62
     7
176
     1
 62
   257
176
     1
 90
        1
176
     1
 90
        1
176
     1
 40
1.0
176
     1
 90
        8
176
     1
 62
   257
176
     1
 40
1.0
176
     1
 90
        1
176
     1
 90
        6
176
     1
 90
        2
176
     1
 62
     8
176
     1
 90
        3
176
     1
 90
        0
176
     1
 90
        0
176
     1
290
     0
176
     1
 90
        5
176
     1
 40
0.0
176
     1
 90
        0
176
     1
290
     0
176
     1
290
     1
176
     1
290
     1
176
     1
290
     0
176
     1
290
     0
176
     1
290
     0
176
     1
290
     0
176
     1
290
     0
176
     1
290
     0
176
     1
 90
       50
176
     1
 40
0.0
176
     1
 40
1.0
176
     1
 90
        0
176
     1
 62
    18
176
     1
 90
       50
176
     1
 90
        3
176
     1
 62
     5
420
      255
176
     1
290
     0
176
     1
 90
       50
176
     1
 90
       50
176
     1
 90
       50
176
     1
290
     0
176
     1
 90
       50
176
     1
 62
   256
176
     0
 40
1.0
176
     0
 90
        2
176
     1
  1
strokes_ogs.tif
176
     1
290
     0
176
     1
 40
1.0
176
     1
 40
1.0
176
     1
  0
VISUALSTYLE
  5
57DA
102
{ACAD_REACTORS
330
57C6
102
}
330
57C6
100
AcDbVisualStyle
  2
Shaded with edges
 70
    26
177
     3
291
     0
 70
    58
 90
        2
176
     1
 90
        2
176
     1
 90
        1
176
     1
 90
        2
176
     1
 40
0.6
176
     1
 40
30.0
176
     1
 62
     7
176
     1
 90
        1
176
     1
 90
       10
176
     1
 62
     7
176
     1
 62
   257
176
     1
 90
        2
176
     1
 90
        1
176
     1
 40
1.0
176
     1
 90
        8
176
     1
 62
   257
176
     1
 40
1.0
176
     1
 90
        1
176
     1
 90
        6
176
     1
 90
        2
176
     1
 62
     7
176
     1
 90
        3
176
     1
 90
        0
176
     1
 90
        0
176
     1
290
     0
176
     1
 90
        5
176
     1
 40
0.0
176
     1
 90
        0
176
     1
290
     0
176
     1
290
     1
176
     1
290
     1
176
     1
290
     0
176
     1
290
     0
176
     1
290
     0
176
     1
290
     0
176
     1
290
     0
176
     1
290
     0
176
     1
 90
       50
176
     1
 40
0.0
176
     1
 40
1.0
176
     1
 90
        0
176
     1
 62
    18
176
     1
 90
       50
176
     1
 90
        3
176
     1
 62
     5
420
      255
176
     1
290
     0
176
     1
 90
       50
176
     1
 90
       50
176
     1
 90
       50
176
     1
290
     0
176
     1
 90
       50
176
     1
 62
   256
176
     0
 40
1.0
176
     0
 90
        2
176
     1
  1
strokes_ogs.tif
176
     1
290
     0
176
     1
 40
1.0
176
     1
 40
1.0
176
     1
  0
VISUALSTYLE
  5
57D7
102
{ACAD_REACTORS
330
57C6
102
}
330
57C6
100
AcDbVisualStyle
  2
Shades of Gray
 70
    23
177
     3
291
     0
 70
    58
 90
        2
176
     1
 90
        2
176
     1
 90
        3
176
     1
 90
        0
176
     1
 40
0.6
176
     1
 40
30.0
176
     1
 62
     7
176
     1
 90
        2
176
     1
 90
        2
176
     1
 62
     7
176
     1
 62
     7
176
     1
 90
        1
176
     1
 90
        1
176
     1
 40
40.0
176
     1
 90
        8
176
     1
 62
     7
176
     1
 40
1.0
176
     1
 90
        1
176
     1
 90
        6
176
     1
 90
        2
176
     1
 62
     7
176
     1
 90
        3
176
     1
 90
        0
176
     1
 90
        0
176
     1
290
     0
176
     1
 90
        1
176
     1
 40
0.0
176
     1
 90
        0
176
     1
290
     0
176
     1
290
     1
176
     1
290
     1
176
     1
290
     0
176
     1
290
     0
176
     1
290
     0
176
     1
290
     0
176
     1
290
     0
176
     1
290
     0
176
     1
 90
       50
176
     1
 40
0.0
176
     1
 40
1.0
176
     1
 90
        0
176
     1
 62
    18
176
     1
 90
       50
176
     1
 90
        3
176
     1
 62
     5
420
      255
176
     1
290
     0
176
     1
 90
       50
176
     1
 90
       50
176
     1
 90
       50
176
     1
290
     0
176
     1
 90
       50
176
     1
 62
   256
176
     0
 40
1.0
176
     0
 90
        2
176
     1
  1
strokes_ogs.tif
176
     1
290
     0
176
     1
 40
1.0
176
     1
 40
1.0
176
     1
  0
VISUALSTYLE
  5
57D8
102
{ACAD_REACTORS
330
57C6
102
}
330
57C6
100
AcDbVisualStyle
  2
Sketchy
 70
    24
177
     3
291
     0
 70
    58
 90
        1
176
     1
 90
        2
176
     1
 90
        2
176
     1
 90
        0
176
     1
 40
0.6
176
     1
 40
30.0
176
     1
 62
     7
176
     1
 90
        2
176
     1
 90
        2
176
     1
 62
     7
176
     1
 62
     7
176
     1
 90
        1
176
     1
 90
        1
176
     1
 40
40.0
176
     1
 90
       11
176
     1
 62
     7
176
     1
 40
1.0
176
     1
 90
        1
176
     1
 90
        6
176
     1
 90
        2
176
     1
 62
     7
176
     1
 90
        6
176
     1
 90
        0
176
     1
 90
        0
176
     1
290
     0
176
     1
 90
        1
176
     1
 40
0.0
176
     1
 90
        0
176
     1
290
     0
176
     1
290
     1
176
     1
290
     1
176
     1
290
     0
176
     1
290
     0
176
     1
290
     0
176
     1
290
     0
176
     1
290
     0
176
     1
290
     0
176
     1
 90
       50
176
     1
 40
0.0
176
     1
 40
1.0
176
     1
 90
        0
176
     1
 62
    18
176
     1
 90
       50
176
     1
 90
        3
176
     1
 62
     5
420
      255
176
     1
290
     0
176
     1
 90
       50
176
     1
 90
       50
176
     1
 90
       50
176
     1
290
     0
176
     1
 90
       50
176
     1
 62
   256
176
     0
 40
1.0
176
     0
 90
        2
176
     1
  1
strokes_ogs.tif
176
     1
290
     0
176
     1
 40
1.0
176
     1
 40
1.0
176
     1
  0
VISUALSTYLE
  5
57D3
102
{ACAD_REACTORS
330
57C6
102
}
330
57C6
100
AcDbVisualStyle
  2
Thicken
 70
    13
177
     3
291
     1
 70
    58
 90
        2
176
     1
 90
        2
176
     1
 90
        0
176
     1
 90
        0
176
     1
 40
0.6
176
     1
 40
30.0
176
     1
 62
     7
176
     1
 90
        1
176
     1
 90
        4
176
     1
 62
     7
176
     1
 62
   257
176
     1
 90
        1
176
     1
 90
        1
176
     1
 40
1.0
176
     1
 90
       12
176
     1
 62
     7
176
     1
 40
1.0
176
     1
 90
        1
176
     1
 90
        6
176
     1
 90
        2
176
     1
 62
     7
176
     1
 90
        5
176
     1
 90
        0
176
     1
 90
        0
176
     1
290
     0
176
     1
 90
        1
176
     1
 40
0.0
176
     1
 90
        0
176
     1
290
     0
176
     1
290
     1
176
     1
290
     1
176
     1
290
     0
176
     1
290
     0
176
     1
290
     0
176
     1
290
     0
176
     1
290
     0
176
     1
290
     0
176
     1
 90
       50
176
     1
 40
0.0
176
     1
 40
1.0
176
     1
 90
        0
176
     1
 62
    18
176
     1
 90
       50
176
     1
 90
        3
176
     1
 62
     5
420
      255
176
     1
290
     0
176
     1
 90
       50
176
     1
 90
       50
176
     1
 90
       50
176
     1
290
     0
176
     1
 90
       50
176
     1
 62
   256
176
     0
 40
1.0
176
     0
 90
        2
176
     1
  1
strokes_ogs.tif
176
     1
290
     0
176
     1
 40
1.0
176
     1
 40
1.0
176
     1
  0
VISUALSTYLE
  5
57CD
102
{ACAD_REACTORS
330
57C6
102
}
330
57C6
100
AcDbVisualStyle
  2
Wireframe
 70
     5
177
     3
291
     0
 70
    58
 90
        0
176
     1
 90
        2
176
     1
 90
        0
176
     1
 90
        0
176
     1
 40
0.6
176
     1
 40
30.0
176
     1
 62
     7
176
     1
 90
        1
176
     1
 90
        4
176
     1
 62
     7
176
     1
 62
   257
176
     1
 90
        1
176
     1
 90
        1
176
     1
 40
1.0
176
     1
 90
        0
176
     1
 62
   257
176
     1
 40
1.0
176
     1
 90
        1
176
     1
 90
        6
176
     1
 90
        2
176
     1
 62
     7
176
     1
 90
        3
176
     1
 90
        0
176
     1
 90
        0
176
     1
290
     0
176
     1
 90
        1
176
     1
 40
0.0
176
     1
 90
        0
176
     1
290
     0
176
     1
290
     1
176
     1
290
     1
176
     1
290
     0
176
     1
290
     0
176
     1
290
     0
176
     1
290
     0
176
     1
290
     0
176
     1
290
     0
176
     1
 90
       50
176
     1
 40
0.0
176
     1
 40
1.0
176
     1
 90
        0
176
     1
 62
    18
176
     1
 90
       50
176
     1
 90
        3
176
     1
 62
     5
420
      255
176
     1
290
     0
176
     1
 90
       50
176
     1
 90
       50
176
     1
 90
       50
176
     1
290
     0
176
     1
 90
       50
176
     1
 62
   256
176
     0
 40
1.0
176
     0
 90
        2
176
     1
  1
strokes_ogs.tif
176
     1
290
     0
176
     1
 40
1.0
176
     1
 40
1.0
176
     1
  0
VISUALSTYLE
  5
57D9
102
{ACAD_REACTORS
330
57C6
102
}
330
57C6
100
AcDbVisualStyle
  2
X-Ray
 70
    25
177
     3
291
     0
 70
    58
 90
        2
176
     1
 90
        2
176
     1
 90
        1
176
     1
 90
        1
176
     1
 40
0.5
176
     1
 40
30.0
176
     1
 62
     7
176
     1
 90
        1
176
     1
 90
        0
176
     1
 62
     7
176
     1
 62
   257
176
     1
 90
        1
176
     1
 90
        1
176
     1
 40
1.0
176
     1
 90
        8
176
     1
 62
     7
176
     1
 40
1.0
176
     1
 90
        1
176
     1
 90
        6
176
     1
 90
        2
176
     1
 62
     7
176
     1
 90
        3
176
     1
 90
        0
176
     1
 90
        0
176
     1
290
     0
176
     1
 90
       13
176
     1
 40
0.0
176
     1
 90
        0
176
     1
290
     0
176
     1
290
     1
176
     1
290
     1
176
     1
290
     0
176
     1
290
     0
176
     1
290
     0
176
     1
290
     0
176
     1
290
     0
176
     1
290
     0
176
     1
 90
       50
176
     1
 40
0.0
176
     1
 40
1.0
176
     1
 90
        0
176
     1
 62
    18
176
     1
 90
       50
176
     1
 90
        3
176
     1
 62
     5
420
      255
176
     1
290
     0
176
     1
 90
       50
176
     1
 90
       50
176
     1
 90
       50
176
     1
290
     0
176
     1
 90
       50
176
     1
 62
   256
176
     0
 40
1.0
176
     0
 90
        2
176
     1
  1
strokes_ogs.tif
176
     1
290
     0
176
     1
 40
1.0
176
     1
 40
1.0
176
     1
  0
DICTIONARYVAR
  5
587B
102
{ACAD_REACTORS
330
33
102
}
330
33
100
DictionaryVariables
280
     0
  1
1:1
  0
DICTIONARYVAR
  5
5878
102
{ACAD_REACTORS
330
33
102
}
330
33
100
DictionaryVariables
280
     0
  1
STANDARD
  0
DICTIONARYVAR
  5
5877
102
{ACAD_REACTORS
330
33
102
}
330
33
100
DictionaryVariables
280
     0
  1
STANDARD
  0
DICTIONARYVAR
  5
5879
102
{ACAD_REACTORS
330
33
102
}
330
33
100
DictionaryVariables
280
     0
  1
Metric50
  0
DICTIONARYVAR
  5
587A
102
{ACAD_REACTORS
330
33
102
}
330
33
100
DictionaryVariables
280
     0
  1
Metric50
  0
DICTIONARYVAR
  5
34
102
{ACAD_REACTORS
330
33
102
}
330
33
100
DictionaryVariables
280
     0
  1
0
  0
DICTIONARYVAR
  5
23F7
102
{ACAD_REACTORS
330
33
102
}
330
33
100
DictionaryVariables
280
     0
  1
1
  0
DICTIONARYVAR
  5
587C
102
{ACAD_REACTORS
330
33
102
}
330
33
100
DictionaryVariables
280
     0
  1
0
  0
DICTIONARYVAR
  5
D09C
102
{ACAD_REACTORS
330
33
102
}
330
33
100
DictionaryVariables
280
     0
  1
1
  0
DICTIONARYVAR
  5
D09D
102
{ACAD_REACTORS
330
33
102
}
330
33
100
DictionaryVariables
280
     0
  1
15
  0
DICTIONARYVAR
  5
D09B
102
{ACAD_REACTORS
330
33
102
}
330
33
100
DictionaryVariables
280
     0
  1
0
  0
DICTIONARYVAR
  5
D09A
102
{ACAD_REACTORS
330
33
102
}
330
33
100
DictionaryVariables
280
     0
  1
0
  0
DICTIONARYVAR
  5
1383
102
{ACAD_REACTORS
330
33
102
}
330
33
100
DictionaryVariables
280
     0
  1
96
  0
DICTIONARY
  5
D0A5
330
A70A
100
AcDbDictionary
280
     1
281
     1
  3
ACAD_XREC_ROUNDTRIP
360
D31C
  0
DICTIONARY
  5
D0A1
330
57F9
100
AcDbDictionary
280
     1
281
     1
  3
ACAD_XREC_ROUNDTRIP
360
D31A
  0
DICTIONARY
  5
57B7
330
57B6
100
AcDbDictionary
280
     1
281
     1
  3
BUMPTILE
360
57B9
  3
DIFFUSETILE
360
57B8
  3
OPACITYTILE
360
57BC
  3
REFLECTIONTILE
360
57BB
  3
REFRACTIONTILE
360
57BD
  3
SPECULARTILE
360
57BA
  0
DICTIONARY
  5
57AF
330
57AE
100
AcDbDictionary
280
     1
281
     1
  3
BUMPTILE
360
57B1
  3
DIFFUSETILE
360
57B0
  3
OPACITYTILE
360
57B4
  3
REFLECTIONTILE
360
57B3
  3
REFRACTIONTILE
360
57B5
  3
SPECULARTILE
360
57B2
  0
DICTIONARY
  5
57BF
330
57BE
100
AcDbDictionary
280
     1
281
     1
  3
BUMPTILE
360
57C1
  3
DIFFUSETILE
360
57C0
  3
OPACITYTILE
360
57C4
  3
REFLECTIONTILE
360
57C3
  3
REFRACTIONTILE
360
57C5
  3
SPECULARTILE
360
57C2
  0
DICTIONARY
  5
D0A3
330
A709
100
AcDbDictionary
280
     1
281
     1
  3
ACAD_XREC_ROUNDTRIP
360
D31B
  0
DICTIONARY
  5
D09F
330
57F7
100
AcDbDictionary
280
     1
281
     1
  3
ACAD_XREC_ROUNDTRIP
360
D319
  0
DICTIONARY
  5
5822
330
57E1
100
AcDbDictionary
280
     1
281
     1
  3
ACAD_ROUNDTRIP_2008_TABLESTYLE_CELLSTYLEMAP
360
D318
  0
XRECORD
  5
D31C
102
{ACAD_REACTORS
330
D0A5
102
}
330
D0A5
100
AcDbXrecord
280
     1
102
DISPLAYNAME
  1
Imperial24
102
FLAGS
 90
        0
  0
XRECORD
  5
D31A
102
{ACAD_REACTORS
330
D0A1
102
}
330
D0A1
100
AcDbXrecord
280
     1
102
DISPLAYNAME
  1
Metric50
102
FLAGS
 90
        0
  0
XRECORD
  5
57B9
102
{ACAD_REACTORS
330
57B7
102
}
330
57B7
100
AcDbXrecord
280
     1
270
     1
271
     1
  0
XRECORD
  5
57B8
102
{ACAD_REACTORS
330
57B7
102
}
330
57B7
100
AcDbXrecord
280
     1
270
     1
271
     1
  0
XRECORD
  5
57BC
102
{ACAD_REACTORS
330
57B7
102
}
330
57B7
100
AcDbXrecord
280
     1
270
     1
271
     1
  0
XRECORD
  5
57BB
102
{ACAD_REACTORS
330
57B7
102
}
330
57B7
100
AcDbXrecord
280
     1
270
     1
271
     1
  0
XRECORD
  5
57BD
102
{ACAD_REACTORS
330
57B7
102
}
330
57B7
100
AcDbXrecord
280
     1
270
     1
271
     1
  0
XRECORD
  5
57BA
102
{ACAD_REACTORS
330
57B7
102
}
330
57B7
100
AcDbXrecord
280
     1
270
     1
271
     1
  0
XRECORD
  5
57B1
102
{ACAD_REACTORS
330
57AF
102
}
330
57AF
100
AcDbXrecord
280
     1
270
     1
271
     1
  0
XRECORD
  5
57B0
102
{ACAD_REACTORS
330
57AF
102
}
330
57AF
100
AcDbXrecord
280
     1
270
     1
271
     1
  0
XRECORD
  5
57B4
102
{ACAD_REACTORS
330
57AF
102
}
330
57AF
100
AcDbXrecord
280
     1
270
     1
271
     1
  0
XRECORD
  5
57B3
102
{ACAD_REACTORS
330
57AF
102
}
330
57AF
100
AcDbXrecord
280
     1
270
     1
271
     1
  0
XRECORD
  5
57B5
102
{ACAD_REACTORS
330
57AF
102
}
330
57AF
100
AcDbXrecord
280
     1
270
     1
271
     1
  0
XRECORD
  5
57B2
102
{ACAD_REACTORS
330
57AF
102
}
330
57AF
100
AcDbXrecord
280
     1
270
     1
271
     1
  0
XRECORD
  5
57C1
102
{ACAD_REACTORS
330
57BF
102
}
330
57BF
100
AcDbXrecord
280
     1
270
     1
271
     1
  0
XRECORD
  5
57C0
102
{ACAD_REACTORS
330
57BF
102
}
330
57BF
100
AcDbXrecord
280
     1
270
     1
271
     1
  0
XRECORD
  5
57C4
102
{ACAD_REACTORS
330
57BF
102
}
330
57BF
100
AcDbXrecord
280
     1
270
     1
271
     1
  0
XRECORD
  5
57C3
102
{ACAD_REACTORS
330
57BF
102
}
330
57BF
100
AcDbXrecord
280
     1
270
     1
271
     1
  0
XRECORD
  5
57C5
102
{ACAD_REACTORS
330
57BF
102
}
330
57BF
100
AcDbXrecord
280
     1
270
     1
271
     1
  0
XRECORD
  5
57C2
102
{ACAD_REACTORS
330
57BF
102
}
330
57BF
100
AcDbXrecord
280
     1
270
     1
271
     1
  0
XRECORD
  5
D31B
102
{ACAD_REACTORS
330
D0A3
102
}
330
D0A3
100
AcDbXrecord
280
     1
102
DISPLAYNAME
  1
Imperial24
102
FLAGS
 90
        0
  0
XRECORD
  5
D319
102
{ACAD_REACTORS
330
D09F
102
}
330
D09F
100
AcDbXrecord
280
     1
102
DISPLAYNAME
  1
Metric50
102
FLAGS
 90
        0
  0
CELLSTYLEMAP
  5
D318
102
{ACAD_REACTORS
330
5822
102
}
330
5822
100
AcDbCellStyleMap
 90
        3
300
CELLSTYLE
  1
TABLEFORMAT_BEGIN
 90
        5
170
     1
 91
        0
 92
    32768
 62
   257
 93
        1
300
CONTENTFORMAT
  1
CONTENTFORMAT_BEGIN
 90
        0
 91
        0
 92
      512
 93
        0
300

 40
0.0
140
1.0
 94
        5
 62
     0
340
F
144
6.0
309
CONTENTFORMAT_END
171
     1
301
MARGIN
  1
CELLMARGIN_BEGIN
 40
1.5
 40
1.5
 40
1.5
 40
1.5
 40
0.18
 40
0.18
309
CELLMARGIN_END
 94
        6
 95
        1
302
GRIDFORMAT
  1
GRIDFORMAT_BEGIN
 90
        0
 91
        1
 62
     0
 92
       -2
340
0
 93
        0
 40
1.125
309
GRIDFORMAT_END
 95
        2
302
GRIDFORMAT
  1
GRIDFORMAT_BEGIN
 90
        0
 91
        1
 62
     0
 92
       -2
340
0
 93
        0
 40
1.125
309
GRIDFORMAT_END
 95
        4
302
GRIDFORMAT
  1
GRIDFORMAT_BEGIN
 90
        0
 91
        1
 62
     0
 92
       -2
340
0
 93
        0
 40
1.125
309
GRIDFORMAT_END
 95
        8
302
GRIDFORMAT
  1
GRIDFORMAT_BEGIN
 90
        0
 91
        1
 62
     0
 92
       -2
340
0
 93
        0
 40
1.125
309
GRIDFORMAT_END
 95
       16
302
GRIDFORMAT
  1
GRIDFORMAT_BEGIN
 90
        0
 91
        1
 62
     0
 92
       -2
340
0
 93
        0
 40
1.125
309
GRIDFORMAT_END
 95
       32
302
GRIDFORMAT
  1
GRIDFORMAT_BEGIN
 90
        0
 91
        1
 62
     0
 92
       -2
340
0
 93
        0
 40
1.125
309
GRIDFORMAT_END
309
TABLEFORMAT_END
  1
CELLSTYLE_BEGIN
 90
        1
 91
        1
300
_TITLE
309
CELLSTYLE_END
300
CELLSTYLE
  1
TABLEFORMAT_BEGIN
 90
        5
170
     1
 91
        0
 92
        0
 62
   257
 93
        1
300
CONTENTFORMAT
  1
CONTENTFORMAT_BEGIN
 90
        0
 91
        0
 92
      512
 93
        0
300

 40
0.0
140
1.0
 94
        5
 62
     0
340
F
144
4.5
309
CONTENTFORMAT_END
171
     1
301
MARGIN
  1
CELLMARGIN_BEGIN
 40
1.5
 40
1.5
 40
1.5
 40
1.5
 40
0.18
 40
0.18
309
CELLMARGIN_END
 94
        6
 95
        1
302
GRIDFORMAT
  1
GRIDFORMAT_BEGIN
 90
        0
 91
        1
 62
     0
 92
       -2
340
0
 93
        0
 40
1.125
309
GRIDFORMAT_END
 95
        2
302
GRIDFORMAT
  1
GRIDFORMAT_BEGIN
 90
        0
 91
        1
 62
     0
 92
       -2
340
0
 93
        0
 40
1.125
309
GRIDFORMAT_END
 95
        4
302
GRIDFORMAT
  1
GRIDFORMAT_BEGIN
 90
        0
 91
        1
 62
     0
 92
       -2
340
0
 93
        0
 40
1.125
309
GRIDFORMAT_END
 95
        8
302
GRIDFORMAT
  1
GRIDFORMAT_BEGIN
 90
        0
 91
        1
 62
     0
 92
       -2
340
0
 93
        0
 40
1.125
309
GRIDFORMAT_END
 95
       16
302
GRIDFORMAT
  1
GRIDFORMAT_BEGIN
 90
        0
 91
        1
 62
     0
 92
       -2
340
0
 93
        0
 40
1.125
309
GRIDFORMAT_END
 95
       32
302
GRIDFORMAT
  1
GRIDFORMAT_BEGIN
 90
        0
 91
        1
 62
     0
 92
       -2
340
0
 93
        0
 40
1.125
309
GRIDFORMAT_END
309
TABLEFORMAT_END
  1
CELLSTYLE_BEGIN
 90
        2
 91
        1
300
_HEADER
309
CELLSTYLE_END
300
CELLSTYLE
  1
TABLEFORMAT_BEGIN
 90
        5
170
     1
 91
        0
 92
        0
 62
   257
 93
        1
300
CONTENTFORMAT
  1
CONTENTFORMAT_BEGIN
 90
        0
 91
        0
 92
      512
 93
        0
300

 40
0.0
140
1.0
 94
        2
 62
     0
340
F
144
4.5
309
CONTENTFORMAT_END
171
     1
301
MARGIN
  1
CELLMARGIN_BEGIN
 40
1.5
 40
1.5
 40
1.5
 40
1.5
 40
0.18
 40
0.18
309
CELLMARGIN_END
 94
        6
 95
        1
302
GRIDFORMAT
  1
GRIDFORMAT_BEGIN
 90
        0
 91
        1
 62
     0
 92
       -2
340
0
 93
        0
 40
1.125
309
GRIDFORMAT_END
 95
        2
302
GRIDFORMAT
  1
GRIDFORMAT_BEGIN
 90
        0
 91
        1
 62
     0
 92
       -2
340
0
 93
        0
 40
1.125
309
GRIDFORMAT_END
 95
        4
302
GRIDFORMAT
  1
GRIDFORMAT_BEGIN
 90
        0
 91
        1
 62
     0
 92
       -2
340
0
 93
        0
 40
1.125
309
GRIDFORMAT_END
 95
        8
302
GRIDFORMAT
  1
GRIDFORMAT_BEGIN
 90
        0
 91
        1
 62
     0
 92
       -2
340
0
 93
        0
 40
1.125
309
GRIDFORMAT_END
 95
       16
302
GRIDFORMAT
  1
GRIDFORMAT_BEGIN
 90
        0
 91
        1
 62
     0
 92
       -2
340
0
 93
        0
 40
1.125
309
GRIDFORMAT_END
 95
       32
302
GRIDFORMAT
  1
GRIDFORMAT_BEGIN
 90
        0
 91
        1
 62
     0
 92
       -2
340
0
 93
        0
 40
1.125
309
GRIDFORMAT_END
309
TABLEFORMAT_END
  1
CELLSTYLE_BEGIN
 90
        3
 91
        2
300
_DATA
309
CELLSTYLE_END
  0
ENDSEC
  0
SECTION
  2
ACDSDATA
 70
     2
 71
     6
  0
ACDSSCHEMA
 90
        0
  1
AcDb_Thumbnail_Schema
  2
AcDbDs::ID
280
    10
 91
        8
  2
Thumbnail_Data
280
    15
 91
        0
101
ACDSRECORD
 95
        0
 90
        1
  2
AcDbDs::TreatedAsObjectData
280
     1
291
     1
101
ACDSRECORD
 95
        0
 90
        2
  2
AcDbDs::Legacy
280
     1
291
     1
101
ACDSRECORD
  1
AcDbDs::ID
 90
        3
  2
AcDs:Indexable
280
     1
291
     1
101
ACDSRECORD
  1
AcDbDs::ID
 90
        4
  2
AcDbDs::HandleAttribute
280
     7
282
     1
  0
ACDSSCHEMA
 90
        1
  1
AcDbDs::TreatedAsObjectDataSchema
  2
AcDbDs::TreatedAsObjectData
280
     1
 91
        0
  0
ACDSSCHEMA
 90
        2
  1
AcDbDs::LegacySchema
  2
AcDbDs::Legacy
280
     1
 91
        0
  0
ACDSSCHEMA
 90
        3
  1
AcDbDs::IndexedPropertySchema
  2
AcDs:Indexable
280
     1
 91
        0
  0
ACDSSCHEMA
 90
        4
  1
AcDbDs::HandleAttributeSchema
  2
AcDbDs::HandleAttribute
280
     7
 91
        1
284
     1
  0
ACDSRECORD
 90
        0
  2
AcDbDs::ID
280
    10
320
760
  2
Thumbnail_Data
280
    15
 94
     2244
310
89504E470D0A1A0A0000000D4948445200000100000000890803000000F46416F000000300504C5445000000000000C8C8C80000000000000000000000000000000000000000000000000000330000660000990000CC0000FF0033000033330033660033990033CC0033FF0066000066330066660066990066CC0066FF0099
310
000099330099660099990099CC0099FF00CC0000CC3300CC6600CC9900CCCC00CCFF00FF0000FF3300FF6600FF9900FFCC00FFFF3300003300333300663300993300CC3300FF3333003333333333663333993333CC3333FF3366003366333366663366993366CC3366FF3399003399333399663399993399CC3399FF33CC00
310
33CC3333CC6633CC9933CCCC33CCFF33FF0033FF3333FF6633FF9933FFCC33FFFF6600006600336600666600996600CC6600FF6633006633336633666633996633CC6633FF6666006666336666666666996666CC6666FF6699006699336699666699996699CC6699FF66CC0066CC3366CC6666CC9966CCCC66CCFF66FF0066
310
FF3366FF6666FF9966FFCC66FFFF9900009900339900669900999900CC9900FF9933009933339933669933999933CC9933FF9966009966339966669966999966CC9966FF9999009999339999669999999999CC9999FF99CC0099CC3399CC6699CC9999CCCC99CCFF99FF0099FF3399FF6699FF9999FFCC99FFFFCC0000CC00
310
33CC0066CC0099CC00CCCC00FFCC3300CC3333CC3366CC3399CC33CCCC33FFCC6600CC6633CC6666CC6699CC66CCCC66FFCC9900CC9933CC9966CC9999CC99CCCC99FFCCCC00CCCC33CCCC66CCCC99CCCCCCCCCCFFCCFF00CCFF33CCFF66CCFF99CCFFCCCCFFFFFF0000FF0033FF0066FF0099FF00CCFF00FFFF3300FF3333
310
FF3366FF3399FF33CCFF33FFFF6600FF6633FF6666FF6699FF66CCFF66FFFF9900FF9933FF9966FF9999FF99CCFF99FFFFCC00FFCC33FFCC66FFCC99FFCCCCFFCCFFFFFF00FFFF33FFFF66FFFF99FFFFCCFFFFFF0000000D0D0D1A1A1A2828283535354343435050505D5D5D6B6B6B787878868686939393A1A1A1AEAEAEBB
310
BBBBC9C9C9D6D6D6E4E4E4F1F1F1FFFFFF00000000000000000000000000000000000000000000000000000000000008F1915C0000056B4944415478DAED9D5B7A1B210C85B583EE7FA1E73D6D6D0FBA21C0197BC400FD9226B6E3CC7F4608495C42B4DB3C0DB2AD87AF1F588CBF4392C5F89732020C3EBE0558847F0BB005
310
583506D8022C1609C045FDFBD84A3E404BF0FFFBB59C60C9808EAFD61B055422B887C12DC0BD86F53504F8873F28C19D04288E7CE887708F8280E0C0A0CD607A01DC5066E0C730B70078AFAA17DB0CA6C6EF90403E3DAF001126FA3C86FF5A4C8F5F7F1A3D5D7E0A017AFAB9BDD77DC31E26B8FB5DB3582AE1EFAE00213FFE
310
F3A3A39B94E1AE3FF0C324F8231204F8984A8017FAAB87770DF988F0A78A04253E3A1320549126CB05D4DD7F7C37EA0ADE718A59F10F37D0D90F9A7D3FB30055FC917E00950ACE2340FDEEF7BB02FEAAC7FFD3087024EE1EFEA804BC7A3287008C19E4E117093A2DA9C989D9F0F9B7BF2A0464130023F803FD6012014CD027
310
3C3F2C7E773F9842001FBF3842F7EEF7C545348113E4F8D48B4F2329526A01143EAAF8BA2FF47BC3CC81101FF64D1480BA1AD220FA3C6C4201AA8EDFC147E5EE8FF483640204F8D48BDF27416426981D9F9A5962EC0571393E79F8EA13B437242F32087B7F2A015CFCBAE743254CD4819153F063ABC09046800FE0BB56A00A
310
89590418C0C700BE299C1AD34F22C0E1C160D4A878BECEC048550D6D12904580C71C8EC1872C8090FDD62B16197178FEF8FC7D482540B93EF20B3E169FD93E1A61E2F151C8920980C73F7C0CFFE1F75D01326C1A7AD27366835FF37CBDF885F921C39FA402BC5C415CF081CD914C884466E288AF024E65012264297733C2AF
310
D607FC3091B8D983C44CD9F5536338B6AE3E7B2AEA096E235088F0791F60A3012EB700B64E9D45B0313EDEC067021CA1515038F9BA00647A40888F089F2AE5611E0CB15F70AD0062AE8ECD7511C129F7995A59A53AE4AF070078B50DE1DE107C9F5F0E77B2CEDD878F109FC7C17CC5C8C502404BC0BCA10A7D427C6AE27327
310
40CDB5D5F8E610A025787A69190E28FC9AE78B16C3A0CC8B3697967FD5021C2BE06B3F0C3E858E1FCD9C93E15F5E1485579A84E8098411FC1EB991675E00E2C6780A78DEF04D7C32F85904A04A3F10A141BD00426FE32798194224C16B8247A489F58AC7387E8AA931C45640C5E39F8F9F646E90056814B80231E49F839F66
310
72B4E50A40364D1CC4AF24BF59E606DBAEE0B081717C04ABC5F34C8E365D41C9E3CFC3CFB53E8047674E3FE0F9F21BF8A31B24AF981B0C8CE075DF992B4047D487F66ED23C5383A1047003A3F71C7F2D474EC0AF8744EB0D79A1E4147CF705D79EA0C22FBBE60DE3434EC6F0CD8B2E3F40465C3A4CFDFCE506CEC3E77D2CC7
310
718AD57EC00B5F91E347927B79D290E80446845BE39B7EE014CDEE8DAFFB810E8CBC8D8E37C38F87442380AC06DEE720B0C015AC806FFA815FC8B8317E20012A9EEF8E074009389878F16E9E2F1C1221ABD96BE0BBFD004BE13B1260317CEB0A96C31746005E1159E9207426C18AF8BA5AB2203E995170C5A637C02F290156
310
C6A7B5EFFE6EBBEDB6DB6EBBEDB6DB6EBBEDB6DBEF732AF699E2F511F1D2F2132F4615BBBC93134B55406D88A6B221B2FA3E7C7E056C6108B18D099E109FFFD333504283EF7001D45D40D9072A368242BD857E1F7E8256795A908BEB5197F749051A02008E000713D88EE08600651F3598E117EDD4974A0E7CA50B944B7A7E
310
66ABE54B47782D992B96CC05E02F65EF73A8056B015C005D7EFE9E00F211B1C5959C4B81C0B1174C0E19CA7A3BE1038431D8ABC3B705D0FB7BA500B0D6CD6BA5B5F7216E109E3720570050ED991305D06B9FBC73D220F77E5AC740F6D479B5A908506748C008E01B006EF827E8F48ACCDA666A008B17E277DB6DE702C97201
310
B66D68D95CA06CAA5E3217E02BA556CC0538D6A2B98036ECC5720198F330D6CB0588EC11793B17D8B9409EF6033A172B1323C03D9D0000000049454E44AE4260829079ADB4B9ADD2DA0000000049454E44AE426082
  0
ENDSEC
  0
EOF
