  0
SECTION
  2
HEADER
  9
$ACADVER
  1
AC1027
  9
$ACADMAINTVER
 70
    55
  9
$DWGCODEPAGE
  3
ANSI_932
  9
$LASTSAVEDBY
  1
User
  9
$REQUIREDVERSIONS
160
                 0
  9
$INSBASE
 10
0.0000094929055194
 20
-0.0000021391570044
 30
0.0
  9
$EXTMIN
 10
1919.988245633534
 20
-114.7018782556042
 30
-0.0000000000004732
  9
$EXTMAX
 10
2212.239440497382
 20
450.9727559836246
 30
0.0000000000025477
  9
$LIMMIN
 10
0.0000094929055194
 20
0.0
  9
$LIMMAX
 10
408.1800094929055
 20
285.2399978608428
  9
$ORTHOMODE
 70
     1
  9
$REGENMODE
 70
     1
  9
$FILLMODE
 70
     1
  9
$QTEXTMODE
 70
     0
  9
$MIRRTEXT
 70
     1
  9
$LTSCALE
 40
8.0
  9
$ATTMODE
 70
     1
  9
$TEXTSIZE
 40
24.0
  9
$TRACEWID
 40
1.0
  9
$TEXTSTYLE
  7
STANDARD
  9
$CLAYER
  8
99：枠線
  9
$CELTYPE
  6
BYLAYER
  9
$CECOLOR
 62
   256
  9
$CELTSCALE
 40
1.0
  9
$DISPSILH
 70
     0
  9
$DIMSCALE
 40
8.0
  9
$DIMASZ
 40
2.5
  9
$DIMEXO
 40
1.25
  9
$DIMDLI
 40
7.0
  9
$DIMRND
 40
0.0
  9
$DIMDLE
 40
0.0
  9
$DIMEXE
 40
1.0
  9
$DIMTP
 40
0.0
  9
$DIMTM
 40
0.0
  9
$DIMTXT
 40
3.5
  9
$DIMCEN
 40
0.0
  9
$DIMTSZ
 40
0.0
  9
$DIMTOL
 70
     0
  9
$DIMLIM
 70
     0
  9
$DIMTIH
 70
     0
  9
$DIMTOH
 70
     0
  9
$DIMSE1
 70
     0
  9
$DIMSE2
 70
     0
  9
$DIMTAD
 70
     3
  9
$DIMZIN
 70
     8
  9
$DIMBLK
  1

  9
$DIMASO
 70
     1
  9
$DIMSHO
 70
     1
  9
$DIMPOST
  1

  9
$DIMAPOST
  1

  9
$DIMALT
 70
     0
  9
$DIMALTD
 70
     2
  9
$DIMALTF
 40
25.4
  9
$DIMLFAC
 40
1.0
  9
$DIMTOFL
 70
     1
  9
$DIMTVP
 40
0.0
  9
$DIMTIX
 70
     0
  9
$DIMSOXD
 70
     0
  9
$DIMSAH
 70
     1
  9
$DIMBLK1
  1
OPEN
  9
$DIMBLK2
  1
OPEN
  9
$DIMSTYLE
  2
×1
  9
$DIMCLRD
 70
     1
  9
$DIMCLRE
 70
     1
  9
$DIMCLRT
 70
     2
  9
$DIMTFAC
 40
1.0
  9
$DIMGAP
 40
1.0
  9
$DIMJUST
 70
     0
  9
$DIMSD1
 70
     0
  9
$DIMSD2
 70
     0
  9
$DIMTOLJ
 70
     1
  9
$DIMTZIN
 70
     0
  9
$DIMALTZ
 70
     0
  9
$DIMALTTZ
 70
     0
  9
$DIMUPT
 70
     0
  9
$DIMDEC
 70
     2
  9
$DIMTDEC
 70
     2
  9
$DIMALTU
 70
     2
  9
$DIMALTTD
 70
     2
  9
$DIMTXSTY
  7
STANDARD
  9
$DIMAUNIT
 70
     0
  9
$DIMADEC
 70
     2
  9
$DIMALTRND
 40
0.0
  9
$DIMAZIN
 70
     2
  9
$DIMDSEP
 70
    46
  9
$DIMATFIT
 70
     3
  9
$DIMFRAC
 70
     0
  9
$DIMLDRBLK
  1
OPEN
  9
$DIMLUNIT
 70
     2
  9
$DIMLWD
 70
    -2
  9
$DIMLWE
 70
    -2
  9
$DIMTMOVE
 70
     0
  9
$DIMFXL
 40
1.0
  9
$DIMFXLON
 70
     0
  9
$DIMJOGANG
 40
0.7853981633974483
  9
$DIMTFILL
 70
     0
  9
$DIMTFILLCLR
 70
     0
  9
$DIMARCSYM
 70
     1
  9
$DIMLTYPE
  6

  9
$DIMLTEX1
  6

  9
$DIMLTEX2
  6

  9
$DIMTXTDIRECTION
 70
     0
  9
$LUNITS
 70
     2
  9
$LUPREC
 70
     4
  9
$SKETCHINC
 40
1.0
  9
$FILLETRAD
 40
0.5
  9
$AUNITS
 70
     0
  9
$AUPREC
 70
     0
  9
$MENU
  1
acad
  9
$ELEVATION
 40
0.0
  9
$PELEVATION
 40
0.0
  9
$THICKNESS
 40
0.0
  9
$LIMCHECK
 70
     0
  9
$CHAMFERA
 40
10.0
  9
$CHAMFERB
 40
10.0
  9
$CHAMFERC
 40
20.0
  9
$CHAMFERD
 40
0.0
  9
$SKPOLY
 70
     0
  9
$TDCREATE
 40
2458885.666712153
  9
$TDUCREATE
 40
2458885.291712153
  9
$TDUPDATE
 40
2459248.694860336
  9
$TDUUPDATE
 40
2459248.319860336
  9
$TDINDWG
 40
0.5424559028
  9
$TDUSRTIMER
 40
0.5424556713
  9
$USRTIMER
 70
     1
  9
$ANGBASE
 50
0.0
  9
$ANGDIR
 70
     0
  9
$PDMODE
 70
     0
  9
$PDSIZE
 40
0.0
  9
$PLINEWID
 40
0.0
  9
$SPLFRAME
 70
     0
  9
$SPLINETYPE
 70
     6
  9
$SPLINESEGS
 70
     8
  9
$HANDSEED
  5
6E8C
  9
$SURFTAB1
 70
     6
  9
$SURFTAB2
 70
     6
  9
$SURFTYPE
 70
     6
  9
$SURFU
 70
     6
  9
$SURFV
 70
     6
  9
$UCSBASE
  2

  9
$UCSNAME
  2

  9
$UCSORG
 10
0.0
 20
0.0
 30
0.0
  9
$UCSXDIR
 10
1.0
 20
0.0
 30
0.0
  9
$UCSYDIR
 10
0.0
 20
1.0
 30
0.0
  9
$UCSORTHOREF
  2

  9
$UCSORTHOVIEW
 70
     0
  9
$UCSORGTOP
 10
0.0
 20
0.0
 30
0.0
  9
$UCSORGBOTTOM
 10
0.0
 20
0.0
 30
0.0
  9
$UCSORGLEFT
 10
0.0
 20
0.0
 30
0.0
  9
$UCSORGRIGHT
 10
0.0
 20
0.0
 30
0.0
  9
$UCSORGFRONT
 10
0.0
 20
0.0
 30
0.0
  9
$UCSORGBACK
 10
0.0
 20
0.0
 30
0.0
  9
$PUCSBASE
  2

  9
$PUCSNAME
  2

  9
$PUCSORG
 10
0.0
 20
0.0
 30
0.0
  9
$PUCSXDIR
 10
1.0
 20
0.0
 30
0.0
  9
$PUCSYDIR
 10
0.0
 20
1.0
 30
0.0
  9
$PUCSORTHOREF
  2

  9
$PUCSORTHOVIEW
 70
     0
  9
$PUCSORGTOP
 10
0.0
 20
0.0
 30
0.0
  9
$PUCSORGBOTTOM
 10
0.0
 20
0.0
 30
0.0
  9
$PUCSORGLEFT
 10
0.0
 20
0.0
 30
0.0
  9
$PUCSORGRIGHT
 10
0.0
 20
0.0
 30
0.0
  9
$PUCSORGFRONT
 10
0.0
 20
0.0
 30
0.0
  9
$PUCSORGBACK
 10
0.0
 20
0.0
 30
0.0
  9
$USERI1
 70
     0
  9
$USERI2
 70
     0
  9
$USERI3
 70
     0
  9
$USERI4
 70
     0
  9
$USERI5
 70
     0
  9
$USERR1
 40
0.0
  9
$USERR2
 40
0.0
  9
$USERR3
 40
0.0
  9
$USERR4
 40
0.0
  9
$USERR5
 40
0.0
  9
$WORLDVIEW
 70
     1
  9
$SHADEDGE
 70
     3
  9
$SHADEDIF
 70
    70
  9
$TILEMODE
 70
     1
  9
$MAXACTVP
 70
    48
  9
$PINSBASE
 10
0.0
 20
0.0
 30
0.0
  9
$PLIMCHECK
 70
     0
  9
$PEXTMIN
 10
1.000000000000000E+20
 20
1.000000000000000E+20
 30
1.000000000000000E+20
  9
$PEXTMAX
 10
-1.000000000000000E+20
 20
-1.000000000000000E+20
 30
-1.000000000000000E+20
  9
$PLIMMIN
 10
0.0
 20
0.0
  9
$PLIMMAX
 10
420.0
 20
297.0
  9
$UNITMODE
 70
     0
  9
$VISRETAIN
 70
     1
  9
$PLINEGEN
 70
     0
  9
$PSLTSCALE
 70
     1
  9
$TREEDEPTH
 70
  3020
  9
$CMLSTYLE
  2
STANDARD
  9
$CMLJUST
 70
     0
  9
$CMLSCALE
 40
20.0
  9
$PROXYGRAPHICS
 70
     1
  9
$MEASUREMENT
 70
     1
  9
$CELWEIGHT
370
    -1
  9
$ENDCAPS
280
     0
  9
$JOINSTYLE
280
     0
  9
$LWDISPLAY
290
     0
  9
$INSUNITS
 70
     0
  9
$HYPERLINKBASE
  1

  9
$STYLESHEET
  1
TAGAI1.CTB
  9
$XEDIT
290
     1
  9
$CEPSNTYPE
380
     0
  9
$PSTYLEMODE
290
     1
  9
$FINGERPRINTGUID
  2
{3129081E-827B-4A98-8CC4-B14B2F8DB633}
  9
$VERSIONGUID
  2
{B26E84BA-13B0-44C5-A95F-22C1334CCC6D}
  9
$EXTNAMES
290
     1
  9
$PSVPSCALE
 40
0.0
  9
$OLESTARTUP
290
     0
  9
$SORTENTS
280
   127
  9
$INDEXCTL
280
     0
  9
$HIDETEXT
280
     0
  9
$XCLIPFRAME
280
     2
  9
$HALOGAP
280
     0
  9
$OBSCOLOR
 70
   257
  9
$OBSLTYPE
280
     0
  9
$INTERSECTIONDISPLAY
280
     0
  9
$INTERSECTIONCOLOR
 70
   257
  9
$DIMASSOC
280
     1
  9
$PROJECTNAME
  1

  9
$CAMERADISPLAY
290
     0
  9
$LENSLENGTH
 40
50.0
  9
$CAMERAHEIGHT
 40
0.0
  9
$STEPSPERSEC
 40
2.0
  9
$STEPSIZE
 40
6.0
  9
$3DDWFPREC
 40
2.0
  9
$PSOLWIDTH
 40
0.25
  9
$PSOLHEIGHT
 40
4.0
  9
$LOFTANG1
 40
1.570796326794896
  9
$LOFTANG2
 40
1.570796326794896
  9
$LOFTMAG1
 40
0.0
  9
$LOFTMAG2
 40
0.0
  9
$LOFTPARAM
 70
     7
  9
$LOFTNORMALS
280
     1
  9
$LATITUDE
 40
37.795
  9
$LONGITUDE
 40
-122.394
  9
$NORTHDIRECTION
 40
0.0
  9
$TIMEZONE
 70
 -8000
  9
$LIGHTGLYPHDISPLAY
280
     1
  9
$TILEMODELIGHTSYNCH
280
     1
  9
$CMATERIAL
347
287D
  9
$SOLIDHIST
280
     0
  9
$SHOWHIST
280
     1
  9
$DWFFRAME
280
     2
  9
$DGNFRAME
280
     0
  9
$REALWORLDSCALE
290
     1
  9
$INTERFERECOLOR
 62
     1
  9
$INTERFEREOBJVS
345
289F
  9
$INTERFEREVPVS
346
289C
  9
$CSHADOW
280
     0
  9
$SHADOWPLANELOCATION
 40
0.0
  0
ENDSEC
  0
SECTION
  2
CLASSES
  0
CLASS
  1
DICTIONARYVAR
  2
AcDbDictionaryVar
  3
ObjectDBX Classes
 90
        0
 91
       13
280
     0
281
     0
  0
CLASS
  1
ACDBDICTIONARYWDFLT
  2
AcDbDictionaryWithDefault
  3
ObjectDBX Classes
 90
        0
 91
        1
280
     0
281
     0
  0
CLASS
  1
MATERIAL
  2
AcDbMaterial
  3
ObjectDBX Classes
 90
     1153
 91
        3
280
     0
281
     0
  0
CLASS
  1
VISUALSTYLE
  2
AcDbVisualStyle
  3
ObjectDBX Classes
 90
     4095
 91
       24
280
     0
281
     0
  0
CLASS
  1
TABLESTYLE
  2
AcDbTableStyle
  3
ObjectDBX Classes
 90
     4095
 91
        2
280
     0
281
     0
  0
CLASS
  1
SCALE
  2
AcDbScale
  3
ObjectDBX Classes
 90
     1153
 91
       17
280
     0
281
     0
  0
CLASS
  1
MLEADERSTYLE
  2
AcDbMLeaderStyle
  3
ACDB_MLEADERSTYLE_CLASS
 90
     4095
 91
        1
280
     0
281
     0
  0
CLASS
  1
ACDBSECTIONVIEWSTYLE
  2
AcDbSectionViewStyle
  3
ObjectDBX Classes
 90
     1025
 91
        2
280
     0
281
     0
  0
CLASS
  1
ACDBDETAILVIEWSTYLE
  2
AcDbDetailViewStyle
  3
ObjectDBX Classes
 90
     1025
 91
        2
280
     0
281
     0
  0
CLASS
  1
ACAD_EVALUATION_GRAPH
  2
AcDbEvalGraph
  3
ObjectDBX Classes
 90
     1153
 91
        0
280
     0
281
     0
  0
CLASS
  1
ACAECUSTOBJ
  2
AcAeEditorObj
  3
AcAeEditorObj
 90
     1024
 91
        0
280
     0
281
     0
  0
CLASS
  1
SORTENTSTABLE
  2
AcDbSortentsTable
  3
ObjectDBX Classes
 90
        0
 91
        3
280
     0
281
     0
  0
CLASS
  1
ACDB_DYNAMICBLOCKPURGEPREVENTER_VERSION
  2
AcDbDynamicBlockPurgePreventer
  3
ObjectDBX Classes
 90
     1153
 91
        0
280
     0
281
     0
  0
CLASS
  1
CELLSTYLEMAP
  2
AcDbCellStyleMap
  3
ObjectDBX Classes
 90
     1152
 91
        4
280
     0
281
     0
  0
CLASS
  1
ACDBASSOCACTION
  2
AcDbAssocAction
  3
ObjectDBX Classes
 90
     1025
 91
        0
280
     0
281
     0
  0
CLASS
  1
ACDBASSOCARRAYACTIONBODY
  2
AcDbAssocArrayActionBody
  3
ObjectDBX Classes
 90
     1025
 91
        0
280
     0
281
     0
  0
CLASS
  1
ACDBASSOCDEPENDENCY
  2
AcDbAssocDependency
  3
ObjectDBX Classes
 90
     1025
 91
        0
280
     0
281
     0
  0
CLASS
  1
ACDBASSOCVERTEXACTIONPARAM
  2
AcDbAssocVertexActionParam
  3
ObjectDBX Classes
 90
     1025
 91
        0
280
     0
281
     0
  0
CLASS
  1
ACDBASSOCARRAYPOLARPARAMETERS
  2
AcDbAssocArrayPolarParameters
  3
ObjectDBX Classes
 90
     1025
 91
        0
280
     0
281
     0
  0
CLASS
  1
ACDBASSOCNETWORK
  2
AcDbAssocNetwork
  3
ObjectDBX Classes
 90
     1025
 91
        0
280
     0
281
     0
  0
CLASS
  1
ACARRAYJIGENTITY
  2
AcArrayJigEntity
  3
ACAD_ARRAY
 90
      129
 91
        0
280
     0
281
     1
  0
CLASS
  1
ACAD_TABLE
  2
AcDbTable
  3
ObjectDBX Classes
 90
     1025
 91
        2
280
     0
281
     1
  0
CLASS
  1
TABLECONTENT
  2
AcDbTableContent
  3
ObjectDBX Classes
 90
     1152
 91
        2
280
     0
281
     0
  0
CLASS
  1
TABLEGEOMETRY
  2
AcDbTableGeometry
  3
ObjectDBX Classes
 90
     1152
 91
        2
280
     0
281
     0
  0
CLASS
  1
DATATABLE
  2
AcDbDataTable
  3
ObjectDBX Classes
 90
        0
 91
        0
280
     0
281
     0
  0
ENDSEC
  0
SECTION
  2
TABLES
  0
TABLE
  2
VPORT
  5
8
102
{ACAD_XDICTIONARY
360
2AC1
102
}
330
0
100
AcDbSymbolTable
 70
     1
  0
VPORT
  5
287A
330
8
100
AcDbSymbolTableRecord
100
AcDbViewportTableRecord
  2
*Active
 70
     0
 10
0.0
 20
0.0
 11
1.0
 21
1.0
 12
2066.113843065458
 22
168.1354388640102
 13
0.0
 23
0.0
 14
10.0
 24
10.0
 15
10.0
 25
10.0
 16
0.0
 26
0.0
 36
1.0
 17
0.0
 27
0.0
 37
0.0
 40
569.9331634806785
 41
1.865577889447235
 42
50.0
 43
0.0
 44
0.0
 50
0.0
 51
0.0
 71
     0
 72
   100
 73
     1
 74
     1
 75
     0
 76
     0
 77
     0
 78
     0
281
     0
 65
     1
110
0.0
120
0.0
130
0.0
111
1.0
121
0.0
131
0.0
112
0.0
122
1.0
132
0.0
 79
     0
146
0.0
348
289B
 60
     3
 61
     5
292
     1
282
     1
141
0.0
142
0.0
 63
   250
421
  3355443
1001
ACAD_NAV_VCDISPLAY
1070
     3
  0
ENDTAB
  0
TABLE
  2
LTYPE
  5
5
330
0
100
AcDbSymbolTable
 70
     6
  0
LTYPE
  5
12
330
5
100
AcDbSymbolTableRecord
100
AcDbLinetypeTableRecord
  2
BYBLOCK
 70
     0
  3

 72
    65
 73
     0
 40
0.0
  0
LTYPE
  5
13
330
5
100
AcDbSymbolTableRecord
100
AcDbLinetypeTableRecord
  2
BYLAYER
 70
     0
  3

 72
    65
 73
     0
 40
0.0
  0
LTYPE
  5
14
330
5
100
AcDbSymbolTableRecord
100
AcDbLinetypeTableRecord
  2
CONTINUOUS
 70
     0
  3
Solid line
 72
    65
 73
     0
 40
0.0
  0
LTYPE
  5
326
330
5
100
AcDbSymbolTableRecord
100
AcDbLinetypeTableRecord
  2
HIDDEN
 70
     0
  3
Hidden __ __ __ __ __ __ __ __ __ __ __ __ __ _
 72
    65
 73
     2
 40
9.524999999999996
 49
6.349999999999998
 74
     0
 49
-3.174999999999998
 74
     0
  0
LTYPE
  5
328
330
5
100
AcDbSymbolTableRecord
100
AcDbLinetypeTableRecord
  2
PHANTOM
 70
     0
  3
Phantom ______  __  __  ______  __  __  ______
 72
    65
 73
     6
 40
2.5
 49
1.25
 74
     0
 49
-0.25
 74
     0
 49
0.25
 74
     0
 49
-0.25
 74
     0
 49
0.25
 74
     0
 49
-0.25
 74
     0
  0
LTYPE
  5
2949
330
5
100
AcDbSymbolTableRecord
100
AcDbLinetypeTableRecord
  2
GEN7
 70
     0
  3
____ . ____ . ____ . ____ . ____ . ____ . ____
 72
    65
 73
     4
 40
13.75
 49
9.75
 74
     0
 49
-1.5
 74
     0
 49
1.0
 74
     0
 49
-1.5
 74
     0
  0
ENDTAB
  0
TABLE
  2
LAYER
  5
2
102
{ACAD_XDICTIONARY
360
28D1
102
}
330
0
100
AcDbSymbolTable
 70
    18
  0
LAYER
  5
E
102
{ACAD_XDICTIONARY
360
2AA5
102
}
330
2
100
AcDbSymbolTableRecord
100
AcDbLayerTableRecord
  2
0
 70
     0
 62
     7
  6
CONTINUOUS
370
    -3
390
75D
347
288D
348
0
  0
LAYER
  5
32B
102
{ACAD_XDICTIONARY
360
2B09
102
}
330
2
100
AcDbSymbolTableRecord
100
AcDbLayerTableRecord
  2
DEFPOINTS
 70
     0
 62
     7
  6
CONTINUOUS
290
     0
370
    -3
390
75D
347
288D
348
0
  0
LAYER
  5
294A
102
{ACAD_XDICTIONARY
360
294B
102
}
330
2
100
AcDbSymbolTableRecord
100
AcDbLayerTableRecord
  2
99：枠線
 70
     0
 62
     7
  6
CONTINUOUS
370
    -3
390
75D
347
288D
348
0
  0
LAYER
  5
294C
102
{ACAD_XDICTIONARY
360
294D
102
}
330
2
100
AcDbSymbolTableRecord
100
AcDbLayerTableRecord
  2
3：中心線
 70
     0
 62
     4
  6
GEN7
370
    -3
390
75D
347
288D
348
0
  0
LAYER
  5
294E
102
{ACAD_XDICTIONARY
360
294F
102
}
330
2
100
AcDbSymbolTableRecord
100
AcDbLayerTableRecord
  2
9：寸法線
 70
     0
 62
     3
  6
CONTINUOUS
370
    -3
390
75D
347
288D
348
0
  0
LAYER
  5
2950
102
{ACAD_XDICTIONARY
360
2951
102
}
330
2
100
AcDbSymbolTableRecord
100
AcDbLayerTableRecord
  2
99：Defpoint
 70
     0
 62
    11
  6
CONTINUOUS
290
     0
370
    -3
390
75D
347
288D
348
0
  0
LAYER
  5
2952
102
{ACAD_XDICTIONARY
360
2953
102
}
330
2
100
AcDbSymbolTableRecord
100
AcDbLayerTableRecord
  2
2：副線
 70
     0
 62
     5
  6
CONTINUOUS
370
    -3
390
75D
347
288D
348
0
  0
LAYER
  5
2954
102
{ACAD_XDICTIONARY
360
2955
102
}
330
2
100
AcDbSymbolTableRecord
100
AcDbLayerTableRecord
  2
7：文字
 70
     0
 62
     2
  6
CONTINUOUS
370
    -3
390
75D
347
288D
348
0
  0
LAYER
  5
2956
102
{ACAD_XDICTIONARY
360
2957
102
}
330
2
100
AcDbSymbolTableRecord
100
AcDbLayerTableRecord
  2
4：隠線
 70
     0
 62
     2
  6
HIDDEN
370
    -3
390
75D
347
288D
348
0
  0
LAYER
  5
2958
102
{ACAD_XDICTIONARY
360
2959
102
}
330
2
100
AcDbSymbolTableRecord
100
AcDbLayerTableRecord
  2
6：部品線
 70
     0
 62
     3
  6
CONTINUOUS
370
    -3
390
75D
347
288D
348
0
  0
LAYER
  5
295A
102
{ACAD_XDICTIONARY
360
295B
102
}
330
2
100
AcDbSymbolTableRecord
100
AcDbLayerTableRecord
  2
5：想像線
 70
     0
 62
     6
  6
PHANTOM
370
    -3
390
75D
347
288D
348
0
  0
LAYER
  5
295C
102
{ACAD_XDICTIONARY
360
295D
102
}
330
2
100
AcDbSymbolTableRecord
100
AcDbLayerTableRecord
  2
8：ﾊｯﾁﾝｸﾞ線
 70
     0
 62
     1
  6
CONTINUOUS
370
    -3
390
75D
347
288D
348
0
  0
LAYER
  5
295E
102
{ACAD_XDICTIONARY
360
295F
102
}
330
2
100
AcDbSymbolTableRecord
100
AcDbLayerTableRecord
  2
1：主線
 70
     0
 62
     7
  6
CONTINUOUS
370
    -3
390
75D
347
288D
348
0
  0
LAYER
  5
2960
102
{ACAD_XDICTIONARY
360
2961
102
}
330
2
100
AcDbSymbolTableRecord
100
AcDbLayerTableRecord
  2
99：構築線
 70
     0
 62
   251
  6
CONTINUOUS
370
    -3
390
75D
347
288D
348
0
1001
AcAecLayerStandard
1000

1000

1001
AcCmTransparency
1071
        0
  0
LAYER
  5
4AE3
102
{ACAD_XDICTIONARY
360
4AE4
102
}
330
2
100
AcDbSymbolTableRecord
100
AcDbLayerTableRecord
  2
IMAGINE
 70
     0
 62
     6
  6
PHANTOM
370
    -3
390
75D
347
288D
348
0
  0
LAYER
  5
4AE5
102
{ACAD_XDICTIONARY
360
4AE6
102
}
330
2
100
AcDbSymbolTableRecord
100
AcDbLayerTableRecord
  2
OBJECT1
 70
     0
 62
     7
  6
CONTINUOUS
370
    -3
390
75D
347
288D
348
0
  0
LAYER
  5
4DE4
330
2
100
AcDbSymbolTableRecord
100
AcDbLayerTableRecord
  2
可視
 70
     0
 62
     7
  6
CONTINUOUS
370
    50
390
75D
347
288D
348
0
  0
LAYER
  5
4DE5
330
2
100
AcDbSymbolTableRecord
100
AcDbLayerTableRecord
  2
細線
 70
     0
 62
     7
  6
CONTINUOUS
370
    35
390
75D
347
288D
348
0
  0
ENDTAB
  0
TABLE
  2
STYLE
  5
3
330
0
100
AcDbSymbolTable
 70
     3
  0
STYLE
  5
F
330
3
100
AcDbSymbolTableRecord
100
AcDbTextStyleTableRecord
  2
STANDARD
 70
     0
 40
24.0
 41
1.0
 50
0.0
 71
     0
 42
24.0
  3
isocp.shx
  4
bigfont.shx
  0
STYLE
  5
333
330
3
100
AcDbSymbolTableRecord
100
AcDbTextStyleTableRecord
  2
JX_FONT
 70
     0
 40
1.0
 41
1.0
 50
0.0
 71
     0
 42
1.0
  3
monotxt
  4
bigfont
  0
STYLE
  5
4D26
330
3
100
AcDbSymbolTableRecord
100
AcDbTextStyleTableRecord
  2
スタイル1
 70
     0
 40
10.0
 41
1.0
 50
0.0
 71
     0
 42
10.0
  3
isocp.shx
  4
bigfont.shx
  0
ENDTAB
  0
TABLE
  2
VIEW
  5
6
330
0
100
AcDbSymbolTable
 70
     0
  0
ENDTAB
  0
TABLE
  2
UCS
  5
7
330
0
100
AcDbSymbolTable
 70
     0
  0
ENDTAB
  0
TABLE
  2
APPID
  5
9
330
0
100
AcDbSymbolTable
 70
    22
  0
APPID
  5
10
330
9
100
AcDbSymbolTableRecord
100
AcDbRegAppTableRecord
  2
ACAD
 70
     0
  0
APPID
  5
24
330
9
100
AcDbSymbolTableRecord
100
AcDbRegAppTableRecord
  2
CONTENTTABDATA
 70
     0
  0
APPID
  5
25
330
9
100
AcDbSymbolTableRecord
100
AcDbRegAppTableRecord
  2
CONTENTCURRENTTAB
 70
     0
  0
APPID
  5
28D7
330
9
100
AcDbSymbolTableRecord
100
AcDbRegAppTableRecord
  2
ACAD_NAV_VCDISPLAY
 70
     0
  0
APPID
  5
2945
330
9
100
AcDbSymbolTableRecord
100
AcDbRegAppTableRecord
  2
ACAUTHENVIRON
 70
     0
  0
APPID
  5
2963
330
9
100
AcDbSymbolTableRecord
100
AcDbRegAppTableRecord
  2
ACAD_PSEXT
 70
     0
  0
APPID
  5
2964
330
9
100
AcDbSymbolTableRecord
100
AcDbRegAppTableRecord
  2
ACAD_DSTYLE_DIMJAG
 70
     0
  0
APPID
  5
2965
330
9
100
AcDbSymbolTableRecord
100
AcDbRegAppTableRecord
  2
ACAD_DSTYLE_DIMTALN
 70
     0
  0
APPID
  5
2966
330
9
100
AcDbSymbolTableRecord
100
AcDbRegAppTableRecord
  2
AcAecLayerStandard
 70
     0
  0
APPID
  5
2967
330
9
100
AcDbSymbolTableRecord
100
AcDbRegAppTableRecord
  2
AcCmTransparency
 70
     0
  0
APPID
  5
298A
330
9
100
AcDbSymbolTableRecord
100
AcDbRegAppTableRecord
  2
AcDbDynamicBlockTrueName
 70
     0
  0
APPID
  5
298B
330
9
100
AcDbSymbolTableRecord
100
AcDbRegAppTableRecord
  2
AcDbDynamicBlockGUID
 70
     0
  0
APPID
  5
2A47
330
9
100
AcDbSymbolTableRecord
100
AcDbRegAppTableRecord
  2
ACAD_EXEMPT_FROM_CAD_STANDARDS
 70
     0
  0
APPID
  5
2AC3
330
9
100
AcDbSymbolTableRecord
100
AcDbRegAppTableRecord
  2
ACAD_DSTYLE_DIMARC_LENGTH_SYMBOL
 70
     0
  0
APPID
  5
2AFD
330
9
100
AcDbSymbolTableRecord
100
AcDbRegAppTableRecord
  2
ACAD_MLEADERVER
 70
     0
  0
APPID
  5
2C47
330
9
100
AcDbSymbolTableRecord
100
AcDbRegAppTableRecord
  2
AcadAnnoPO
 70
     0
  0
APPID
  5
2C5A
330
9
100
AcDbSymbolTableRecord
100
AcDbRegAppTableRecord
  2
ACAD_DSTYLE_DIMRADIAL_EXTENSION
 70
     0
  0
APPID
  5
2C67
330
9
100
AcDbSymbolTableRecord
100
AcDbRegAppTableRecord
  2
AcadAnnoMonitorAlertIconDisabled
 70
     0
  0
APPID
  5
369A
330
9
100
AcDbSymbolTableRecord
100
AcDbRegAppTableRecord
  2
ACAD_DSTYLE_DIMBREAK
 70
     0
  0
APPID
  5
369B
330
9
100
AcDbSymbolTableRecord
100
AcDbRegAppTableRecord
  2
ACAD_MODELDOC_XFORM
 70
     0
  0
APPID
  5
45A9
330
9
100
AcDbSymbolTableRecord
100
AcDbRegAppTableRecord
  2
GradientColor1ACI
 70
     0
  0
APPID
  5
45AA
330
9
100
AcDbSymbolTableRecord
100
AcDbRegAppTableRecord
  2
GradientColor2ACI
 70
     0
  0
ENDTAB
  0
TABLE
  2
DIMSTYLE
  5
A
330
0
100
AcDbSymbolTable
 70
     7
100
AcDbDimStyleTable
 71
     1
340
1D
  0
DIMSTYLE
105
1D
102
{ACAD_REACTORS
330
4AB5
102
}
330
A
100
AcDbSymbolTableRecord
100
AcDbDimStyleTableRecord
  2
×1
 70
     0
 40
8.0
 41
2.5
 42
1.25
 43
7.0
 44
1.0
 73
     0
 74
     0
 77
     3
 78
     8
 79
     2
 90
     1
140
3.5
141
0.0
147
1.0
172
     1
173
     1
176
     1
177
     1
178
     2
179
     2
271
     2
272
     2
340
F
341
36
343
36
344
36
1001
ACAD_DSTYLE_DIMJAG
1070
   388
1040
1.5
1001
ACAD_DSTYLE_DIMTALN
1070
   392
1070
     0
  0
DIMSTYLE
105
4D27
330
A
100
AcDbSymbolTableRecord
100
AcDbDimStyleTableRecord
  2
×1.25
 70
     0
 40
5.0
 41
2.5
 42
1.0
 43
6.0
 44
1.5
 73
     0
 74
     0
 77
     3
 78
     8
 79
     2
 90
     1
140
15.0
141
0.0
144
1.25
147
1.0
172
     1
173
     1
176
     1
177
     1
178
     1
179
     2
271
     2
272
     2
340
F
341
36
343
36
344
36
1001
ACAD_DSTYLE_DIMBREAK
1070
   391
1040
3.75
1001
ACAD_DSTYLE_DIMJAG
1070
   388
1040
1.5
1001
ACAD_DSTYLE_DIMTALN
1070
   392
1070
     0
  0
DIMSTYLE
105
4DE6
330
A
100
AcDbSymbolTableRecord
100
AcDbDimStyleTableRecord
  2
ISO-25
 70
     0
  4
in
 41
3.5
 42
2.0
 43
9.899494936611663
 44
2.0
 47
0.1
 48
0.1000000001
 73
     0
 74
     0
 77
     1
 78
    12
 79
     3
140
3.5
141
0.0
143
0.0393701
146
0.7140000000000001
147
1.5
171
     4
172
     1
176
   256
177
   256
178
   256
179
     2
271
     2
272
     2
274
     4
283
     0
284
    12
285
    12
286
    12
340
F
1001
ACAD_DSTYLE_DIMBREAK
1070
   391
1040
3.5
1001
ACAD_DSTYLE_DIMJAG
1070
   388
1040
1.5
1001
ACAD_DSTYLE_DIMTALN
1070
   392
1070
     1
  0
DIMSTYLE
105
5945
330
A
100
AcDbSymbolTableRecord
100
AcDbDimStyleTableRecord
  2
Standard
 70
     0
340
F
  0
DIMSTYLE
105
6C5B
330
A
100
AcDbSymbolTableRecord
100
AcDbDimStyleTableRecord
  2
1
 70
     0
 41
2.5
 42
1.25
 43
7.0
 44
1.25
 73
     0
 74
     0
 77
     3
 78
     8
 79
     2
 90
     1
140
3.0
141
3.0
147
1.0
172
     1
173
     1
176
     1
177
     1
178
     2
179
     2
271
     2
272
     2
340
F
341
36
343
36
344
36
1001
ACAD_DSTYLE_DIMJAG
1070
   388
1040
1.5
1001
ACAD_DSTYLE_DIMTALN
1070
   392
1070
     0
  0
DIMSTYLE
105
6E76
330
A
100
AcDbSymbolTableRecord
100
AcDbDimStyleTableRecord
  2
STANDARD++$0
 70
     0
 40
2.0
 41
2.5
 42
1.0
 43
7.0
 44
1.0
 73
     0
 74
     0
 77
     1
 78
     8
140
3.0
141
0.0
147
1.25
172
     1
176
     1
177
     1
178
     2
340
F
341
36
342
36
1001
ACAD_DSTYLE_DIMBREAK
1070
   391
1040
3.75
1001
ACAD_DSTYLE_DIMJAG
1070
   388
1040
1.5
1001
ACAD_DSTYLE_DIMTALN
1070
   392
1070
     0
  0
ENDTAB
  0
TABLE
  2
BLOCK_RECORD
  5
1
330
0
100
AcDbSymbolTable
 70
    17
  0
BLOCK_RECORD
  5
18
102
{ACAD_XDICTIONARY
360
2C42
102
}
330
1
100
AcDbSymbolTableRecord
100
AcDbBlockTableRecord
  2
*MODEL_SPACE
340
760
 70
     0
280
     1
281
     0
  0
BLOCK_RECORD
  5
15
330
1
100
AcDbSymbolTableRecord
100
AcDbBlockTableRecord
  2
*PAPER_SPACE
340
761
 70
     0
280
     1
281
     0
  0
BLOCK_RECORD
  5
36
330
1
100
AcDbSymbolTableRecord
100
AcDbBlockTableRecord
  2
_OPEN
340
0
102
{BLKREFS
331
66E7
331
66E8
331
4C8D
331
4C8E
331
4C96
331
4C97
331
4C9F
331
4CA0
331
4CA8
331
4CA9
331
4CB1
331
4CB2
331
4CBA
331
4CBB
331
4CC3
331
4CC4
331
4CCD
331
4CCE
331
4CD6
331
4CD7
102
}
 70
     0
280
     1
281
     0
  0
BLOCK_RECORD
  5
280B
102
{ACAD_XDICTIONARY
360
6BA7
102
}
330
1
100
AcDbSymbolTableRecord
100
AcDbBlockTableRecord
  2
INABA_A3N
340
0
310
2800000020000000200000000100080000000000000400000000000000000000000000000000000000000000000080000080000000808000800000008000800080800000C0C0C000C0DCC000F0CAA6000020400000206000002080000020A0000020C0000020E00000400000004020000040400000406000004080000040A0
310
000040C0000040E00000600000006020000060400000606000006080000060A0000060C0000060E00000800000008020000080400000806000008080000080A0000080C0000080E00000A0000000A0200000A0400000A0600000A0800000A0A00000A0C00000A0E00000C0000000C0200000C0400000C0600000C0800000C0
310
A00000C0C00000C0E00000E0000000E0200000E0400000E0600000E0800000E0A00000E0C00000E0E00040000000400020004000400040006000400080004000A0004000C0004000E00040200000402020004020400040206000402080004020A0004020C0004020E000404000004040200040404000404060004040800040
310
40A0004040C0004040E00040600000406020004060400040606000406080004060A0004060C0004060E00040800000408020004080400040806000408080004080A0004080C0004080E00040A0000040A0200040A0400040A0600040A0800040A0A00040A0C00040A0E00040C0000040C0200040C0400040C0600040C08000
310
40C0A00040C0C00040C0E00040E0000040E0200040E0400040E0600040E0800040E0A00040E0C00040E0E00080000000800020008000400080006000800080008000A0008000C0008000E00080200000802020008020400080206000802080008020A0008020C0008020E00080400000804020008040400080406000804080
310
008040A0008040C0008040E00080600000806020008060400080606000806080008060A0008060C0008060E00080800000808020008080400080806000808080008080A0008080C0008080E00080A0000080A0200080A0400080A0600080A0800080A0A00080A0C00080A0E00080C0000080C0200080C0400080C0600080C0
310
800080C0A00080C0C00080C0E00080E0000080E0200080E0400080E0600080E0800080E0A00080E0C00080E0E000C0000000C0002000C0004000C0006000C0008000C000A000C000C000C000E000C0200000C0202000C0204000C0206000C0208000C020A000C020C000C020E000C0400000C0402000C0404000C0406000C0
310
408000C040A000C040C000C040E000C0600000C0602000C0604000C0606000C0608000C060A000C060C000C060E000C0800000C0802000C0804000C0806000C0808000C080A000C080C000C080E000C0A00000C0A02000C0A04000C0A06000C0A08000C0A0A000C0A0C000C0A0E000C0C00000C0C02000C0C04000C0C06000
310
C0C08000C0C0A000F0FBFF00A4A0A000808080000000FF0000FF000000FFFF00FF000000FF00FF00FFFF0000FFFFFF0000000000000000000000000000000000000000000000000000000000000000000000000000000000000000000000000000000000000000000000000000000000000000000000000000000000000000
310
000000000000000000000000000000000000000000000000000000000000000000000000000000000000000000000000000000000000000000000000000000000000000000000000000000000000000000000000000000000000000000000000000000000000000000000000000000000000A2FFA2A2A2A2A2A2A2A2A2A2A2
310
A2A2A2FFA2FFFFFFFFFFA2A2FFA2A2FFA20000A2FFFFFF000000000000000000000000FFFFFFFFFFFFFFFFFFFFFFFFFFA20000A2FFFFFF000000000000000000000000FFFFFFFFFFFFFFFFFFFFFFFFFFA20000A2FFFFFF000000000000000000000000000000000000000000000000FFA20000A2FFFFFF0000000000000000
310
00000000000000000000000000000000FFA20000A2FF0000000000000000000000000000000000000000000000000000FFA20000A2FF0000000000000000000000000000000000000000000000000000FFA20000A2FF0000000000000000000000000000000000000000000000000000FFA20000A2FF000000000000000000
310
0000000000000000000000000000000000FFA20000A2FF0000000000000000000000000000000000000000000000000000FFA20000A2FF0000000000000000000000000000000000000000000000000000FFA20000A2FF0000000000000000000000000000000000000000000000000000FFA20000A2FF0000000000000000
310
000000000000000000000000000000000000FFA20000A2FF0000000000000000000000000000000000000000000000000000FFA20000A2FF0000000000000000000000000000000000000000000000000000FFA20000A2FF0000000000000000000000000000000000000000000000000000FFA20000A2FF00000000000000
310
00000000000000000000000000000000000000FFA20000A2FF0000000000000000000000000000000000000000000000000000FFA20000A2FF0000000000000000000000000000000000000000000000000000FFA20000A2FFA2A2A2A2A2A2A2A2A2A2A2A2A2A2A2A2A2A2A2A2A2A2A2A2A2A2FFA200000000000000000000
310
00000000000000000000000000000000000000000000000000000000000000000000000000000000000000000000000000000000000000000000000000000000000000000000000000000000000000000000000000000000000000000000000000000000000000000000000000000000000000000000000000000000000000
310
0000000000000000000000000000000000000000000000000000000000000000000000000000000000000000000000000000000000000000
 70
     4
280
     1
281
     0
1001
AcDbDynamicBlockGUID
1000
{006AF60F-D1D1-4780-B690-960D5BEF829A}
  0
BLOCK_RECORD
  5
45D2
330
1
100
AcDbSymbolTableRecord
100
AcDbBlockTableRecord
  2
*D2
340
0
 70
     0
280
     1
281
     0
  0
BLOCK_RECORD
  5
45DF
330
1
100
AcDbSymbolTableRecord
100
AcDbBlockTableRecord
  2
*D3
340
0
 70
     0
280
     1
281
     0
  0
BLOCK_RECORD
  5
45F5
330
1
100
AcDbSymbolTableRecord
100
AcDbBlockTableRecord
  2
*D4
340
0
 70
     0
280
     1
281
     0
  0
BLOCK_RECORD
  5
4602
330
1
100
AcDbSymbolTableRecord
100
AcDbBlockTableRecord
  2
*D5
340
0
 70
     0
280
     1
281
     0
  0
BLOCK_RECORD
  5
460F
330
1
100
AcDbSymbolTableRecord
100
AcDbBlockTableRecord
  2
*D6
340
0
 70
     0
280
     1
281
     0
  0
BLOCK_RECORD
  5
462E
330
1
100
AcDbSymbolTableRecord
100
AcDbBlockTableRecord
  2
*D7
340
0
 70
     0
280
     1
281
     0
  0
BLOCK_RECORD
  5
464D
330
1
100
AcDbSymbolTableRecord
100
AcDbBlockTableRecord
  2
*D8
340
0
 70
     0
280
     1
281
     0
  0
BLOCK_RECORD
  5
46D1
330
1
100
AcDbSymbolTableRecord
100
AcDbBlockTableRecord
  2
*D9
340
0
 70
     0
280
     1
281
     0
  0
BLOCK_RECORD
  5
4A6F
330
1
100
AcDbSymbolTableRecord
100
AcDbBlockTableRecord
  2
*D10
340
0
 70
     0
280
     1
281
     0
  0
BLOCK_RECORD
  5
4B55
330
1
100
AcDbSymbolTableRecord
100
AcDbBlockTableRecord
  2
*D11
340
0
 70
     0
280
     1
281
     0
  0
ENDTAB
  0
ENDSEC
  0
SECTION
  2
BLOCKS
  0
BLOCK
  5
19
330
18
100
AcDbEntity
  8
0
100
AcDbBlockBegin
  2
*MODEL_SPACE
 70
     0
 10
0.0
 20
0.0
 30
0.0
  3
*MODEL_SPACE
  1

  0
ENDBLK
  5
1A
330
18
100
AcDbEntity
  8
0
100
AcDbBlockEnd
  0
BLOCK
  5
16
330
15
100
AcDbEntity
 67
     1
  8
0
100
AcDbBlockBegin
  2
*PAPER_SPACE
 70
     0
 10
0.0
 20
0.0
 30
0.0
  3
*PAPER_SPACE
  1

  0
ENDBLK
  5
17
330
15
100
AcDbEntity
 67
     1
  8
0
100
AcDbBlockEnd
  0
BLOCK
  5
3A
330
36
100
AcDbEntity
  8
0
 48
0.3
100
AcDbBlockBegin
  2
_OPEN
 70
     0
 10
0.0
 20
0.0
 30
0.0
  3
_OPEN
  1

  0
LINE
  5
37
330
36
100
AcDbEntity
  8
0
  6
ByBlock
 62
     0
 48
0.3
100
AcDbLine
 10
-1.0
 20
0.1666666666666666
 30
0.0
 11
0.0
 21
0.0
 31
0.0
  0
LINE
  5
38
330
36
100
AcDbEntity
  8
0
  6
ByBlock
 62
     0
 48
0.3
100
AcDbLine
 10
0.0
 20
0.0
 30
0.0
 11
-1.0
 21
-0.1666666666666666
 31
0.0
  0
LINE
  5
39
330
36
100
AcDbEntity
  8
0
  6
ByBlock
 62
     0
 48
0.3
100
AcDbLine
 10
0.0
 20
0.0
 30
0.0
 11
-1.0
 21
0.0
 31
0.0
  0
ENDBLK
  5
3B
330
36
100
AcDbEntity
  8
0
 48
0.3
100
AcDbBlockEnd
  0
BLOCK
  5
280C
330
280B
100
AcDbEntity
  8
0
100
AcDbBlockBegin
  2
INABA_A3N
 70
     2
 10
0.0
 20
0.0
 30
0.0
  3
INABA_A3N
  1

  0
ATTDEF
  5
6B4D
330
280B
100
AcDbEntity
  8
99：枠線
100
AcDbText
 10
306.6727276417195
 20
19.66393622387111
 30
0.0
 40
2.799999999999998
  1
田上
 72
     4
 11
309.7527276417195
 21
21.06393622387111
 31
0.0
100
AcDbAttributeDefinition
280
     0
  3
尺度
  2
SCALE
 70
     0
280
     0
  0
SOLID
  5
6B4E
330
280B
100
AcDbEntity
  8
99：枠線
100
AcDbTrace
 10
13.62859074716996
 20
278.6638637520214
 30
0.0
 11
14.12783428387465
 21
278.1646202153167
 31
0.0
 12
394.0521657161253
 22
278.6638637520214
 32
0.0
 13
393.5529221794207
 23
278.1646202153167
 33
0.0
  0
SOLID
  5
6B4F
330
280B
100
AcDbEntity
  8
99：枠線
100
AcDbTrace
 10
394.0521657161253
 20
7.075379784683192
 30
0.0
 11
393.5529221794207
 21
7.574623321387846
 31
0.0
 12
13.62859074716996
 22
7.075379784683192
 32
0.0
 13
14.12783428387465
 23
7.574623321387846
 33
0.0
  0
LWPOLYLINE
  5
6B50
330
280B
100
AcDbEntity
  8
99：Defpoint
 62
   137
100
AcDbPolyline
 90
        4
 70
     1
 43
0.0
 10
0.0
 20
0.0
 10
408.18
 20
0.0
 10
408.18
 20
285.2399999999999
 10
0.0
 20
285.2399999999999
  0
SOLID
  5
6B51
330
280B
100
AcDbEntity
  8
99：枠線
100
AcDbTrace
 10
13.62859074716996
 20
7.075379784683192
 30
0.0
 11
14.12783428387465
 21
7.574623321387846
 31
0.0
 12
13.62859074716996
 22
278.6638637520214
 32
0.0
 13
14.12783428387465
 23
278.1646202153167
 33
0.0
  0
SOLID
  5
6B52
330
280B
100
AcDbEntity
  8
99：枠線
100
AcDbTrace
 10
394.0521657161253
 20
278.6638637520214
 30
0.0
 11
393.5529221794207
 21
278.1646202153167
 31
0.0
 12
394.0521657161253
 22
7.075379784683192
 32
0.0
 13
393.5529221794207
 23
7.574623321387846
 33
0.0
  0
TEXT
  5
6B53
330
280B
100
AcDbEntity
  8
99：枠線
100
AcDbText
 10
324.8868451794208
 20
33.25460432138785
 30
0.0
 40
2.0
  1
TITLE
 41
0.8678571428570782
  7
JX_FONT
 72
     5
 11
332.9868451794202
 21
33.25460432138785
 31
0.0
100
AcDbText
  0
TEXT
  5
6B54
330
280B
100
AcDbEntity
  8
99：枠線
100
AcDbText
 10
329.1893971794209
 20
19.19967632138783
 30
0.0
 40
2.0
  1
DRAWNING NO.
 41
1.156069306358364
 72
     5
 11
349.1893961794206
 21
19.19967632138783
 31
0.0
100
AcDbText
  0
LINE
  5
6B55
330
280B
100
AcDbEntity
  8
99：枠線
100
AcDbLine
 10
223.5529221794205
 20
37.57462332138786
 30
0.0
 11
393.5529221794206
 21
37.57462332138786
 31
0.0
  0
LINE
  5
6B56
330
280B
100
AcDbEntity
  8
99：枠線
100
AcDbLine
 10
317.5529221794207
 20
22.57462332138786
 30
0.0
 11
393.5529221794206
 21
22.57462332138786
 31
0.0
  0
LINE
  5
6B57
330
280B
100
AcDbEntity
  8
99：枠線
100
AcDbLine
 10
223.5529221794205
 20
22.57462332138786
 30
0.0
 11
302.5529221794205
 21
22.57462332138786
 31
0.0
  0
LINE
  5
6B58
330
280B
100
AcDbEntity
  8
99：枠線
100
AcDbLine
 10
263.0529221794205
 20
33.57462332138786
 30
0.0
 11
223.5529221794205
 21
33.57462332138786
 31
0.0
  0
TEXT
  5
6B59
330
280B
100
AcDbEntity
  8
99：枠線
100
AcDbText
 10
249.1644646134095
 20
10.32355232138771
 30
0.0
 40
2.0
  1
INABA ELECTRIC WORK CO., LTD.
 41
1.252231573578152
 72
     5
 11
298.2644646134089
 21
10.32355232138771
 31
0.0
100
AcDbText
  0
TEXT
  5
6B5A
330
280B
100
AcDbEntity
  8
99：枠線
100
AcDbText
 10
247.5647041418997
 20
15.21551532138774
 30
0.0
 40
4.0
  1
株式会社 因幡電機製作所
 41
0.9789911996157989
  7
JX_FONT
 72
     5
 11
300.5607610811016
 21
15.21551532138774
 31
0.0
100
AcDbText
  0
LINE
  5
6B5B
330
280B
100
AcDbEntity
  8
99：枠線
100
AcDbLine
 10
223.5529221794205
 20
7.574623321387846
 30
0.0
 11
223.5529221794205
 21
37.57462332138786
 31
0.0
  0
TEXT
  5
6B5C
330
280B
100
AcDbEntity
  8
99：枠線
100
AcDbText
 10
229.4729194180687
 20
34.19967632138783
 30
0.0
 40
2.0
  1
APPROVED BY
 41
0.7606486127167564
 72
     5
 11
242.6321404180686
 21
34.19967632138783
 31
0.0
100
AcDbText
  0
LINE
  5
6B5D
330
280B
100
AcDbEntity
  8
99：枠線
100
AcDbLine
 10
234.6252691861415
 20
16.22257502528505
 30
0.0
 11
236.5903966861416
 21
13.41608402528523
 31
0.0
  0
LINE
  5
6B5E
330
280B
100
AcDbEntity
  8
99：枠線
100
AcDbLine
 10
226.8555766861415
 20
16.49800502528542
 30
0.0
 11
230.1778321861422
 21
13.48416302528524
 31
0.0
  0
LINE
  5
6B5F
330
280B
100
AcDbEntity
  8
99：枠線
100
AcDbLine
 10
225.6601150352636
 20
16.56608402528509
 30
0.0
 11
225.6601150352636
 21
13.41608402528523
 31
0.0
  0
LINE
  5
6B60
330
280B
100
AcDbEntity
  8
99：枠線
100
AcDbLine
 10
226.4167036861414
 20
13.41608402528523
 30
0.0
 11
226.4167036861414
 21
16.30358402528516
 31
0.0
  0
ARC
  5
6B61
330
280B
100
AcDbEntity
  8
99：枠線
100
AcDbCircle
 10
226.6792036861417
 20
16.30358402528516
 30
0.0
 40
0.2625
100
AcDbArc
 50
44.99999999999971
 51
180.0
  0
LINE
  5
6B62
330
280B
100
AcDbEntity
  8
99：枠線
100
AcDbLine
 10
230.6167036861417
 20
13.67858402528516
 30
0.0
 11
230.6167036861417
 21
16.56608402528509
 31
0.0
  0
LINE
  5
6B63
330
280B
100
AcDbEntity
  8
99：枠線
100
AcDbLine
 10
233.3055226861412
 20
16.22257502528505
 30
0.0
 11
231.3403966861416
 21
13.41608402528523
 31
0.0
  0
ARC
  5
6B64
330
280B
100
AcDbEntity
  8
99：枠線
100
AcDbCircle
 10
230.3542036861415
 20
13.67858402528516
 30
0.0
 40
0.2625
100
AcDbArc
 50
227.7867300000003
 51
0.0
  0
ARC
  5
6B65
330
280B
100
AcDbEntity
  8
99：枠線
100
AcDbCircle
 10
233.9653966861416
 20
15.76052702528518
 30
0.0
 40
0.8055569999999999
100
AcDbArc
 50
34.99999999999984
 51
145.0000000000001
  0
LINE
  5
6B66
330
280B
100
AcDbEntity
  8
99：枠線
100
AcDbLine
 10
233.9653966861416
 20
15.25412852528525
 30
0.0
 11
235.8390631861417
 21
16.56608402528509
 31
0.0
  0
TEXT
  5
6B67
330
280B
100
AcDbEntity
  8
99：枠線
100
AcDbText
 10
224.8064931794207
 20
34.19967632138783
 30
0.0
 40
2.5
  1
承認
 41
0.75
  7
JX_FONT
 72
     5
 11
228.8064931794207
 21
34.19967632138783
 31
0.0
100
AcDbText
  0
LINE
  5
6B68
330
280B
100
AcDbEntity
  8
99：枠線
100
AcDbLine
 10
223.5529221794205
 20
37.57462332138786
 30
0.0
 11
223.5529221794205
 21
22.57462332138786
 31
0.0
  0
LINE
  5
6B69
330
280B
100
AcDbEntity
  8
99：枠線
100
AcDbLine
 10
243.3029221794205
 20
22.57462332138786
 30
0.0
 11
243.3029221794205
 21
37.57462332138786
 31
0.0
  0
ARC
  5
6B6A
330
280B
100
AcDbEntity
  8
99：枠線
100
AcDbCircle
 10
243.4792036861414
 20
15.76052702528518
 30
0.0
 40
0.8055569999999999
100
AcDbArc
 50
34.99999999999984
 51
145.0000000000001
  0
LINE
  5
6B6B
330
280B
100
AcDbEntity
  8
99：枠線
100
AcDbLine
 10
243.4792036861414
 20
15.25412852528525
 30
0.0
 11
245.3528701861416
 21
16.56608402528509
 31
0.0
  0
LINE
  5
6B6C
330
280B
100
AcDbEntity
  8
99：枠線
100
AcDbLine
 10
237.1792036861417
 20
16.56608402528509
 30
0.0
 11
237.1792036861417
 21
13.41608402528523
 31
0.0
  0
LINE
  5
6B6D
330
280B
100
AcDbEntity
  8
99：枠線
100
AcDbLine
 10
240.8542036861414
 20
13.41608402528523
 30
0.0
 11
242.8193311861416
 21
16.22257502528505
 31
0.0
  0
ARC
  5
6B6E
330
280B
100
AcDbEntity
  8
99：枠線
100
AcDbCircle
 10
239.557611186142
 20
14.20358402528536
 30
0.0
 40
0.7875000000000001
100
AcDbArc
 50
270.0
 51
51.39531799999993
  0
LINE
  5
6B6F
330
280B
100
AcDbEntity
  8
99：枠線
100
AcDbLine
 10
237.1792036861417
 20
13.41608402528523
 30
0.0
 11
239.557611186142
 21
13.41608402528523
 31
0.0
  0
ARC
  5
6B70
330
280B
100
AcDbEntity
  8
99：枠線
100
AcDbCircle
 10
239.557611186142
 20
15.7785840252853
 30
0.0
 40
0.7875000000000001
100
AcDbArc
 50
270.0
 51
90.0
  0
LINE
  5
6B71
330
280B
100
AcDbEntity
  8
99：枠線
100
AcDbLine
 10
238.754203686142
 20
14.99108402528516
 30
0.0
 11
239.557611186142
 21
14.99108402528516
 31
0.0
  0
LINE
  5
6B72
330
280B
100
AcDbEntity
  8
99：枠線
100
AcDbLine
 10
239.557611186142
 20
16.56608402528509
 30
0.0
 11
237.1792036861417
 21
16.56608402528509
 31
0.0
  0
LINE
  5
6B73
330
280B
100
AcDbEntity
  8
99：枠線
100
AcDbLine
 10
244.1390776861418
 20
16.22257502528505
 30
0.0
 11
246.1042036861414
 21
13.41608402528523
 31
0.0
  0
TEXT
  5
6B74
330
280B
100
AcDbEntity
  8
99：枠線
100
AcDbText
 10
249.8937121794207
 20
34.19967632138783
 30
0.0
 40
2.0
  1
CHECKED BY
 41
0.8132514615907121
 72
     5
 11
261.8566411794201
 21
34.19967632138783
 31
0.0
100
AcDbText
  0
TEXT
  5
6B75
330
280B
100
AcDbEntity
  8
99：枠線
100
AcDbText
 10
244.5564931794207
 20
34.19967632138783
 30
0.0
 40
2.5
  1
検図
 41
0.7741935483870968
  7
JX_FONT
 72
     5
 11
248.5564931794207
 21
34.19967632138783
 31
0.0
100
AcDbText
  0
LINE
  5
6B76
330
280B
100
AcDbEntity
  8
99：枠線
100
AcDbLine
 10
302.5529221794205
 20
37.57462332138786
 30
0.0
 11
302.5529221794205
 21
7.574623321387846
 31
0.0
  0
LINE
  5
6B77
330
280B
100
AcDbEntity
  8
99：枠線
100
AcDbLine
 10
317.5529221794207
 20
7.574623321387846
 30
0.0
 11
317.5529221794207
 21
37.57462332138786
 31
0.0
  0
CIRCLE
  5
6B78
330
280B
100
AcDbEntity
  8
99：枠線
100
AcDbCircle
 10
306.0529221794205
 20
32.44873132138784
 30
0.0
 40
1.5
  0
CIRCLE
  5
6B79
330
280B
100
AcDbEntity
  8
99：枠線
100
AcDbCircle
 10
306.0529221794205
 20
32.44873132138784
 30
0.0
 40
2.5
  0
LINE
  5
6B7A
330
280B
100
AcDbEntity
  8
99：枠線
100
AcDbLine
 10
310.5529221794205
 20
30.94873132138783
 30
0.0
 11
310.5529221794205
 21
33.94873132138783
 31
0.0
  0
LINE
  5
6B7B
330
280B
100
AcDbEntity
  8
99：枠線
100
AcDbLine
 10
316.5529221794205
 20
34.94873132138784
 30
0.0
 11
316.5529221794205
 21
29.94873132138783
 31
0.0
  0
LINE
  5
6B7C
330
280B
100
AcDbEntity
  8
99：枠線
100
AcDbLine
 10
316.5529221794205
 20
29.94873132138783
 30
0.0
 11
310.5529221794205
 21
30.94873132138783
 31
0.0
  0
TEXT
  5
6B7D
330
280B
100
AcDbEntity
  8
99：枠線
100
AcDbText
 10
308.6292161794209
 20
24.19967632138783
 30
0.0
 40
2.0
  1
SCALE
 41
1.109589041095839
 72
     5
 11
316.7292161794205
 21
24.19967632138783
 31
0.0
100
AcDbText
  0
LINE
  5
6B7E
330
280B
100
AcDbEntity
  8
99：枠線
100
AcDbLine
 10
317.5529221794207
 20
27.57462332138786
 30
0.0
 11
302.5529221794205
 21
27.57462332138786
 31
0.0
  0
TEXT
  5
6B7F
330
280B
100
AcDbEntity
  8
99：枠線
100
AcDbText
 10
308.6292161794209
 20
14.19967632138783
 30
0.0
 40
2.0
  1
UNITS
 41
1.194829028061643
 72
     5
 11
316.7292161794205
 21
14.19967632138783
 31
0.0
100
AcDbText
  0
LINE
  5
6B80
330
280B
100
AcDbEntity
  8
99：枠線
100
AcDbLine
 10
302.5529221794205
 20
17.57462332138785
 30
0.0
 11
317.5529221794207
 21
17.57462332138785
 31
0.0
  0
TEXT
  5
6B81
330
280B
100
AcDbEntity
  8
99：枠線
100
AcDbText
 10
303.8064931794207
 20
14.19967632138783
 30
0.0
 40
2.5
  1
単位
 41
0.75
  7
JX_FONT
 72
     5
 11
307.8064931794207
 21
14.19967632138783
 31
0.0
100
AcDbText
  0
TEXT
  5
6B82
330
280B
100
AcDbEntity
  8
99：枠線
100
AcDbText
 10
307.0448633044352
 20
8.843123321387976
 30
0.0
 40
3.5
  1
mm
 41
1.073907801268937
 72
     5
 11
313.3829091794206
 21
8.843123321387976
 31
0.0
100
AcDbText
  0
TEXT
  5
6B83
330
280B
100
AcDbEntity
  8
99：枠線
100
AcDbText
 10
303.8064931794207
 20
24.19967632138783
 30
0.0
 40
2.5
  1
尺度
 41
0.75
  7
JX_FONT
 72
     5
 11
307.8064931794207
 21
24.19967632138783
 31
0.0
100
AcDbText
  0
TEXT
  5
6B84
330
280B
100
AcDbEntity
  8
99：枠線
100
AcDbText
 10
319.5354661794211
 20
19.19967632138783
 30
0.0
 40
2.5
  1
図面番号
 41
0.7058823529411763
  7
JX_FONT
 72
     5
 11
327.5354661794211
 21
19.19967632138783
 31
0.0
100
AcDbText
  0
LINE
  5
6B85
330
280B
100
AcDbEntity
  8
99：枠線
100
AcDbLine
 10
310.5529221794205
 20
33.94873132138783
 30
0.0
 11
316.5529221794205
 21
34.94873132138784
 31
0.0
  0
LINE
  5
6B86
330
280B
100
AcDbEntity
  8
99：枠線
100
AcDbLine
 10
316.9624321794211
 20
32.44873132138784
 30
0.0
 11
303.2491101794204
 21
32.44873132138784
 31
0.0
  0
TEXT
  5
6B87
330
280B
100
AcDbEntity
  8
99：枠線
100
AcDbText
 10
319.5354661794211
 20
33.25460432138785
 30
0.0
 40
2.5
  1
名称
 41
0.75
  7
JX_FONT
 72
     5
 11
323.5354661794211
 21
33.25460432138785
 31
0.0
100
AcDbText
  0
LINE
  5
6B88
330
280B
100
AcDbEntity
  8
99：枠線
100
AcDbLine
 10
356.5529221794207
 20
22.57462332138786
 30
0.0
 11
356.5529221794207
 21
7.574623321387846
 31
0.0
  0
TEXT
  5
6B89
330
280B
100
AcDbEntity
  8
99：枠線
100
AcDbText
 10
358.5354661794212
 20
19.19967632138783
 30
0.0
 40
2.5
  1
型 式
 41
0.8780487804878049
  7
JX_FONT
 72
     5
 11
364.5354661794212
 21
19.19967632138783
 31
0.0
100
AcDbText
  0
TEXT
  5
6B8A
330
280B
100
AcDbEntity
  8
99：枠線
100
AcDbText
 10
368.1893971794208
 20
19.19967632138783
 30
0.0
 40
2.0
  1
MODEL
 41
1.213333333333275
 72
     5
 11
377.2893971794204
 21
19.19967632138783
 31
0.0
100
AcDbText
  0
LINE
  5
6B8B
330
280B
100
AcDbEntity
  8
1：主線
100
AcDbLine
 10
223.5529221331896
 20
7.479238659015051
 30
0.0
 11
223.5529221331896
 21
7.574622909145388
 31
0.0
  0
LINE
  5
6B8C
330
280B
100
AcDbEntity
  8
2：副線
100
AcDbLine
 10
224.5529221331896
 20
7.479238659015051
 30
0.0
 11
224.5529221331896
 21
7.574622909145388
 31
0.0
  0
LINE
  5
6B8D
330
280B
100
AcDbEntity
  8
3：中心線
100
AcDbLine
 10
225.5529221331896
 20
7.479238659015051
 30
0.0
 11
225.5529221331896
 21
7.574622909145388
 31
0.0
  0
LINE
  5
6B8E
330
280B
100
AcDbEntity
  8
4：隠線
100
AcDbLine
 10
226.5529221331896
 20
7.479238659015051
 30
0.0
 11
226.5529221331896
 21
7.574622909145388
 31
0.0
  0
LINE
  5
6B8F
330
280B
100
AcDbEntity
  8
5：想像線
100
AcDbLine
 10
227.5529221331896
 20
7.479238659015051
 30
0.0
 11
227.5529221331896
 21
7.574622909145388
 31
0.0
  0
LINE
  5
6B90
330
280B
100
AcDbEntity
  8
6：部品線
100
AcDbLine
 10
228.5529221331896
 20
7.479238659015051
 30
0.0
 11
228.5529221331896
 21
7.574622909145388
 31
0.0
  0
LINE
  5
6B91
330
280B
100
AcDbEntity
  8
7：文字
100
AcDbLine
 10
229.5529221331896
 20
7.479238659015051
 30
0.0
 11
229.5529221331896
 21
7.574622909145388
 31
0.0
  0
LINE
  5
6B92
330
280B
100
AcDbEntity
  8
8：ﾊｯﾁﾝｸﾞ線
100
AcDbLine
 10
230.5529221331896
 20
7.479238659015051
 30
0.0
 11
230.5529221331896
 21
7.574622909145388
 31
0.0
  0
LINE
  5
6B93
330
280B
100
AcDbEntity
  8
9：寸法線
100
AcDbLine
 10
231.5529221331896
 20
7.479238659015051
 30
0.0
 11
231.5529221331896
 21
7.574622909145388
 31
0.0
  0
LINE
  5
6B94
330
280B
100
AcDbEntity
  8
99：Defpoint
100
AcDbLine
 10
232.5529221331896
 20
7.479238659015051
 30
0.0
 11
232.5529221331896
 21
7.574622909145388
 31
0.0
  0
LINE
  5
6B95
330
280B
100
AcDbEntity
  8
99：構築線
100
AcDbLine
 10
233.5529221331896
 20
7.479238659015051
 30
0.0
 11
233.5529221331896
 21
7.574622909145388
 31
0.0
  0
LINE
  5
6B96
330
280B
100
AcDbEntity
  8
99：枠線
100
AcDbLine
 10
234.5529221331896
 20
7.479238659015051
 30
0.0
 11
234.5529221331896
 21
7.574622909145388
 31
0.0
  0
LINE
  5
6B97
330
280B
100
AcDbEntity
  8
1：主線
100
AcDbLine
 10
235.5529221331896
 20
7.479238659015051
 30
0.0
 11
235.5529221331896
 21
7.574622909145388
 31
0.0
  0
LINE
  5
6B98
330
280B
100
AcDbEntity
  8
1：主線
100
AcDbLine
 10
236.5529221331896
 20
7.479238659015051
 30
0.0
 11
236.5529221331896
 21
7.574622909145388
 31
0.0
  0
LINE
  5
6B9C
330
280B
100
AcDbEntity
  8
99：枠線
100
AcDbLine
 10
302.5529221794205
 20
33.57462332138786
 30
0.0
 11
263.0529221794205
 21
33.57462332138786
 31
0.0
  0
LINE
  5
6B9D
330
280B
100
AcDbEntity
  8
99：枠線
100
AcDbLine
 10
223.5529221794205
 20
22.57462332138786
 30
0.0
 11
223.5529221794205
 21
7.574623321387846
 31
0.0
  0
LINE
  5
6B9E
330
280B
100
AcDbEntity
  8
99：枠線
100
AcDbLine
 10
282.8029221794206
 20
22.57462332138786
 30
0.0
 11
282.8029221794206
 21
37.57462332138786
 31
0.0
  0
LINE
  5
6B9F
330
280B
100
AcDbEntity
  8
99：枠線
100
AcDbLine
 10
263.0529221794205
 20
22.57462332138786
 30
0.0
 11
263.0529221794205
 21
37.57462332138786
 31
0.0
  0
LINE
  5
6BA0
330
280B
100
AcDbEntity
  8
0
100
AcDbLine
 10
184.0529221794205
 20
7.574623321387846
 30
0.0
 11
223.5529221794205
 21
7.574623321387831
 31
0.0
  0
TEXT
  5
6BA2
330
280B
100
AcDbEntity
  8
99：枠線
100
AcDbText
 10
264.3064931794207
 20
34.19967632138783
 30
0.0
 40
2.5
  1
設計
 41
0.75
  7
JX_FONT
 72
     5
 11
268.3064931794207
 21
34.19967632138783
 31
0.0
100
AcDbText
  0
TEXT
  5
6BA3
330
280B
100
AcDbEntity
  8
99：枠線
100
AcDbText
 10
290.0040941794206
 20
34.19967632138783
 30
0.0
 40
2.0
  1
DRAWN BY
 41
0.9007633587786395
 72
     5
 11
301.8040941794208
 21
34.19967632138783
 31
0.0
100
AcDbText
  0
TEXT
  5
6BA4
330
280B
100
AcDbEntity
  8
99：枠線
100
AcDbText
 10
269.1406179317272
 20
34.19967632138783
 30
0.0
 40
2.0
  1
DESIGNED BY
 41
0.838166942675156
 72
     5
 11
282.2998389317271
 21
34.19967632138783
 31
0.0
100
AcDbText
  0
TEXT
  5
6BA5
330
280B
100
AcDbEntity
  8
99：枠線
100
AcDbText
 10
284.0564931794207
 20
34.19967632138783
 30
0.0
 40
2.5
  1
製図
 41
0.7741935483870968
  7
JX_FONT
 72
     5
 11
288.0564931794207
 21
34.19967632138783
 31
0.0
100
AcDbText
  0
ENDBLK
  5
280D
330
280B
100
AcDbEntity
  8
0
100
AcDbBlockEnd
  0
BLOCK
  5
45D3
330
45D2
100
AcDbEntity
  8
0
100
AcDbBlockBegin
  2
*D2
 70
     1
 10
0.0
 20
0.0
 30
0.0
  3
*D2
  1

  0
LINE
  5
4C8A
330
45D2
100
AcDbEntity
  8
9：寸法線
 62
     1
440
 16777216
370
    -2
100
AcDbLine
 10
408.1132274494956
 20
851.0047141738223
 30
0.0
 11
261.8773648276963
 21
851.0047141738223
 31
0.0
  0
LINE
  5
4C8B
330
45D2
100
AcDbEntity
  8
9：寸法線
 62
     1
440
 16777216
370
    -2
100
AcDbLine
 10
632.3448276621948
 20
1551.004714173822
 30
0.0
 11
261.8773648276965
 21
1551.004714173822
 31
0.0
  0
LINE
  5
4C8C
330
45D2
100
AcDbEntity
  8
9：寸法線
 62
     1
440
 16777216
370
    -2
100
AcDbLine
 10
269.8773648276963
 20
871.004714173822
 30
0.0
 11
269.8773648276965
 21
1531.004714173822
 31
0.0
  0
INSERT
  5
4C8D
330
45D2
100
AcDbEntity
  8
9：寸法線
 62
     1
440
 16777216
370
    -2
100
AcDbBlockReference
  2
_OPEN
 10
269.8773648276963
 20
851.0047141738223
 30
0.0
 41
20.0
 42
20.0
 43
20.0
 50
270.0
  0
INSERT
  5
4C8E
330
45D2
100
AcDbEntity
  8
9：寸法線
 62
     1
440
 16777216
370
    -2
100
AcDbBlockReference
  2
_OPEN
 10
269.8773648276965
 20
1551.004714173822
 30
0.0
 41
20.0
 42
20.0
 43
20.0
 50
90.0
  0
MTEXT
  5
4C8F
330
45D2
100
AcDbEntity
  8
9：寸法線
 62
     2
440
 16777216
100
AcDbMText
 10
249.8773648276962
 20
1201.004714173822
 30
0.0
 40
24.0
 41
0.0
 46
0.0
 71
     5
 72
     1
  1
\A1;700
 11
0.0000000000000001
 21
1.0
 31
0.0
 73
     1
 44
1.0
  0
POINT
  5
4C90
330
45D2
100
AcDbEntity
  8
DEFPOINTS
 62
     0
440
 16777216
100
AcDbPoint
 10
418.1132274494957
 20
851.0047141738223
 30
0.0
  0
POINT
  5
4C91
330
45D2
100
AcDbEntity
  8
DEFPOINTS
 62
     0
440
 16777216
100
AcDbPoint
 10
642.3448276621948
 20
1551.004714173822
 30
0.0
  0
POINT
  5
4C92
330
45D2
100
AcDbEntity
  8
DEFPOINTS
 62
     0
440
 16777216
100
AcDbPoint
 10
269.8773648276965
 20
1551.004714173822
 30
0.0
  0
ENDBLK
  5
45D4
330
45D2
100
AcDbEntity
  8
0
100
AcDbBlockEnd
  0
BLOCK
  5
45E0
330
45DF
100
AcDbEntity
  8
0
100
AcDbBlockBegin
  2
*D3
 70
     1
 10
0.0
 20
0.0
 30
0.0
  3
*D3
  1

  0
LINE
  5
4C93
330
45DF
100
AcDbEntity
  8
9：寸法線
 62
     1
440
 16777216
370
    -2
100
AcDbLine
 10
408.1132274494956
 20
851.0047141738223
 30
0.0
 11
205.8773648276963
 21
851.0047141738223
 31
0.0
  0
LINE
  5
4C94
330
45DF
100
AcDbEntity
  8
9：寸法線
 62
     1
440
 16777216
370
    -2
100
AcDbLine
 10
676.9534043838413
 20
1851.204714173803
 30
0.0
 11
205.8773648276964
 21
1851.204714173803
 31
0.0
  0
LINE
  5
4C95
330
45DF
100
AcDbEntity
  8
9：寸法線
 62
     1
440
 16777216
370
    -2
100
AcDbLine
 10
213.8773648276963
 20
871.0047141738222
 30
0.0
 11
213.8773648276965
 21
1831.204714173803
 31
0.0
  0
INSERT
  5
4C96
330
45DF
100
AcDbEntity
  8
9：寸法線
 62
     1
440
 16777216
370
    -2
100
AcDbBlockReference
  2
_OPEN
 10
213.8773648276963
 20
851.0047141738223
 30
0.0
 41
20.0
 42
20.0
 43
20.0
 50
270.0
  0
INSERT
  5
4C97
330
45DF
100
AcDbEntity
  8
9：寸法線
 62
     1
440
 16777216
370
    -2
100
AcDbBlockReference
  2
_OPEN
 10
213.8773648276965
 20
1851.204714173803
 30
0.0
 41
20.0
 42
20.0
 43
20.0
 50
90.0
  0
MTEXT
  5
4C98
330
45DF
100
AcDbEntity
  8
9：寸法線
 62
     2
440
 16777216
100
AcDbMText
 10
193.8773648276961
 20
1351.104714173813
 30
0.0
 40
24.0
 41
0.0
 46
0.0
 71
     5
 72
     1
  1
\A1;1000
 11
0.0000000000000001
 21
1.0
 31
0.0
 73
     1
 44
1.0
  0
POINT
  5
4C99
330
45DF
100
AcDbEntity
  8
DEFPOINTS
 62
     0
440
 16777216
100
AcDbPoint
 10
418.1132274494957
 20
851.0047141738223
 30
0.0
  0
POINT
  5
4C9A
330
45DF
100
AcDbEntity
  8
DEFPOINTS
 62
     0
440
 16777216
100
AcDbPoint
 10
686.953404383841
 20
1851.204714173803
 30
0.0
  0
POINT
  5
4C9B
330
45DF
100
AcDbEntity
  8
DEFPOINTS
 62
     0
440
 16777216
100
AcDbPoint
 10
213.8773648276965
 20
1851.204714173803
 30
0.0
  0
ENDBLK
  5
45E1
330
45DF
100
AcDbEntity
  8
0
100
AcDbBlockEnd
  0
BLOCK
  5
45F6
330
45F5
100
AcDbEntity
  8
0
100
AcDbBlockBegin
  2
*D4
 70
     1
 10
0.0
 20
0.0
 30
0.0
  3
*D4
  1

  0
LINE
  5
4C9C
330
45F5
100
AcDbEntity
  8
9：寸法線
 62
     1
440
 16777216
370
    -2
100
AcDbLine
 10
408.1132274494956
 20
851.0047141738223
 30
0.0
 11
317.8773648276964
 21
851.0047141738223
 31
0.0
  0
LINE
  5
4C9D
330
45F5
100
AcDbEntity
  8
9：寸法線
 62
     1
440
 16777216
370
    -2
100
AcDbLine
 10
639.7573627596675
 20
751.0047141738222
 30
0.0
 11
317.8773648276964
 21
751.0047141738222
 31
0.0
  0
LINE
  5
4C9E
330
45F5
100
AcDbEntity
  8
9：寸法線
 62
     1
440
 16777216
370
    -2
100
AcDbLine
 10
325.8773648276964
 20
831.004714173822
 30
0.0
 11
325.8773648276964
 21
771.0047141738222
 31
0.0
  0
INSERT
  5
4C9F
330
45F5
100
AcDbEntity
  8
9：寸法線
 62
     1
440
 16777216
370
    -2
100
AcDbBlockReference
  2
_OPEN
 10
325.8773648276964
 20
851.0047141738223
 30
0.0
 41
20.0
 42
20.0
 43
20.0
 50
90.0
  0
INSERT
  5
4CA0
330
45F5
100
AcDbEntity
  8
9：寸法線
 62
     1
440
 16777216
370
    -2
100
AcDbBlockReference
  2
_OPEN
 10
325.8773648276964
 20
751.0047141738222
 30
0.0
 41
20.0
 42
20.0
 43
20.0
 50
270.0
  0
MTEXT
  5
4CA1
330
45F5
100
AcDbEntity
  8
9：寸法線
 62
     2
440
 16777216
100
AcDbMText
 10
305.8773648276963
 20
801.0047141738223
 30
0.0
 40
24.0
 41
0.0
 46
0.0
 71
     5
 72
     1
  1
\A1;100
 11
0.0000000000000001
 21
1.0
 31
0.0
 73
     1
 44
1.0
  0
POINT
  5
4CA2
330
45F5
100
AcDbEntity
  8
DEFPOINTS
 62
     0
440
 16777216
100
AcDbPoint
 10
418.1132274494957
 20
851.0047141738223
 30
0.0
  0
POINT
  5
4CA3
330
45F5
100
AcDbEntity
  8
DEFPOINTS
 62
     0
440
 16777216
100
AcDbPoint
 10
649.7573627596676
 20
751.0047141738222
 30
-0.0000000000034106
  0
POINT
  5
4CA4
330
45F5
100
AcDbEntity
  8
DEFPOINTS
 62
     0
440
 16777216
100
AcDbPoint
 10
325.8773648276964
 20
751.0047141738222
 30
0.0
  0
ENDBLK
  5
45F7
330
45F5
100
AcDbEntity
  8
0
100
AcDbBlockEnd
  0
BLOCK
  5
4603
330
4602
100
AcDbEntity
  8
0
100
AcDbBlockBegin
  2
*D5
 70
     1
 10
0.0
 20
0.0
 30
0.0
  3
*D5
  1

  0
LINE
  5
4CA5
330
4602
100
AcDbEntity
  8
9：寸法線
 62
     1
440
 16777216
370
    -2
100
AcDbLine
 10
408.1132274494956
 20
851.0047141738223
 30
0.0
 11
261.8773648276964
 21
851.0047141738223
 31
0.0
  0
LINE
  5
4CA6
330
4602
100
AcDbEntity
  8
9：寸法線
 62
     1
440
 16777216
370
    -2
100
AcDbLine
 10
644.7131012537173
 20
551.0047141738222
 30
0.0
 11
261.8773648276963
 21
551.0047141738222
 31
0.0
  0
LINE
  5
4CA7
330
4602
100
AcDbEntity
  8
9：寸法線
 62
     1
440
 16777216
370
    -2
100
AcDbLine
 10
269.8773648276964
 20
831.004714173822
 30
0.0
 11
269.8773648276963
 21
571.0047141738222
 31
0.0
  0
INSERT
  5
4CA8
330
4602
100
AcDbEntity
  8
9：寸法線
 62
     1
440
 16777216
370
    -2
100
AcDbBlockReference
  2
_OPEN
 10
269.8773648276964
 20
851.0047141738223
 30
0.0
 41
20.0
 42
20.0
 43
20.0
 50
90.0
  0
INSERT
  5
4CA9
330
4602
100
AcDbEntity
  8
9：寸法線
 62
     1
440
 16777216
370
    -2
100
AcDbBlockReference
  2
_OPEN
 10
269.8773648276963
 20
551.0047141738222
 30
0.0
 41
20.0
 42
20.0
 43
20.0
 50
270.0
  0
MTEXT
  5
4CAA
330
4602
100
AcDbEntity
  8
9：寸法線
 62
     2
440
 16777216
100
AcDbMText
 10
249.8773648276963
 20
701.0047141738222
 30
0.0
 40
24.0
 41
0.0
 46
0.0
 71
     5
 72
     1
  1
\A1;300
 11
0.0000000000000001
 21
1.0
 31
0.0
 73
     1
 44
1.0
  0
POINT
  5
4CAB
330
4602
100
AcDbEntity
  8
DEFPOINTS
 62
     0
440
 16777216
100
AcDbPoint
 10
418.1132274494957
 20
851.0047141738223
 30
0.0
  0
POINT
  5
4CAC
330
4602
100
AcDbEntity
  8
DEFPOINTS
 62
     0
440
 16777216
100
AcDbPoint
 10
654.7131012537175
 20
551.0047141738222
 30
0.0
  0
POINT
  5
4CAD
330
4602
100
AcDbEntity
  8
DEFPOINTS
 62
     0
440
 16777216
100
AcDbPoint
 10
269.8773648276963
 20
551.0047141738222
 30
0.0
  0
ENDBLK
  5
4604
330
4602
100
AcDbEntity
  8
0
100
AcDbBlockEnd
  0
BLOCK
  5
4610
330
460F
100
AcDbEntity
  8
0
100
AcDbBlockBegin
  2
*D6
 70
     1
 10
0.0
 20
0.0
 30
0.0
  3
*D6
  1

  0
LINE
  5
4CAE
330
460F
100
AcDbEntity
  8
9：寸法線
 62
     1
440
 16777216
370
    -2
100
AcDbLine
 10
408.1132274494956
 20
851.0047141738223
 30
0.0
 11
205.8773648276964
 21
851.0047141738223
 31
0.0
  0
LINE
  5
4CAF
330
460F
100
AcDbEntity
  8
9：寸法線
 62
     1
440
 16777216
370
    -2
100
AcDbLine
 10
464.7131012537173
 20
451.0047141738221
 30
0.0
 11
205.8773648276964
 21
451.0047141738221
 31
0.0
  0
LINE
  5
4CB0
330
460F
100
AcDbEntity
  8
9：寸法線
 62
     1
440
 16777216
370
    -2
100
AcDbLine
 10
213.8773648276964
 20
831.0047141738222
 30
0.0
 11
213.8773648276963
 21
471.0047141738221
 31
0.0
  0
INSERT
  5
4CB1
330
460F
100
AcDbEntity
  8
9：寸法線
 62
     1
440
 16777216
370
    -2
100
AcDbBlockReference
  2
_OPEN
 10
213.8773648276964
 20
851.0047141738223
 30
0.0
 41
20.0
 42
20.0
 43
20.0
 50
90.0
  0
INSERT
  5
4CB2
330
460F
100
AcDbEntity
  8
9：寸法線
 62
     1
440
 16777216
370
    -2
100
AcDbBlockReference
  2
_OPEN
 10
213.8773648276963
 20
451.0047141738221
 30
0.0
 41
20.0
 42
20.0
 43
20.0
 50
270.0
  0
MTEXT
  5
4CB3
330
460F
100
AcDbEntity
  8
9：寸法線
 62
     2
440
 16777216
100
AcDbMText
 10
193.8773648276962
 20
651.0047141738222
 30
0.0
 40
24.0
 41
0.0
 46
0.0
 71
     5
 72
     1
  1
\A1;400以上推奨
 11
0.0000000000000001
 21
1.0
 31
0.0
 73
     1
 44
1.0
  0
POINT
  5
4CB4
330
460F
100
AcDbEntity
  8
DEFPOINTS
 62
     0
440
 16777216
100
AcDbPoint
 10
418.1132274494957
 20
851.0047141738223
 30
0.0
  0
POINT
  5
4CB5
330
460F
100
AcDbEntity
  8
DEFPOINTS
 62
     0
440
 16777216
100
AcDbPoint
 10
474.7131012537173
 20
451.0047141738221
 30
0.0
  0
POINT
  5
4CB6
330
460F
100
AcDbEntity
  8
DEFPOINTS
 62
     0
440
 16777216
100
AcDbPoint
 10
213.8773648276963
 20
451.0047141738221
 30
0.0
  0
ENDBLK
  5
4611
330
460F
100
AcDbEntity
  8
0
100
AcDbBlockEnd
  0
BLOCK
  5
462F
330
462E
100
AcDbEntity
  8
0
100
AcDbBlockBegin
  2
*D7
 70
     1
 10
0.0
 20
0.0
 30
0.0
  3
*D7
  1

  0
LINE
  5
4CB7
330
462E
100
AcDbEntity
  8
9：寸法線
 62
     1
440
 16777216
370
    -2
100
AcDbLine
 10
464.7131012537173
 20
451.0047141738221
 30
0.0
 11
205.8773648276963
 21
451.0047141738221
 31
0.0
  0
LINE
  5
4CB8
330
462E
100
AcDbEntity
  8
9：寸法線
 62
     1
440
 16777216
370
    -2
100
AcDbLine
 10
464.7131012537173
 20
351.0047141738222
 30
0.0
 11
205.8773648276963
 21
351.0047141738222
 31
0.0
  0
LINE
  5
4CB9
330
462E
100
AcDbEntity
  8
9：寸法線
 62
     1
440
 16777216
370
    -2
100
AcDbLine
 10
213.8773648276963
 20
431.0047141738222
 30
0.0
 11
213.8773648276963
 21
371.0047141738221
 31
0.0
  0
INSERT
  5
4CBA
330
462E
100
AcDbEntity
  8
9：寸法線
 62
     1
440
 16777216
370
    -2
100
AcDbBlockReference
  2
_OPEN
 10
213.8773648276963
 20
451.0047141738221
 30
0.0
 41
20.0
 42
20.0
 43
20.0
 50
90.0
  0
INSERT
  5
4CBB
330
462E
100
AcDbEntity
  8
9：寸法線
 62
     1
440
 16777216
370
    -2
100
AcDbBlockReference
  2
_OPEN
 10
213.8773648276963
 20
351.0047141738222
 30
0.0
 41
20.0
 42
20.0
 43
20.0
 50
270.0
  0
MTEXT
  5
4CBC
330
462E
100
AcDbEntity
  8
9：寸法線
 62
     2
440
 16777216
100
AcDbMText
 10
192.6773648276962
 20
401.0047141738221
 30
0.0
 40
24.0
 41
0.0
 46
0.0
 71
     5
 72
     1
  1
\A1;(100)
 11
0.0000000000000001
 21
1.0
 31
0.0
 73
     1
 44
1.0
  0
POINT
  5
4CBD
330
462E
100
AcDbEntity
  8
DEFPOINTS
 62
     0
440
 16777216
100
AcDbPoint
 10
474.7131012537173
 20
451.0047141738221
 30
0.0
  0
POINT
  5
4CBE
330
462E
100
AcDbEntity
  8
DEFPOINTS
 62
     0
440
 16777216
100
AcDbPoint
 10
474.7131012537173
 20
351.0047141738222
 30
0.0
  0
POINT
  5
4CBF
330
462E
100
AcDbEntity
  8
DEFPOINTS
 62
     0
440
 16777216
100
AcDbPoint
 10
213.8773648276963
 20
351.0047141738222
 30
0.0
  0
ENDBLK
  5
4630
330
462E
100
AcDbEntity
  8
0
100
AcDbBlockEnd
  0
BLOCK
  5
464E
330
464D
100
AcDbEntity
  8
0
100
AcDbBlockBegin
  2
*D8
 70
     1
 10
0.0
 20
0.0
 30
0.0
  3
*D8
  1

  0
LINE
  5
4CC0
330
464D
100
AcDbEntity
  8
9：寸法線
 62
     1
440
 16777216
370
    -2
100
AcDbLine
 10
524.7131012537173
 20
441.0047141738221
 30
0.0
 11
524.7131012537173
 21
255.4843328680509
 31
0.0
  0
LINE
  5
4CC1
330
464D
100
AcDbEntity
  8
9：寸法線
 62
     1
440
 16777216
370
    -2
100
AcDbLine
 10
924.7131012537174
 20
441.0047141738221
 30
0.0
 11
924.7131012537174
 21
255.4843328680509
 31
0.0
  0
LINE
  5
4CC2
330
464D
100
AcDbEntity
  8
9：寸法線
 62
     1
440
 16777216
370
    -2
100
AcDbLine
 10
544.7131012537173
 20
263.4843328680509
 30
0.0
 11
904.7131012537176
 21
263.4843328680509
 31
0.0
  0
INSERT
  5
4CC3
330
464D
100
AcDbEntity
  8
9：寸法線
 62
     1
440
 16777216
370
    -2
100
AcDbBlockReference
  2
_OPEN
 10
524.7131012537173
 20
263.4843328680509
 30
0.0
 41
20.0
 42
20.0
 43
20.0
 50
180.0
  0
INSERT
  5
4CC4
330
464D
100
AcDbEntity
  8
9：寸法線
 62
     1
440
 16777216
370
    -2
100
AcDbBlockReference
  2
_OPEN
 10
924.7131012537174
 20
263.4843328680509
 30
0.0
 41
20.0
 42
20.0
 43
20.0
  0
MTEXT
  5
4CC5
330
464D
100
AcDbEntity
  8
9：寸法線
 62
     2
440
 16777216
100
AcDbMText
 10
724.7131012537173
 20
283.4843328680508
 30
0.0
 40
24.0
 41
0.0
 46
0.0
 71
     5
 72
     1
  1
\A1;□400以上推奨
 73
     1
 44
1.0
  0
POINT
  5
4CC6
330
464D
100
AcDbEntity
  8
DEFPOINTS
 62
     0
440
 16777216
100
AcDbPoint
 10
524.7131012537173
 20
451.0047141738221
 30
0.0
  0
POINT
  5
4CC7
330
464D
100
AcDbEntity
  8
DEFPOINTS
 62
     0
440
 16777216
100
AcDbPoint
 10
924.7131012537174
 20
451.0047141738221
 30
0.0
  0
POINT
  5
4CC8
330
464D
100
AcDbEntity
  8
DEFPOINTS
 62
     0
440
 16777216
100
AcDbPoint
 10
924.7131012537174
 20
263.4843328680509
 30
0.0
  0
ENDBLK
  5
464F
330
464D
100
AcDbEntity
  8
0
100
AcDbBlockEnd
  0
BLOCK
  5
46D2
330
46D1
100
AcDbEntity
  8
0
100
AcDbBlockBegin
  2
*D9
 70
     1
 10
0.0
 20
0.0
 30
0.0
  3
*D9
  1

  0
LINE
  5
4CC9
330
46D1
100
AcDbEntity
  8
9：寸法線
 62
     1
440
 16777216
370
    -2
100
AcDbLine
 10
654.7131012537175
 20
1356.219860687014
 30
0.0
 11
654.7131012537175
 21
1354.219860687014
 31
0.0
  0
LINE
  5
4CCA
330
46D1
100
AcDbEntity
  8
9：寸法線
 62
     1
440
 16777216
370
    -2
100
AcDbLine
 10
794.7131012537173
 20
1356.219860687014
 30
0.0
 11
794.7131012537173
 21
1354.219860687014
 31
0.0
  0
LINE
  5
4CCB
330
46D1
100
AcDbEntity
  8
9：寸法線
 62
     1
440
 16777216
370
    -2
100
AcDbLine
 10
674.7131012537173
 20
1346.219860687014
 30
0.0
 11
774.7131012537175
 21
1346.219860687014
 31
0.0
  0
LINE
  5
4CCC
330
46D1
100
AcDbEntity
  8
9：寸法線
 62
     1
440
 16777216
370
    -2
100
AcDbLine
 10
794.7131012537173
 20
1346.219860687014
 30
0.0
 11
900.3137333665799
 21
1346.219860687014
 31
0.0
  0
INSERT
  5
4CCD
330
46D1
100
AcDbEntity
  8
9：寸法線
 62
     1
440
 16777216
370
    -2
100
AcDbBlockReference
  2
_OPEN
 10
654.7131012537175
 20
1346.219860687014
 30
0.0
 41
20.0
 42
20.0
 43
20.0
 50
180.0
  0
INSERT
  5
4CCE
330
46D1
100
AcDbEntity
  8
9：寸法線
 62
     1
440
 16777216
370
    -2
100
AcDbBlockReference
  2
_OPEN
 10
794.7131012537173
 20
1346.219860687014
 30
0.0
 41
20.0
 42
20.0
 43
20.0
  0
MTEXT
  5
4CCF
330
46D1
100
AcDbEntity
  8
9：寸法線
 62
     2
440
 16777216
100
AcDbMText
 10
858.1042845476821
 20
1366.219860687014
 30
0.0
 40
24.0
 41
0.0
 46
0.0
 71
     5
 72
     1
  1
\A1;φ140
 73
     1
 44
1.0
  0
POINT
  5
4CD0
330
46D1
100
AcDbEntity
  8
DEFPOINTS
 62
     0
440
 16777216
100
AcDbPoint
 10
654.7131012537175
 20
1346.219860687014
 30
0.0
  0
POINT
  5
4CD1
330
46D1
100
AcDbEntity
  8
DEFPOINTS
 62
     0
440
 16777216
100
AcDbPoint
 10
794.7131012537173
 20
1346.219860687014
 30
0.0
  0
POINT
  5
4CD2
330
46D1
100
AcDbEntity
  8
DEFPOINTS
 62
     0
440
 16777216
100
AcDbPoint
 10
794.7131012537173
 20
1346.219860687014
 30
0.0
  0
ENDBLK
  5
46D3
330
46D1
100
AcDbEntity
  8
0
100
AcDbBlockEnd
  0
BLOCK
  5
4A70
330
4A6F
100
AcDbEntity
  8
0
100
AcDbBlockBegin
  2
*D10
 70
     1
 10
0.0
 20
0.0
 30
0.0
  3
*D10
  1

  0
LINE
  5
66E4
330
4A6F
100
AcDbEntity
  8
9：寸法線
 62
     1
440
 16777216
370
    -2
100
AcDbLine
 10
1323.412693900138
 20
1674.01064054699
 30
0.0
 11
1312.318585997713
 21
1679.183908022289
 31
0.0
  0
LINE
  5
66E5
330
4A6F
100
AcDbEntity
  8
9：寸法線
 62
     1
440
 16777216
370
    -2
100
AcDbLine
 10
1566.570338110148
 20
1340.611847325533
 30
0.0
 11
1566.570338110148
 21
1280.088599774546
 31
0.0
  0
ARC
  5
66E6
330
4A6F
100
AcDbEntity
  8
9：寸法線
 62
     1
440
 16777216
370
    -2
100
AcDbCircle
 10
1566.570338110148
 20
1560.624368912932
 30
0.0
 40
272.5357691383861
100
AcDbArc
 50
159.2055869611002
 51
265.7944130388993
  0
INSERT
  5
66E7
330
4A6F
100
AcDbEntity
  8
9：寸法線
 62
     1
440
 16777216
370
    -2
100
AcDbBlockReference
  2
_OPEN
 10
1319.569048294007
 20
1675.802961928363
 30
0.0
 41
20.0
 42
20.0
 43
20.0
 50
67.10279348054985
  0
INSERT
  5
66E8
330
4A6F
100
AcDbEntity
  8
9：寸法線
 62
     1
440
 16777216
370
    -2
100
AcDbBlockReference
  2
_OPEN
 10
1566.570338110148
 20
1288.088599774546
 30
0.0
 41
20.0
 42
20.0
 43
20.0
 50
357.8972065194496
  0
MTEXT
  5
66E9
330
4A6F
100
AcDbEntity
  8
9：寸法線
 62
     2
440
 16777216
100
AcDbMText
 10
1367.433841123923
 20
1445.939183045865
 30
0.0
 40
24.0
 41
0.0
 46
0.0
 71
     5
 72
     1
  1
\A1;開閉角度：115°
 11
0.4990652301844689
 21
-0.8665644211603217
 31
0.0
 73
     1
 44
1.0
  0
POINT
  5
66EA
330
4A6F
100
AcDbEntity
  8
DEFPOINTS
 62
     0
440
 16777216
100
AcDbPoint
 10
1397.533981450427
 20
1346.843042349877
 30
0.0
  0
POINT
  5
66EB
330
4A6F
100
AcDbEntity
  8
DEFPOINTS
 62
     0
440
 16777216
100
AcDbPoint
 10
1566.570338110148
 20
1861.204714173802
 30
0.0
  0
POINT
  5
66EC
330
4A6F
100
AcDbEntity
  8
DEFPOINTS
 62
     0
440
 16777216
100
AcDbPoint
 10
1332.475771770504
 20
1669.784457929583
 30
0.0000000000002274
  0
POINT
  5
66ED
330
4A6F
100
AcDbEntity
  8
DEFPOINTS
 62
     0
440
 16777216
100
AcDbPoint
 10
1479.29763327044
 20
1601.320299527589
 30
0.0000000000002274
  0
POINT
  5
66EE
330
4A6F
100
AcDbEntity
  8
DEFPOINTS
 62
     0
440
 16777216
100
AcDbPoint
 10
1566.570338110148
 20
1350.611847325533
 30
0.0
  0
ENDBLK
  5
4A71
330
4A6F
100
AcDbEntity
  8
0
100
AcDbBlockEnd
  0
BLOCK
  5
4B56
330
4B55
100
AcDbEntity
  8
0
100
AcDbBlockBegin
  2
*D11
 70
     1
 10
0.0
 20
0.0
 30
0.0
  3
*D11
  1

  0
LINE
  5
4CD3
330
4B55
100
AcDbEntity
  8
9：寸法線
 62
     1
440
 16777216
370
    -2
100
AcDbLine
 10
408.1132274494956
 20
851.0047141738223
 30
0.0
 11
317.8773648276963
 21
851.0047141738223
 31
0.0
  0
LINE
  5
4CD4
330
4B55
100
AcDbEntity
  8
9：寸法線
 62
     1
440
 16777216
370
    -2
100
AcDbLine
 10
639.8443910420901
 20
951.0047141741807
 30
0.0
 11
317.8773648276964
 21
951.0047141741807
 31
0.0
  0
LINE
  5
4CD5
330
4B55
100
AcDbEntity
  8
9：寸法線
 62
     1
440
 16777216
370
    -2
100
AcDbLine
 10
325.8773648276963
 20
871.004714173822
 30
0.0
 11
325.8773648276964
 21
931.0047141741808
 31
0.0
  0
INSERT
  5
4CD6
330
4B55
100
AcDbEntity
  8
9：寸法線
 62
     1
440
 16777216
370
    -2
100
AcDbBlockReference
  2
_OPEN
 10
325.8773648276963
 20
851.0047141738223
 30
0.0
 41
20.0
 42
20.0
 43
20.0
 50
270.0
  0
INSERT
  5
4CD7
330
4B55
100
AcDbEntity
  8
9：寸法線
 62
     1
440
 16777216
370
    -2
100
AcDbBlockReference
  2
_OPEN
 10
325.8773648276964
 20
951.0047141741807
 30
0.0
 41
20.0
 42
20.0
 43
20.0
 50
90.0
  0
MTEXT
  5
4CD8
330
4B55
100
AcDbEntity
  8
9：寸法線
 62
     2
440
 16777216
100
AcDbMText
 10
305.8773648276962
 20
901.0047141740015
 30
0.0
 40
24.0
 41
0.0
 46
0.0
 71
     5
 72
     1
  1
\A1;100
 11
0.0000000000000001
 21
1.0
 31
0.0
 73
     1
 44
1.0
  0
POINT
  5
4CD9
330
4B55
100
AcDbEntity
  8
DEFPOINTS
 62
     0
440
 16777216
100
AcDbPoint
 10
418.1132274494957
 20
851.0047141738223
 30
0.0
  0
POINT
  5
4CDA
330
4B55
100
AcDbEntity
  8
DEFPOINTS
 62
     0
440
 16777216
100
AcDbPoint
 10
649.8443910420901
 20
951.0047141741807
 30
-0.0000000000034106
  0
POINT
  5
4CDB
330
4B55
100
AcDbEntity
  8
DEFPOINTS
 62
     0
440
 16777216
100
AcDbPoint
 10
325.8773648276964
 20
951.0047141741807
 30
0.0
  0
ENDBLK
  5
4B57
330
4B55
100
AcDbEntity
  8
0
100
AcDbBlockEnd
  0
ENDSEC
  0
SECTION
  2
ENTITIES
  0
SPLINE
  5
51BA
330
18
100
AcDbEntity
  8
1：主線
100
AcDbSpline
210
0.0000000000000223
220
-0.0000000000000351
230
1.0
 70
     9
 71
     3
 72
    38
 73
    34
 74
     0
 42
0.000000001
 43
0.0000000001
 40
0.0
 40
0.0
 40
0.0
 40
0.0
 40
0.377244205563716
 40
0.377244205563716
 40
0.7544884111274323
 40
0.7544884111274323
 40
1.131727215958038
 40
1.131727215958038
 40
1.508966020788646
 40
1.508966020788646
 40
1.886204825619254
 40
1.886204825619254
 40
2.263443630449861
 40
2.263443630449861
 40
2.640687836013578
 40
2.640687836013578
 40
3.017932041577293
 40
3.017932041577293
 40
3.395176247141009
 40
3.395176247141009
 40
3.772420452704726
 40
3.772420452704726
 40
4.149659257535333
 40
4.149659257535333
 40
4.52689806236594
 40
4.52689806236594
 40
4.904136867196547
 40
4.904136867196547
 40
5.281375672027155
 40
5.281375672027155
 40
5.65861987759087
 40
5.65861987759087
 40
6.035864083154587
 40
6.035864083154587
 40
6.035864083154587
 40
6.035864083154587
 10
1984.830577581042
 20
-96.29467621850583
 30
0.0000000000012079
 10
1984.830577581042
 20
-96.80870107787567
 30
0.0000000000016058
 10
1984.754956236804
 20
-97.41542819588879
 30
0.0000000000015773
 10
1984.442015680133
 20
-98.65791315868515
 30
0.0000000000019468
 10
1984.204016304784
 20
-99.29330258674847
 30
0.000000000001151
 10
1983.640569232011
 20
-100.4161750407013
 30
0.0000000000010942
 10
1983.277256536037
 20
-100.9788490679477
 30
0.0000000000016058
 10
1982.45406383653
 20
-101.9252343659984
 30
0.000000000001691
 10
1981.993463783843
 20
-102.308550388822
 30
0.000000000002231
 10
1981.104303393769
 20
-102.820583803499
 30
0.0000000000021458
 10
1980.617301591343
 20
-102.982955396819
 30
0.00000000000243
 10
1979.698683474145
 20
-103.0396122384693
 30
0.0000000000009236
 10
1979.267686369598
 20
-102.9343508040603
 30
0.0000000000014921
 10
1978.576890189086
 20
-102.5337490033946
 30
0.0000000000009521
 10
1978.270902406858
 20
-102.211620945208
 30
0.0000000000021458
 10
1977.861839314197
 20
-101.3849102320325
 30
0.0000000000010658
 10
1977.759509769175
 20
-100.8806582158001
 30
0.0000000000016342
 10
1977.759509769179
 20
-99.85260849705916
 30
0.0000000000016626
 10
1977.861839314197
 20
-99.26126160897977
 30
0.00000000000081
 10
1978.270902406858
 20
-98.07412993326231
 30
0.0000000000019468
 10
1978.576890189086
 20
-97.47789242483143
 30
0.0000000000014921
 10
1979.267686369598
 20
-96.42835544467894
 30
0.00000000000135
 10
1979.698683474145
 20
-95.90465827608452
 30
0.0000000000019468
 10
1980.617301591343
 20
-95.01322482138252
 30
0.0000000000025153
 10
1981.104303393769
 20
-94.64511255507366
 30
0.0000000000022026
 10
1981.993463783843
 20
-94.13307914039634
 30
0.0000000000022879
 10
1982.45406383653
 20
-93.95550379056183
 30
0.0000000000022595
 10
1983.277256536037
 20
-93.84389510556335
 30
0.0000000000021742
 10
1983.640569232011
 20
-93.91017968131993
 30
0.0000000000014352
 10
1984.204016304785
 20
-94.23744600818579
 30
0.0000000000016626
 10
1984.442015680133
 20
-94.52042214673904
 30
0.0000000000017479
 10
1984.754956236806
 20
-95.29177957283641
 30
0.00000000000135
 10
1984.830577581042
 20
-95.78065135913547
 30
0.0000000000012079
 10
1984.830577581042
 20
-96.29467621850583
 30
0.0000000000012079
  0
SPLINE
  5
51BB
330
18
100
AcDbEntity
  8
1：主線
100
AcDbSpline
210
-0.0000000000044058
220
-0.0000000000013979
230
1.0
 70
     8
 71
     3
 72
    10
 73
     6
 74
     0
 42
0.000000001
 43
0.0000000001
 40
0.0
 40
0.0
 40
0.0
 40
0.0
 40
0.3772869405759736
 40
0.3772869405759736
 40
0.5626640281096309
 40
0.5626640281096309
 40
0.5626640281096309
 40
0.5626640281096309
 10
1983.937189638833
 20
-95.78020831846627
 30
0.0000000000018047
 10
1983.937189638833
 20
-95.26612522928529
 30
0.0000000000014921
 10
1983.862057783882
 20
-94.7775335416583
 30
0.0000000000016342
 10
1983.630049840971
 20
-94.20315227884762
 30
0.0000000000019184
 10
1983.534022056565
 20
-94.03876500848648
 30
0.000000000001691
 10
1983.422834794424
 20
-93.90116617988836
 30
0.000000000002231
  0
SPLINE
  5
51BC
330
18
100
AcDbEntity
  8
1：主線
100
AcDbSpline
210
-0.000000000000059
220
0.0000000000000243
230
1.0
 70
     8
 71
     3
 72
    18
 73
    14
 74
     0
 42
0.000000001
 43
0.0000000001
 40
3.933036214784614
 40
3.933036214784614
 40
3.933036214784614
 40
3.933036214784614
 40
4.150125065202978
 40
4.150125065202978
 40
4.527405749552405
 40
4.527405749552405
 40
4.904686433901833
 40
4.904686433901833
 40
5.28196711825126
 40
5.28196711825126
 40
5.659254058827231
 40
5.659254058827231
 40
6.036540999403206
 40
6.036540999403206
 40
6.036540999403206
 40
6.036540999403206
 10
1978.517050615932
 20
-102.423995943235
 30
0.0000000000011226
 10
1978.752335313931
 20
-102.4891999629783
 30
0.0000000000016626
 10
1979.007871685184
 20
-102.5175009441983
 30
0.0000000000019184
 10
1979.732856228144
 20
-102.473696339173
 30
0.0000000000014637
 10
1980.220370561799
 20
-102.3116175831925
 30
0.0000000000017479
 10
1981.109629662847
 20
-101.7995273246476
 30
0.0000000000019468
 10
1981.569759969387
 20
-101.415893826195
 30
0.0000000000014637
 10
1982.391165034181
 20
-100.4684776311225
 30
0.0000000000013215
 10
1982.753187374966
 20
-99.90510463234082
 30
0.0000000000020889
 10
1983.314203636171
 20
-98.78095309381993
 30
0.0000000000016342
 10
1983.550918053608
 20
-98.14486890062447
 30
0.000000000001691
 10
1983.862057783882
 20
-96.90134724393713
 30
0.0000000000017195
 10
1983.937189638835
 20
-96.29429140764679
 30
0.0000000000016342
 10
1983.937189638833
 20
-95.78020831846627
 30
0.0000000000018047
  0
SPLINE
  5
51BD
330
18
100
AcDbEntity
  8
1：主線
100
AcDbSpline
210
0.0000000000000516
220
-0.0000000000001097
230
1.0
 70
     9
 71
     3
 72
    38
 73
    34
 74
     0
 42
0.000000001
 43
0.0000000001
 40
0.0
 40
0.0
 40
0.0
 40
0.0
 40
0.1507099198919023
 40
0.1507099198919023
 40
0.3014198397838046
 40
0.3014198397838046
 40
0.4521297053248376
 40
0.4521297053248376
 40
0.6028395708658703
 40
0.6028395708658703
 40
0.7535494364069029
 40
0.7535494364069029
 40
0.9042593019479355
 40
0.9042593019479355
 40
1.054969221839836
 40
1.054969221839836
 40
1.205679141731739
 40
1.205679141731739
 40
1.356389061623642
 40
1.356389061623642
 40
1.507098981515544
 40
1.507098981515544
 40
1.657808847056576
 40
1.657808847056576
 40
1.80851871259761
 40
1.80851871259761
 40
1.959228578138641
 40
1.959228578138641
 40
2.109938443679675
 40
2.109938443679675
 40
2.260648363571576
 40
2.260648363571576
 40
2.411358283463479
 40
2.411358283463479
 40
2.411358283463479
 40
2.411358283463479
 10
1982.92265801086
 20
55.65093321574321
 30
0.0000000000018758
 10
1982.92265801086
 20
55.44557911292182
 30
0.0000000000015347
 10
1982.889266233558
 20
55.20490601701275
 30
0.0000000000016768
 10
1982.752559078799
 20
54.71455312954472
 30
0.0000000000016058
 10
1982.64913583117
 20
54.46493411309134
 30
0.0000000000013358
 10
1982.408208782339
 20
54.0242036082839
 30
0.00000000000162
 10
1982.254614099316
 20
53.80370022605783
 30
0.0000000000009947
 10
1981.913814221365
 20
53.43178720426582
 30
0.0000000000013926
 10
1981.726496868667
 20
53.28044087180083
 30
0.0000000000014779
 10
1981.371270308949
 20
53.07587950088569
 30
0.0000000000015773
 10
1981.179736250835
 20
53.00905981550048
 30
0.0000000000023874
 10
1980.82369290934
 20
52.9796875156218
 30
0.0000000000014637
 10
1980.659289263129
 20
53.01706783906482
 30
0.0000000000017052
 10
1980.398055259835
 20
53.16862302622602
 30
0.0000000000014779
 10
1980.283815339089
 20
53.29289816029874
 30
0.0000000000022453
 10
1980.131847088573
 20
53.61701393785168
 30
0.00000000000162
 10
1980.094230886118
 20
53.81679625775203
 30
0.0000000000013215
 10
1980.094230886116
 20
54.22750446339492
 30
0.0000000000020179
 10
1980.131847088573
 20
54.46574487465048
 30
0.0000000000013073
 10
1980.283815339091
 20
54.9473094815551
 30
0.0000000000014637
 10
1980.398055259835
 20
55.19069959022741
 30
0.0000000000021742
 10
1980.659289263129
 20
55.61973609769873
 30
0.0000000000017763
 10
1980.823692909338
 20
55.83401501199765
 30
0.0000000000022879
 10
1981.179736250835
 20
56.19714990694254
 30
0.0000000000020321
 10
1981.371270308948
 20
56.34606800025611
 30
0.0000000000018047
 10
1981.726496868667
 20
56.55062937117126
 30
0.0000000000017052
 10
1981.913814221365
 20
56.619877295708
 30
0.000000000001961
 10
1982.254614099314
 20
56.65802772243367
 30
0.0000000000018331
 10
1982.408208782339
 20
56.62687186691735
 30
0.0000000000012363
 10
1982.64913583117
 20
56.48701067709296
 30
0.0000000000024726
 10
1982.752559078799
 20
56.36896445080108
 30
0.0000000000017337
 10
1982.889266233558
 20
56.053636953812
 30
0.0000000000022595
 10
1982.92265801086
 20
55.85628731856402
 30
0.000000000002231
 10
1982.92265801086
 20
55.65093321574321
 30
0.0000000000018758
  0
SPLINE
  5
51BE
330
18
100
AcDbEntity
  8
1：主線
100
AcDbSpline
210
0.0000000000064288
220
0.0000000000010946
230
1.0
 70
     8
 71
     3
 72
     8
 73
     4
 74
     0
 42
0.000000001
 43
0.0000000001
 40
0.0
 40
0.0
 40
0.0
 40
0.0
 40
0.1200313875676943
 40
0.1200313875676943
 40
0.1200313875676943
 40
0.1200313875676943
 10
1982.037274198949
 20
56.16079184369417
 30
0.000000000001421
 10
1982.037274198952
 20
56.32434403668927
 30
0.0000000000017337
 10
1982.016143065144
 20
56.48278857540597
 30
0.0000000000020889
 10
1981.973080884765
 20
56.62012609483671
 30
0.000000000001151
  0
SPLINE
  5
51BF
330
18
100
AcDbEntity
  8
1：主線
100
AcDbSpline
210
0.0000000000007248
220
-0.0000000000004371
230
1.0
 70
     8
 71
     3
 72
    16
 73
    12
 74
     0
 42
0.000000001
 43
0.0000000001
 40
1.676279246731224
 40
1.676279246731224
 40
1.676279246731224
 40
1.676279246731224
 40
1.808550647219025
 40
1.808550647219025
 40
1.959263169715481
 40
1.959263169715481
 40
2.109975692211936
 40
2.109975692211936
 40
2.260688277585318
 40
2.260688277585318
 40
2.411400862958701
 40
2.411400862958701
 40
2.411400862958701
 40
2.411400862958701
 10
1980.183561211264
 20
53.51116780480575
 30
0.0000000000023589
 10
1980.342452094515
 20
53.53497080842467
 30
0.0000000000014068
 10
1980.50911677192
 20
53.59738758302424
 30
0.0000000000014779
 10
1980.842616523436
 20
53.78943731720963
 30
0.0000000000017195
 10
1981.029857085416
 20
53.94083084340369
 30
0.0000000000016768
 10
1981.370373637428
 20
54.31290708908207
 30
0.0000000000015347
 10
1981.52376603772
 20
54.53352414861754
 30
0.0000000000007247
 10
1981.764313203397
 20
54.97446575598647
 30
0.0000000000011794
 10
1981.867535208594
 20
55.22419783404828
 30
0.0000000000020179
 10
1982.003959784315
 20
55.71471349053152
 30
0.0000000000020321
 10
1982.037274198952
 20
55.95543410894496
 30
0.0000000000014494
 10
1982.037274198949
 20
56.16079184369417
 30
0.000000000001421
  0
LINE
  5
51C0
330
18
100
AcDbEntity
  8
2：副線
100
AcDbLine
 10
1983.995452138533
 20
-43.74979851389414
 30
0.0000000000018047
 11
1983.995452138533
 21
-5.383999922820038
 31
0.0000000000021174
210
-0.0000000000000001
220
0.8175471248425397
230
0.5758617009853122
  0
LINE
  5
51C1
330
18
100
AcDbEntity
  8
2：副線
100
AcDbLine
 10
1985.260690698053
 20
-41.65200930889866
 30
0.0000000000015205
 11
1985.260690698053
 21
-5.11474627951955
 31
0.0000000000018616
210
-0.0000000000000001
220
0.8175471248425397
230
0.5758617009853122
  0
LINE
  5
51C2
330
18
100
AcDbEntity
  8
2：副線
100
AcDbLine
 10
1987.249621659497
 20
-35.76614820044083
 30
0.0000000000018331
 11
1987.249621659497
 21
-6.378139714122681
 31
0.0000000000014352
210
-0.0000000000000001
220
0.8175471248425397
230
0.5758617009853122
  0
SPLINE
  5
51C3
330
18
100
AcDbEntity
  8
1：主線
100
AcDbSpline
210
-0.0000000000002538
220
-0.0000000000001087
230
1.0
 70
     8
 71
     3
 72
    15
 73
    11
 74
     0
 42
0.000000001
 43
0.0000000001
 40
-0.7180274131147674
 40
-0.7180274131147674
 40
-0.7180274131147674
 40
-0.7180274131147674
 40
-0.3772869405759742
 40
-0.3772869405759742
 40
0.0
 40
0.0
 40
0.0
 40
0.377286940575974
 40
0.377286940575974
 40
0.5626501436487962
 40
0.5626501436487962
 40
0.5626501436487962
 40
0.5626501436487962
 10
1930.486266331647
 20
-88.95839271220367
 30
0.0000000000017763
 10
1930.240445846883
 20
-88.43878903646581
 30
0.0000000000010373
 10
1930.034304931528
 20
-87.86530204052017
 30
0.0000000000010089
 10
1929.73823471067
 20
-86.68200818341004
 30
0.0000000000014352
 10
1929.66310285572
 20
-86.07495234711981
 30
0.0000000000012079
 10
1929.663102855718
 20
-85.56086925794003
 30
0.0000000000018047
 10
1929.663102855718
 20
-85.04678616875812
 30
0.0000000000019752
 10
1929.73823471067
 20
-84.55819448113127
 30
0.00000000000135
 10
1929.970236928488
 20
-83.98382739191967
 30
0.0000000000015489
 10
1930.066094766729
 20
-83.81917528571486
 30
0.0000000000022879
 10
1930.177198625786
 20
-83.68145861488775
 30
0.0000000000014637
  0
LINE
  5
51C4
330
18
100
AcDbEntity
  8
1：主線
100
AcDbLine
 10
1987.806665825819
 20
-10.14584326628645
 30
0.0000000000018616
 11
1987.806665825819
 21
-30.58452138734961
 31
0.0000000000016342
210
-0.0000000000000001
220
0.8175471248425397
230
0.5758617009853122
  0
SPLINE
  5
51C5
330
18
100
AcDbEntity
  8
1：主線
100
AcDbSpline
210
0.0000000000010923
220
0.0000000000003806
230
1.0
 70
     8
 71
     3
 72
    14
 73
    10
 74
     0
 42
0.000000001
 43
0.0000000001
 40
-1.65969738286359
 40
-1.65969738286359
 40
-1.65969738286359
 40
-1.65969738286359
 40
-1.427945396385414
 40
-1.427945396385414
 40
-0.9519635975902767
 40
-0.9519635975902767
 40
-0.4759817987951395
 40
-0.4759817987951395
 40
0.0
 40
0.0
 40
0.0
 40
0.0
 10
1986.495716829949
 20
-5.217829524909319
 30
0.0000000000017195
 10
1986.618824515966
 20
-5.333494072294143
 30
0.0000000000015773
 10
1986.734231246784
 20
-5.466156209363674
 30
0.000000000001151
 10
1987.060010882907
 20
-5.924816836557766
 30
0.0000000000015205
 10
1987.242566640705
 20
-6.307320226855352
 30
0.0000000000015773
 10
1987.530459496008
 20
-7.208644212945984
 30
0.0000000000017195
 10
1987.636209021306
 20
-7.728407716724433
 30
0.00000000000081
 10
1987.774297787246
 20
-8.87266498662646
 30
0.0000000000012363
 10
1987.806665825819
 20
-9.497280681150044
 30
0.0000000000020889
 10
1987.806665825817
 20
-10.14584326628684
 30
0.0000000000022879
  0
SPLINE
  5
51C6
330
18
100
AcDbEntity
  8
1：主線
100
AcDbSpline
210
0.0000000000000234
220
-0.0000000000000127
230
1.0
 70
     8
 71
     3
 72
    30
 73
    26
 74
     0
 42
0.000000001
 43
0.0000000001
 40
0.0
 40
0.0
 40
0.0
 40
0.0
 40
0.4759817987951391
 40
0.4759817987951391
 40
0.9519635975902779
 40
0.9519635975902779
 40
1.427945396385416
 40
1.427945396385416
 40
1.903927195180555
 40
1.903927195180555
 40
2.379563410227772
 40
2.379563410227772
 40
2.85519962527499
 40
2.85519962527499
 40
3.330835840322206
 40
3.330835840322206
 40
3.806472055369423
 40
3.806472055369423
 40
4.282108270416641
 40
4.282108270416641
 40
4.757744485463858
 40
4.757744485463858
 40
5.233380700511075
 40
5.233380700511075
 40
5.558673805580327
 40
5.558673805580327
 40
5.558673805580327
 40
5.558673805580327
 10
1987.806665825819
 20
-30.58452138734961
 30
0.0000000000016058
 10
1987.806665825816
 20
-31.23308397248698
 30
0.0000000000018047
 10
1987.774297787246
 20
-31.94540045705779
 30
0.0000000000013784
 10
1987.636209021306
 20
-33.4520695993422
 30
0.0000000000016626
 10
1987.530459496007
 20
-34.24634985689156
 30
0.0000000000018616
 10
1987.242566640703
 20
-35.85853584344452
 30
0.0000000000008952
 10
1987.060010882904
 20
-36.67773596122228
 30
0.0000000000018616
 10
1986.62180889103
 20
-38.28030091705952
 30
0.0000000000014068
 10
1986.365890504201
 20
-39.06358488520877
 30
0.0000000000018616
 10
1985.798422500263
 20
-40.53421846868949
 30
0.0000000000016626
 10
1985.467102821289
 20
-41.27355557737868
 30
0.0000000000015205
 10
1984.710324078662
 20
-42.69149235012562
 30
0.0000000000012647
 10
1984.284680851762
 20
-43.37004833081451
 30
0.0000000000019468
 10
1983.35366635235
 20
-44.60972373134953
 30
0.0000000000016342
 10
1982.84734434222
 20
-45.17181882064986
 30
0.0000000000014068
 10
1981.783316630685
 20
-46.14117803879546
 30
0.0000000000017763
 10
1981.225542767386
 20
-46.54834648022895
 30
0.0000000000012647
 10
1980.10445745726
 20
-47.19393657386783
 30
0.000000000001691
 10
1979.506187285742
 20
-47.45248961673704
 30
0.0000000000017479
 10
1978.277263685364
 20
-47.8035532413489
 30
0.0000000000020037
 10
1977.646645203551
 20
-47.89617863765736
 30
0.0000000000014921
 10
1976.402857953355
 20
-47.90888827195774
 30
0.0000000000014352
 10
1975.78871699589
 20
-47.82910418033347
 30
0.0000000000011794
 10
1974.809486384214
 20
-47.56608976499935
 30
0.0000000000014637
 10
1974.42711612466
 20
-47.42355200265151
 30
0.0000000000016626
 10
1974.066815215656
 20
-47.25239465588837
 30
0.0000000000025153
  0
SPLINE
  5
51C7
330
18
100
AcDbEntity
  8
1：主線
100
AcDbSpline
210
-0.0000000000113395
220
0.0000000000097909
230
-1.0
 70
     8
 71
     3
 72
    12
 73
     8
 74
     0
 42
0.000000001
 43
0.0000000001
 40
1.023100285602358
 40
1.023100285602358
 40
1.023100285602358
 40
1.023100285602358
 40
1.123253579462375
 40
1.123253579462375
 40
1.233967793027988
 40
1.233967793027988
 40
1.331233556374038
 40
1.331233556374038
 40
1.331233556374038
 40
1.331233556374038
 10
1935.162768660329
 20
-92.12438539050898
 30
0.0000000000020605
 10
1935.121720526707
 20
-92.11213394624449
 30
0.0000000000016058
 10
1935.101164498974
 20
-92.08266734971553
 30
0.0000000000017763
 10
1935.112067657834
 20
-91.9941094656921
 30
0.0000000000017479
 10
1935.15043380108
 20
-91.92746662045895
 30
0.0000000000021174
 10
1935.292389294363
 20
-91.78721564450436
 30
0.0000000000023447
 10
1935.387524207936
 20
-91.71595412740837
 30
0.0000000000022595
 10
1935.498128954208
 20
-91.64866188251815
 30
0.0000000000025437
  0
SPLINE
  5
51C8
330
18
100
AcDbEntity
  8
1：主線
100
AcDbSpline
210
-0.0000000000005162
220
0.0000000000001321
230
1.0
 70
     8
 71
     3
 72
    24
 73
    20
 74
     0
 42
0.000000001
 43
0.0000000001
 40
0.0707436526937742
 40
0.0707436526937742
 40
0.0707436526937742
 40
0.0707436526937742
 40
0.1131906865163388
 40
0.1131906865163388
 40
0.1697850429751548
 40
0.1697850429751548
 40
0.2263793994339708
 40
0.2263793994339708
 40
0.2829737558927868
 40
0.2829737558927868
 40
0.3395681123516028
 40
0.3395681123516028
 40
0.3961634556097722
 40
0.3961634556097722
 40
0.4527587988679417
 40
0.4527587988679417
 40
0.509354142126111
 40
0.509354142126111
 40
0.5631280721297438
 40
0.5631280721297438
 40
0.5631280721297438
 40
0.5631280721297438
 10
1935.803194440659
 20
-90.68689307949094
 30
0.0000000000020889
 10
1935.731579154837
 20
-90.70308520469579
 30
0.0000000000014352
 10
1935.657487488259
 20
-90.71373713582644
 30
0.0000000000017479
 10
1935.492886049333
 20
-90.7238870983363
 30
0.0000000000015489
 10
1935.392521046333
 20
-90.71924290790699
 30
0.0000000000014921
 10
1935.20773432723
 20
-90.68389147227813
 30
0.0000000000014921
 10
1935.123309814506
 20
-90.65305455097334
 30
0.0000000000018616
 10
1934.989915637075
 20
-90.57623795305678
 30
0.0000000000014921
 10
1934.93219115077
 20
-90.52521670998586
 30
0.0000000000011794
 10
1934.855711667316
 20
-90.41011494580075
 30
0.0000000000008952
 10
1934.83694281168
 20
-90.34615450975186
 30
0.0000000000010658
 10
1934.83694281168
 20
-90.22622628107527
 30
0.0000000000016626
 10
1934.855711956714
 20
-90.16223586815547
 30
0.0000000000010089
 10
1934.932190699606
 20
-90.04706498750037
 30
0.0000000000014068
 10
1934.989914474121
 20
-89.99601299549723
 30
0.0000000000012079
 10
1935.12331097746
 20
-89.91919505817955
 30
0.0000000000014637
 10
1935.207735361057
 20
-89.88838937005928
 30
0.0000000000015205
 10
1935.387914415156
 20
-89.85398786227163
 30
0.0000000000010373
 10
1935.482895714913
 20
-89.84893166700638
 30
0.0000000000019184
 10
1935.572830321331
 20
-89.85350093930325
 30
0.0000000000013784
  0
LINE
  5
51C9
330
18
100
AcDbEntity
  8
2：副線
100
AcDbLine
 10
1935.572830321331
 20
-90.71888071082431
 30
0.0000000000014637
 11
1935.572830321331
 21
-89.85350093930279
 31
0.0000000000014068
210
-0.0000000000000001
220
0.8175471248425397
230
0.5758617009853122
  0
SPLINE
  5
51CA
330
18
100
AcDbEntity
  8
1：主線
100
AcDbSpline
210
0.0000000000087148
220
-0.0000000000626652
230
1.0
 70
     8
 71
     3
 72
    10
 73
     6
 74
     0
 42
0.000000001
 43
0.0000000001
 40
-0.0735350065850272
 40
-0.0735350065850272
 40
-0.0735350065850272
 40
-0.0735350065850272
 40
-0.0376368720410181
 40
-0.0376368720410181
 40
-0.0220547815860313
 40
-0.0220547815860313
 40
-0.0220547815860313
 40
-0.0220547815860313
 10
1935.572830321331
 20
-89.85350093930325
 30
0.0000000000013784
 10
1935.632838175183
 20
-89.85654973481244
 30
0.0000000000010089
 10
1935.69632362282
 20
-89.85203592852505
 30
0.0000000000018331
 10
1935.780425575305
 20
-89.83445401282201
 30
0.0000000000020889
 10
1935.804969353206
 20
-89.82767489074078
 30
0.0000000000016626
 10
1935.828140561931
 20
-89.81974469712147
 30
0.0000000000014921
  0
SPLINE
  5
51CB
330
18
100
AcDbEntity
  8
1：主線
100
AcDbSpline
210
0.0000003243580191
220
0.0000015907865212
230
0.9999999999986821
 70
     8
 71
     3
 72
     8
 73
     4
 74
     0
 42
0.000000001
 43
0.0000000001
 40
0.2221502897586703
 40
0.2221502897586703
 40
0.2221502897586703
 40
0.2221502897586703
 40
0.2233998418580228
 40
0.2233998418580228
 40
0.2233998418580228
 40
0.2233998418580228
 10
1935.698850361428
 20
-89.01143653499977
 30
0.0000000000013784
 10
1935.69677050418
 20
-89.01100324105541
 30
0.0000000000011794
 10
1935.694692921681
 20
-89.01057962408847
 30
0.0000000000018047
 10
1935.692617923452
 20
-89.01016576197813
 30
0.0000000000009521
  0
SPLINE
  5
51CC
330
18
100
AcDbEntity
  8
1：主線
100
AcDbSpline
210
0.0000000000002504
220
-0.0000000000039016
230
1.0
 70
     8
 71
     3
 72
    12
 73
     8
 74
     0
 42
0.000000001
 43
0.0000000001
 40
0.8937220467249503
 40
0.8937220467249503
 40
0.8937220467249503
 40
0.8937220467249503
 40
0.9151208046076115
 40
0.9151208046076115
 40
1.067743870696401
 40
1.067743870696401
 40
1.220366936785192
 40
1.220366936785192
 40
1.220366936785192
 40
1.220366936785192
 10
1935.692617923452
 20
-89.01016576197813
 30
0.0000000000009521
 10
1935.657116548851
 20
-89.00308494929337
 30
0.0000000000017763
 10
1935.621856490443
 20
-88.99656046109404
 30
0.0000000000019752
 10
1935.337926829987
 20
-88.94815886975104
 30
0.0000000000022879
 10
1935.071820905114
 20
-88.93030224144078
 30
0.000000000001691
 10
1934.579218348828
 20
-88.98053703423896
 30
0.0000000000012079
 10
1934.352597257746
 20
-89.05001490154907
 30
0.0000000000013215
 10
1934.17272924942
 20
-89.15359399877727
 30
0.0000000000013784
  0
LINE
  5
51CD
330
18
100
AcDbEntity
  8
1：主線
100
AcDbLine
 10
1934.172729280917
 20
-89.15359403281147
 30
0.0000000000018331
 11
1932.716432277455
 21
-89.99221970236547
 31
0.0000000000017195
210
-0.0000000000000001
220
0.8175471248425397
230
0.5758617009853122
  0
SPLINE
  5
51CE
330
18
100
AcDbEntity
  8
1：主線
100
AcDbSpline
210
0.0000000000002195
220
0.000000000000197
230
1.0
 70
     8
 71
     3
 72
    16
 73
    12
 74
     0
 42
0.000000001
 43
0.0000000001
 40
1.344682012838991
 40
1.344682012838991
 40
1.344682012838991
 40
1.344682012838991
 40
1.455396226499985
 40
1.455396226499985
 40
1.566110440160976
 40
1.566110440160976
 40
1.708657245020383
 40
1.708657245020383
 40
1.851204049879791
 40
1.851204049879791
 40
1.897161765860549
 40
1.897161765860549
 40
1.897161765860549
 40
1.897161765860549
 10
1932.716432277455
 20
-89.99221970236547
 30
0.0000000000016342
 10
1932.585954325366
 20
-90.0673569577963
 30
0.0000000000014068
 10
1932.421766044479
 20
-90.11977880946259
 30
0.0000000000012647
 10
1932.06779163487
 20
-90.15229108133482
 30
0.0000000000016342
 10
1931.878158933641
 20
-90.13182531037031
 30
0.0000000000020889
 10
1931.483128124068
 20
-90.01824506205068
 30
0.0000000000012931
 10
1931.259888469672
 20
-89.89826531607665
 30
0.0000000000019184
 10
1930.875939904732
 20
-89.57401137487082
 30
0.0000000000014352
 10
1930.715082948669
 20
-89.37002384107902
 30
0.0000000000023447
 10
1930.556432751797
 20
-89.09886672060352
 30
0.0000000000017479
 10
1930.520069028176
 20
-89.0298432480815
 30
0.0000000000014637
 10
1930.486266331647
 20
-88.95839271220367
 30
0.0000000000017763
  0
LINE
  5
51CF
330
18
100
AcDbEntity
  8
1：主線
100
AcDbLine
 10
1971.07786399358
 20
-41.31083079840826
 30
0.000000000001151
 11
1971.07786399358
 21
-20.87215267734447
 31
0.0000000000018047
210
-0.0000000000000001
220
0.8175471248425397
230
0.5758617009853122
  0
SPLINE
  5
51D0
330
18
100
AcDbEntity
  8
1：主線
100
AcDbSpline
210
-0.0000000000000093
220
0.0000000000000055
230
1.0
 70
     8
 71
     3
 72
    38
 73
    34
 74
     0
 42
0.000000001
 43
0.0000000001
 40
0.0
 40
0.0
 40
0.0
 40
0.0
 40
0.4755855610246865
 40
0.4755855610246865
 40
0.9511711220493728
 40
0.9511711220493728
 40
1.426756683074059
 40
1.426756683074059
 40
1.902342244098744
 40
1.902342244098744
 40
2.377632206279998
 40
2.377632206279998
 40
2.852922168461251
 40
2.852922168461251
 40
3.328212130642504
 40
3.328212130642504
 40
3.803502092823757
 40
3.803502092823757
 40
4.278792055005009
 40
4.278792055005009
 40
4.754082017186262
 40
4.754082017186262
 40
5.229371979367516
 40
5.229371979367516
 40
5.704661941548769
 40
5.704661941548769
 40
6.180247502573455
 40
6.180247502573455
 40
6.655833063598141
 40
6.655833063598141
 40
7.131418624622826
 40
7.131418624622826
 40
7.607004185647511
 40
7.607004185647511
 40
7.607004185647511
 40
7.607004185647511
 10
1988.755533523241
 20
-31.13093795359848
 30
0.0000000000017763
 10
1988.755533523241
 20
-31.77896063365253
 30
0.0000000000019184
 10
1988.722319434522
 20
-32.49031482621305
 30
0.0000000000015205
 10
1988.580754833068
 20
-33.99434721193145
 30
0.00000000000189
 10
1988.472381167674
 20
-34.78695692037334
 30
0.0000000000014637
 10
1988.177952590089
 20
-36.39544370102508
 30
0.00000000000135
 10
1987.991489789148
 20
-37.2126093384625
 30
0.0000000000010089
 10
1987.54500464945
 20
-38.81105465777333
 30
0.0000000000013784
 10
1987.284719729881
 20
-39.5922543297913
 30
0.0000000000020605
 10
1986.708861933357
 20
-41.05904845270262
 30
0.0000000000017479
 10
1986.373251555042
 20
-41.79637351739879
 30
0.000000000001691
 10
1985.608566350316
 20
-43.21037600192747
 30
0.0000000000016626
 10
1985.179314176925
 20
-43.88701080810986
 30
0.0000000000015205
 10
1984.242471067542
 20
-45.12329658644122
 30
0.0000000000009236
 10
1983.733933526939
 20
-45.68391797095435
 30
0.0000000000019184
 10
1982.667240030534
 20
-46.65110453895735
 30
0.0000000000012931
 10
1982.109018180954
 20
-47.05757611027431
 30
0.00000000000189
 10
1980.988748996659
 20
-47.70269622830383
 30
0.00000000000189
 10
1980.391530355553
 20
-47.96159858334007
 30
0.0000000000014352
 10
1979.165991809419
 20
-48.31442065840824
 30
0.000000000001691
 10
1978.537705569257
 20
-48.40845255000832
 30
0.0000000000013784
 10
1977.299548785396
 20
-48.42466590984153
 30
0.0000000000017763
 10
1976.68871486727
 20
-48.34697684949086
 30
0.0000000000009805
 10
1975.532782822201
 20
-48.03898428137367
 30
0.00000000000189
 10
1974.98785668914
 20
-47.80872646989772
 30
0.0000000000024016
 10
1974.005240491015
 20
-47.23939783248695
 30
0.0000000000014921
 10
1973.532845238358
 20
-46.88012061072484
 30
0.000000000001151
 10
1972.685032831259
 20
-46.02701167829425
 30
0.0000000000012079
 10
1972.309759524547
 20
-45.53332835131439
 30
0.0000000000013784
 10
1971.699286589777
 20
-44.44593969479197
 30
0.0000000000021742
 10
1971.463777304792
 20
-43.85135900709449
 30
0.00000000000189
 10
1971.152986277353
 20
-42.60782090328055
 30
0.00000000000135
 10
1971.07786399358
 20
-41.95885347846237
 30
0.0000000000011794
 10
1971.07786399358
 20
-41.31083079840826
 30
0.0000000000010089
  0
LINE
  5
51D1
330
18
100
AcDbEntity
  8
2：副線
100
AcDbLine
 10
1987.806665825819
 20
-30.58452138734961
 30
0.0000000000016342
 11
1988.755533523241
 21
-31.13093795359848
 31
0.0000000000018616
210
-0.0000000000000001
220
0.8175471248425397
230
0.5758617009853122
  0
LINE
  5
51D2
330
18
100
AcDbEntity
  8
2：副線
100
AcDbLine
 10
1987.806665825819
 20
-10.14584326628645
 30
0.0000000000018616
 11
1988.755533523241
 21
-10.69225983253474
 31
0.0000000000016626
210
-0.0000000000000001
220
0.8175471248425397
230
0.5758617009853122
  0
SPLINE
  5
51D3
330
18
100
AcDbEntity
  8
1：主線
100
AcDbSpline
210
0.0000000000000159
220
-0.0000000000000122
230
-1.0
 70
     8
 71
     3
 72
    38
 73
    34
 74
     0
 42
0.000000001
 43
0.0000000001
 40
-7.607004185647512
 40
-7.607004185647512
 40
-7.607004185647512
 40
-7.607004185647512
 40
-7.131418624622826
 40
-7.131418624622826
 40
-6.655833063598141
 40
-6.655833063598141
 40
-6.180247502573454
 40
-6.180247502573454
 40
-5.704661941548768
 40
-5.704661941548768
 40
-5.229371979367516
 40
-5.229371979367516
 40
-4.754082017186262
 40
-4.754082017186262
 40
-4.278792055005008
 40
-4.278792055005008
 40
-3.803502092823757
 40
-3.803502092823757
 40
-3.328212130642504
 40
-3.328212130642504
 40
-2.852922168461251
 40
-2.852922168461251
 40
-2.377632206279996
 40
-2.377632206279996
 40
-1.902342244098744
 40
-1.902342244098744
 40
-1.42675668307406
 40
-1.42675668307406
 40
-0.9511711220493735
 40
-0.9511711220493735
 40
-0.475585561024687
 40
-0.475585561024687
 40
0.0
 40
0.0
 40
0.0
 40
0.0
 10
1971.07786399358
 20
-20.87215267734493
 30
0.0000000000017195
 10
1971.07786399358
 20
-20.22412999729088
 30
0.0000000000015205
 10
1971.152986277351
 20
-19.53690912921749
 30
0.0000000000012647
 10
1971.463777304792
 20
-18.13032776101985
 30
0.0000000000016626
 10
1971.699286589779
 20
-17.41093058673075
 30
0.0000000000014352
 10
1972.309759524547
 20
-15.98444164719447
 30
0.0000000000017195
 10
1972.685032831259
 20
-15.2760047487753
 30
0.0000000000020605
 10
1973.532845238356
 20
-13.90866843232001
 30
0.0000000000014068
 10
1974.005240491013
 20
-13.24961497751135
 30
0.0000000000019752
 10
1974.98785668914
 20
-12.01705743963683
 30
0.0000000000019184
 10
1975.5327828222
 20
-11.40026930150978
 30
0.0000000000016058
 10
1976.68871486727
 20
-10.2115708879671
 30
0.000000000001691
 10
1977.299548785396
 20
-9.639502054175608
 30
0.000000000001151
 10
1978.537705569257
 20
-8.576731280959705
 30
0.0000000000018047
 10
1979.165991809417
 20
-8.085068586264952
 30
0.0000000000019184
 10
1980.391530355553
 20
-7.209354798792759
 30
0.000000000001151
 10
1980.988748996659
 20
-6.82533998617626
 30
0.0000000000019184
 10
1982.109018180954
 20
-6.180219868147304
 30
0.0000000000019184
 10
1982.667240030534
 20
-5.898860754409469
 30
0.0000000000010089
 10
1983.733933526937
 20
-5.454565898811523
 30
0.0000000000017195
 10
1984.242471067544
 20
-5.291575317392613
 30
0.00000000000135
 10
1985.179314176925
 20
-5.101846952444049
 30
0.0000000000013784
 10
1985.608566350316
 20
-5.074970040402803
 30
0.0000000000020605
 10
1986.373251555042
 20
-5.157658537535809
 30
0.0000000000018616
 10
1986.708861933357
 20
-5.267379422441791
 30
0.0000000000012931
 10
1987.284719729881
 20
-5.602471474815246
 30
0.0000000000025437
 10
1987.54500464945
 20
-5.839602479368039
 30
0.0000000000016626
 10
1987.991489789148
 20
-6.461602408944003
 30
0.0000000000021174
 10
1988.177952590089
 20
-6.846556996905491
 30
0.000000000001691
 10
1988.472381167676
 20
-7.751947812312465
 30
0.000000000001151
 10
1988.580754833068
 20
-8.273315965857165
 30
0.0000000000016626
 10
1988.722319434522
 20
-9.419403052150556
 30
0.0000000000014637
 10
1988.755533523241
 20
-10.04423715248165
 30
0.0000000000022879
 10
1988.755533523241
 20
-10.69225983253531
 30
0.0000000000020037
  0
LINE
  5
51D4
330
18
100
AcDbEntity
  8
1：主線
100
AcDbLine
 10
1988.755533523241
 20
-10.69225983253474
 30
0.0000000000016626
 11
1988.755533523241
 21
-31.13093795359848
 31
0.0000000000018616
210
-0.0000000000000001
220
0.8175471248425397
230
0.5758617009853122
  0
SPLINE
  5
51D5
330
18
100
AcDbEntity
  8
1：主線
100
AcDbSpline
210
0.0000000000000544
220
0.0000000000000456
230
1.0
 70
     9
 71
     3
 72
    38
 73
    34
 74
     0
 42
0.000000001
 43
0.0000000001
 40
0.0
 40
0.0
 40
0.0
 40
0.0
 40
0.377244205563716
 40
0.377244205563716
 40
0.7544884111274323
 40
0.7544884111274323
 40
1.131727215958038
 40
1.131727215958038
 40
1.508966020788645
 40
1.508966020788645
 40
1.886204825619254
 40
1.886204825619254
 40
2.26344363044986
 40
2.26344363044986
 40
2.640687836013578
 40
2.640687836013578
 40
3.017932041577293
 40
3.017932041577293
 40
3.395176247141009
 40
3.395176247141009
 40
3.772420452704723
 40
3.772420452704723
 40
4.149659257535331
 40
4.149659257535331
 40
4.52689806236594
 40
4.52689806236594
 40
4.904136867196545
 40
4.904136867196545
 40
5.281375672027153
 40
5.281375672027153
 40
5.65861987759087
 40
5.65861987759087
 40
6.035864083154587
 40
6.035864083154587
 40
6.035864083154587
 40
6.035864083154587
 10
1928.769714913511
 20
-86.07533715797965
 30
0.0000000000021174
 10
1928.769714913513
 20
-85.561312298609
 30
0.000000000001691
 10
1928.845336257749
 20
-85.0724405123103
 30
0.00000000000243
 10
1929.15827681442
 20
-84.30108308621234
 30
0.0000000000019184
 10
1929.396276189769
 20
-84.01810694765813
 30
0.0000000000010658
 10
1929.959723262543
 20
-83.69084062079329
 30
0.0000000000014637
 10
1930.323035958516
 20
-83.62455604503585
 30
0.0000000000015205
 10
1931.146228658022
 20
-83.73616473003378
 30
0.0000000000013215
 10
1931.60682871071
 20
-83.91374007986874
 30
0.0000000000012363
 10
1932.495989100784
 20
-84.425773494546
 30
0.0000000000021742
 10
1932.982990903214
 20
-84.79388576085396
 30
0.0000000000017195
 10
1933.901609020411
 20
-85.68531921555697
 30
0.0000000000015773
 10
1934.332606124955
 20
-86.20901638415146
 30
0.00000000000135
 10
1935.023402305469
 20
-87.25855336430347
 30
0.0000000000012647
 10
1935.329390087698
 20
-87.85479087273435
 30
0.0000000000017479
 10
1935.738453180356
 20
-89.04192254845268
 30
0.0000000000020037
 10
1935.840782725378
 20
-89.63326943653127
 30
0.0000000000009805
 10
1935.840782725378
 20
-90.66131915527213
 30
0.0000000000018616
 10
1935.738453180356
 20
-91.16557117150447
 30
0.0000000000017479
 10
1935.329390087698
 20
-91.99228188468046
 30
0.0000000000023447
 10
1935.023402305471
 20
-92.314409942867
 30
0.0000000000016626
 10
1934.332606124955
 20
-92.71501174353288
 30
0.0000000000014637
 10
1933.901609020411
 20
-92.82027317794225
 30
0.0000000000019468
 10
1932.982990903214
 20
-92.76361633629106
 30
0.0000000000020605
 10
1932.495989100786
 20
-92.60124474297183
 30
0.0000000000020889
 10
1931.60682871071
 20
-92.08921132829406
 30
0.0000000000020321
 10
1931.146228658022
 20
-91.70589530547088
 30
0.0000000000016626
 10
1930.323035958516
 20
-90.75951000742103
 30
0.00000000000189
 10
1929.959723262543
 20
-90.19683598017499
 30
0.0000000000015773
 10
1929.396276189769
 20
-89.07396352622138
 30
0.00000000000189
 10
1929.15827681442
 20
-88.43857409815857
 30
0.0000000000016342
 10
1928.845336257749
 20
-87.19608913536168
 30
0.0000000000017479
 10
1928.769714913513
 20
-86.58936201735
 30
0.0000000000025721
 10
1928.769714913511
 20
-86.07533715797965
 30
0.0000000000021174
  0
LINE
  5
51D7
330
18
100
AcDbEntity
  8
1：主線
100
AcDbLine
 10
1983.94106936292
 20
-43.8250261220613
 30
0.0000000000021458
 11
1983.94106936292
 21
-5.401411329137914
 31
0.0000000000021458
210
-0.0000000000000001
220
0.8175471248425397
230
0.5758617009853122
  0
ELLIPSE
  5
5395
330
18
100
AcDbEntity
  8
1：主線
100
AcDbEllipse
 10
1956.800146247273
 20
-94.4443205497498
 30
0.0000000000017479
 11
35.00000000000003
 21
-0.0000000000000068
 31
0.0000000000000071
210
-0.0000000000000002
220
0.0000000000000001
230
1.0
 40
0.5758617009853119
 41
3.141592653589954
 42
6.283185307179746
  0
ELLIPSE
  5
6D69
330
18
100
AcDbEntity
  8
2：副線
100
AcDbEllipse
 10
1957.179705458845
 20
439.1559899575249
 30
0.0000000000015687
 11
18.87962512784998
 21
-0.0000000000000006
 31
0.0000000000000009
210
0.0
220
0.0000000000000002
230
1.0
 40
0.5758617009853118
 41
-0.7853981633972984
 42
5.497787143782288
  0
ELLIPSE
  5
6D6A
330
18
100
AcDbEntity
  8
2：副線
100
AcDbEllipse
 10
1957.179705458845
 20
436.5660889535554
 30
0.00000000000132
 11
23.53186978072572
 21
0.0000000000000005
 31
0.000000000000002
210
-0.0000000000000001
220
0.0000000000000001
230
1.0
 40
0.5758617009853121
 41
2.860514144365306
 42
6.564263816404421
  0
ELLIPSE
  5
6D6B
330
18
100
AcDbEntity
  8
2：副線
100
AcDbEllipse
 10
1957.179705458847
 20
386.5546949840971
 30
0.0000000000016397
 11
36.15804863445253
 21
0.0000000000000038
 31
-0.0000000000000025
210
0.0000000000000001
220
0.0
230
1.0
 40
0.5758617009853118
 41
3.119093140371077
 42
6.305684820397285
  0
ELLIPSE
  5
6D6C
330
18
100
AcDbEntity
  8
2：副線
100
AcDbEllipse
 10
1957.179705458847
 20
376.2832403651052
 30
0.0000000000010358
 11
35.83968551207274
 21
-0.0000000000021338
 31
-0.0000000000000008
210
0.0
220
-0.0000000000000002
230
-1.0
 40
0.5758617009853117
 41
0.3599085985603114
 42
2.781684055028382
  0
ELLIPSE
  5
6D6D
330
18
100
AcDbEntity
  8
2：副線
100
AcDbEllipse
 10
1957.179705458847
 20
378.1373085389118
 30
0.0000000000013911
 11
36.97360679775
 21
0.0000000000000034
 31
0.0000000000000006
210
0.0
220
0.0000000000000001
230
1.0
 40
0.5758617009853118
 41
3.501501252150795
 42
5.923276708618866
  0
ELLIPSE
  5
6D6E
330
18
100
AcDbEntity
  8
2：副線
100
AcDbEllipse
 10
1957.179705458847
 20
378.2287130862089
 30
0.0000000000018174
 11
37.00000000000001
 21
-0.000000000002199
 31
0.0000000000000019
210
0.0000000000000001
220
-0.0000000000000001
230
-1.0
 40
0.5758617009853118
 41
-0.0000000000005333
 42
3.141592653589259
  0
ELLIPSE
  5
6D6F
330
18
100
AcDbEntity
  8
2：副線
100
AcDbEllipse
 10
1957.179705458847
 20
380.5484455099216
 30
0.0000000000014621
 11
37.00000000000001
 21
-0.0000000000000033
 31
0.0000000000000046
210
-0.0000000000000001
220
0.0000000000000001
230
1.0
 40
0.5758617009853121
 41
3.141592653589974
 42
6.283185307179767
  0
ELLIPSE
  5
6D70
330
18
100
AcDbEntity
  8
2：副線
100
AcDbEllipse
 10
1957.179705458847
 20
380.6929687889006
 30
0.0000000000010358
 11
36.92677669529697
 21
-0.0000000000022057
 31
-0.0000000000000015
210
0.0
220
-0.0000000000000001
230
-1.0
 40
0.5758617009853117
 41
-0.211052016066537
 42
3.352644669655257
  0
ELLIPSE
  5
6D71
330
18
100
AcDbEntity
  8
2：副線
100
AcDbEllipse
 10
1957.179705458847
 20
381.3907889092793
 30
0.0000000000010003
 11
36.07322330470705
 21
0.0000000000000033
 31
0.0000000000000006
210
0.0
220
0.0000000000000002
230
1.0
 40
0.5758617009853119
 41
3.03904054992212
 42
6.385737410847535
  0
ELLIPSE
  5
6D72
330
18
100
AcDbEntity
  8
2：副線
100
AcDbEllipse
 10
1957.179705458847
 20
381.4506524115115
 30
0.0000000000013911
 11
35.8964466094101
 21
-0.0000000000021359
 31
0.0000000000000001
210
0.0
220
-0.0000000000000003
230
-1.0
 40
0.5758617009853121
 41
-0.0777182744391044
 42
3.219310928027797
  0
ELLIPSE
  5
6D73
330
18
100
AcDbEntity
  8
2：副線
100
AcDbEllipse
 10
1957.179705458847
 20
381.4506524115115
 30
0.0000000000013911
 11
35.1035533905933
 21
0.0000000000000024
 31
0.0
210
0.0
220
0.0000000000000001
230
1.0
 40
0.5758617009853119
 41
3.177477916191992
 42
6.247300044577678
  0
ELLIPSE
  5
6D74
330
18
100
AcDbEntity
  8
2：副線
100
AcDbEllipse
 10
1957.179705458847
 20
381.5105159137429
 30
0.0000000000009292
 11
34.92677669529664
 21
-0.000000000002077
 31
0.0000000000000009
210
0.0
220
-0.0000000000000002
230
-1.0
 40
0.5758617009853118
 41
0.0676423867731706
 42
3.073950266815577
  0
ELLIPSE
  5
6D75
330
18
100
AcDbEntity
  8
2：副線
100
AcDbEllipse
 10
1957.179705458847
 20
382.2083360341226
 30
0.0000000000011068
 11
34.07322330470338
 21
-0.0000000000000031
 31
0.000000000000001
210
0.0
220
0.0000000000000001
230
1.0
 40
0.5758617009853119
 41
3.476271698732609
 42
5.948506262037084
  0
ELLIPSE
  5
6D76
330
18
100
AcDbEntity
  8
2：副線
100
AcDbEllipse
 10
1957.179705458847
 20
382.2681995363538
 30
0.000000000001249
 11
33.89644660940675
 21
-0.0000000000020151
 31
-0.0000000000000019
210
-0.0000000000000001
220
0.0
230
-1.0
 40
0.5758617009853118
 41
0.4061678202363713
 42
2.73542483335241
  0
SPLINE
  5
6D77
330
18
100
AcDbEntity
  8
1：主線
100
AcDbSpline
210
-0.000000000000008
220
0.0000000000000103
230
1.0
 70
     8
 71
     3
 72
    22
 73
    18
 74
     0
 42
0.000000001
 43
0.0000000001
 40
4.20806932621223
 40
4.20806932621223
 40
4.20806932621223
 40
4.20806932621223
 40
4.476058451618428
 40
4.476058451618428
 40
4.803600924424647
 40
4.803600924424647
 40
5.159755060440339
 40
5.159755060440339
 40
5.512760567496581
 40
5.512760567496581
 40
5.862998153218209
 40
5.862998153218209
 40
6.216415460518532
 40
6.216415460518532
 40
6.572146759444308
 40
6.572146759444308
 40
6.787504961351774
 40
6.787504961351774
 40
6.787504961351774
 40
6.787504961351774
 10
1979.78811001007
 20
440.325056324126
 30
0.0000000000011068
 10
1979.019330583381
 20
441.8583999918636
 30
0.000000000001249
 10
1977.955955557829
 20
443.2115752345792
 30
0.0000000000011068
 10
1975.189731151044
 20
445.8152080103525
 30
0.0000000000008582
 10
1973.393889333236
 20
446.9865371532697
 30
0.000000000001249
 10
1969.272429554227
 20
448.9621437328639
 30
0.000000000000716
 10
1966.908927289386
 20
449.7244086198823
 30
0.0000000000012845
 10
1961.978569852508
 20
450.7224576944513
 30
0.0000000000015687
 10
1959.414038946697
 20
450.9609794126758
 30
0.0000000000002897
 10
1954.313852412131
 20
450.9169991489932
 30
0.0000000000014976
 10
1951.779360138655
 20
450.6386426274771
 30
0.0000000000005739
 10
1946.922145755315
 20
449.5691387856368
 30
0.0000000000005029
 10
1944.601687677576
 20
448.775333544806
 30
0.0000000000007871
 10
1940.386694131811
 20
446.6523510445657
 30
0.000000000000716
 10
1938.487529067192
 20
445.3205456432051
 30
0.0000000000003963
 10
1935.998593776956
 20
442.6745738120346
 30
0.0000000000012845
 10
1935.189098196017
 20
441.5572635440626
 30
0.0000000000013911
 10
1934.571300907621
 20
440.325056324126
 30
0.0000000000003252
  0
SPLINE
  5
6D78
330
18
100
AcDbEntity
  8
1：主線
100
AcDbSpline
210
0.0000000000000467
220
-0.0000000000000107
230
1.0
 70
     8
 71
     3
 72
    16
 73
    12
 74
     0
 42
0.000000001
 43
0.0000000001
 40
0.5043196541789753
 40
0.5043196541789753
 40
0.5043196541789753
 40
0.5043196541789753
 40
0.5560354533808468
 40
0.5560354533808468
 40
0.6077512525827184
 40
0.6077512525827184
 40
0.6594670517845899
 40
0.6594670517845899
 40
0.7111828509864614
 40
0.7111828509864614
 40
0.7628986501883329
 40
0.7628986501883329
 40
0.7628986501883329
 40
0.7628986501883329
 10
1934.571300907586
 20
440.3250563240336
 30
0.0000000000005739
 10
1933.148229486933
 20
437.4867161241093
 30
0.0000000000008582
 10
1931.775871343555
 20
434.4735289526196
 30
0.00000000000132
 10
1929.199565550133
 20
428.1190166265166
 30
0.0000000000021016
 10
1927.995824717459
 20
424.7776342901818
 30
0.0000000000008226
 10
1925.823212970584
 20
417.8091204514299
 30
0.0000000000011068
 10
1924.854582509354
 20
414.1820249981024
 30
0.0000000000010003
 10
1923.211001930021
 20
406.7059809330892
 30
0.0000000000011424
 10
1922.536281078741
 20
402.8571802614403
 30
0.0000000000010358
 10
1921.524444544879
 20
395.0204183327984
 30
0.0000000000008582
 10
1921.187492871289
 20
391.0327067467983
 30
0.000000000000716
 10
1921.030808548347
 20
387.0231411186464
 30
0.0000000000016397
  0
SPLINE
  5
6D79
330
18
100
AcDbEntity
  8
1：主線
100
AcDbSpline
210
0.0000000000001347
220
0.0000000000000465
230
1.0
 70
     8
 71
     3
 72
    16
 73
    12
 74
     0
 42
0.000000001
 43
0.0000000001
 40
3.949490330196084
 40
3.949490330196084
 40
3.949490330196084
 40
3.949490330196084
 40
4.001206129397957
 40
4.001206129397957
 40
4.052921928599828
 40
4.052921928599828
 40
4.1046377278017
 40
4.1046377278017
 40
4.156353527003571
 40
4.156353527003571
 40
4.208069326205443
 40
4.208069326205443
 40
4.208069326205443
 40
4.208069326205443
 10
1993.328602369349
 20
387.0231411186475
 30
0.0000000000016397
 10
1993.171918046405
 20
391.0327067467995
 30
0.0000000000015332
 10
1992.834966372814
 20
395.0204183327995
 30
0.0000000000007516
 10
1991.823129838951
 20
402.8571802614417
 30
0.000000000001249
 10
1991.148408987672
 20
406.7059809330912
 30
0.0000000000007516
 10
1989.504828408339
 20
414.1820249981045
 30
0.0000000000007516
 10
1988.536197947109
 20
417.8091204514305
 30
0.0000000000009292
 10
1986.363586200231
 20
424.7776342901837
 30
0.0000000000003963
 10
1985.159845367559
 20
428.1190166265182
 30
0.0000000000006805
 10
1982.583539574138
 20
434.4735289526211
 30
0.0000000000012845
 10
1981.211181430759
 20
437.4867161241102
 30
0.0000000000008582
 10
1979.788110010106
 20
440.3250563240346
 30
0.0000000000005384
  0
SPLINE
  5
6D7A
330
18
100
AcDbEntity
  8
1：主線
100
AcDbSpline
210
0.0000000000000003
220
0.0000000000000033
230
1.0
 70
     8
 71
     3
 72
    28
 73
    24
 74
     0
 42
0.000000001
 43
0.0000000001
 40
0.7628986501794609
 40
0.7628986501794609
 40
0.7628986501794609
 40
0.7628986501794609
 40
1.018147434658085
 40
1.018147434658085
 40
1.294330613280844
 40
1.294330613280844
 40
1.617686139294321
 40
1.617686139294321
 40
1.961330969558847
 40
1.961330969558847
 40
2.302720661030905
 40
2.302720661030905
 40
2.641644438364687
 40
2.641644438364687
 40
2.981892156212064
 40
2.981892156212064
 40
3.325645791346065
 40
3.325645791346065
 40
3.659314232921989
 40
3.659314232921989
 40
3.941449286961066
 40
3.941449286961066
 40
3.949490330204957
 40
3.949490330204957
 40
3.949490330204957
 40
3.949490330204957
 10
1921.030808548352
 20
387.0231411188315
 30
0.0000000000012134
 10
1920.942345119151
 20
384.7593541727353
 30
0.000000000000716
 10
1921.370238534639
 20
382.4846216649687
 30
0.000000000000645
 10
1923.17219286437
 20
378.1070753447724
 30
0.0000000000010003
 10
1924.603372953585
 20
376.032581261054
 30
0.0000000000009647
 10
1928.45427416996
 20
372.0581125945159
 30
0.0000000000007871
 10
1931.003376560292
 20
370.2352975829958
 30
0.0000000000002187
 10
1936.93981788253
 20
367.1231758808085
 30
0.0000000000008582
 10
1940.375312471604
 20
365.8750042925826
 30
0.0000000000003252
 10
1947.652636828532
 20
364.1285097002108
 30
0.0000000000014266
 10
1951.491154872516
 20
363.627283258804
 30
0.0000000000008582
 10
1959.201261690059
 20
363.3896352941444
 30
0.0000000000006805
 10
1963.070758833753
 20
363.6479358866745
 30
0.00000000000132
 10
1970.518467945769
 20
364.9065601067623
 30
0.0000000000002542
 10
1974.094336033203
 20
365.9084321924589
 30
0.0000000000007516
 10
1980.639423314137
 20
368.6317543629722
 30
0.0000000000010713
 10
1983.605126204369
 20
370.3581914526956
 30
0.0000000000014976
 10
1988.498776071651
 20
374.4654810411537
 30
0.0000000000005384
 10
1990.464205988641
 20
376.8393354269891
 30
0.0000000000008226
 10
1992.827608107218
 20
381.8017831016261
 30
0.0000000000010713
 10
1993.398327277268
 20
384.3058001459349
 30
0.0000000000004674
 10
1993.333678625331
 20
386.8804908646446
 30
0.0000000000002187
 10
1993.331389212229
 20
386.9518255638316
 30
0.000000000001249
 10
1993.32860236934
 20
387.0231411188326
 30
0.0000000000005384
  0
SPLINE
  5
6D7B
330
18
100
AcDbEntity
  8
1：主線
100
AcDbSpline
210
0.0000000000000019
220
-0.0000000000000131
230
1.0
 70
     8
 71
     3
 72
    22
 73
    18
 74
     0
 42
0.000000001
 43
0.0000000001
 40
4.286899415548324
 40
4.286899415548324
 40
4.286899415548324
 40
4.286899415548324
 40
4.606148882341272
 40
4.606148882341272
 40
4.927253369514742
 40
4.927253369514742
 40
5.248363875648286
 40
5.248363875648286
 40
5.569279929817887
 40
5.569279929817887
 40
5.890147163663652
 40
5.890147163663652
 40
6.211138160888667
 40
6.211138160888667
 40
6.532323468276584
 40
6.532323468276584
 40
6.708674872015655
 40
6.708674872015655
 40
6.708674872015655
 40
6.708674872015655
 10
1923.636303787077
 20
369.0145228628129
 30
0.0000000000010713
 10
1924.99136482798
 20
366.9408293790161
 30
0.0000000000011068
 10
1926.919905960582
 20
365.0012742531994
 30
0.0000000000016753
 10
1931.737221484734
 20
361.5648674309273
 30
0.0000000000010003
 10
1934.631149600603
 20
360.0709832543302
 30
0.0000000000008226
 10
1941.083845628413
 20
357.6864342618035
 30
0.0000000000008226
 10
1944.641610347366
 20
356.7962724226195
 30
0.0000000000002897
 10
1952.059676335793
 20
355.7081318010792
 30
0.0000000000011779
 10
1955.91849976841
 20
355.5099570657319
 30
0.0000000000013911
 10
1963.549181573338
 20
355.8246482449517
 30
0.00000000000132
 10
1967.319713593728
 20
356.3373403571263
 30
0.0000000000006805
 10
1974.394017665917
 20
358.0231541337745
 30
0.0000000000009647
 10
1977.696403341842
 20
359.1961789478887
 30
0.000000000001249
 10
1983.500059939977
 20
362.0883425647589
 30
0.0000000000006805
 10
1986.000067929987
 20
363.807282881399
 30
0.0000000000007516
 10
1989.051863541888
 20
366.7641115526123
 30
0.0000000000005739
 10
1989.974579907955
 20
367.8690275845727
 30
0.0000000000014266
 10
1990.72310713062
 20
369.0145228628125
 30
0.0000000000012134
  0
LINE
  5
6D7C
330
18
100
AcDbEntity
  8
1：主線
100
AcDbLine
 10
1923.636303787077
 20
369.0145228628103
 30
0.0000000000012845
 11
1922.575033951525
 21
370.6386182180032
 31
0.0000000000017108
210
0.0
220
0.8175471248425397
230
0.5758617009853118
  0
LINE
  5
6D7D
330
18
100
AcDbEntity
  8
1：主線
100
AcDbLine
 10
1990.723107130618
 20
369.0145228628105
 30
0.00000000000132
 11
1991.78437696617
 21
370.6386182180036
 31
0.0000000000017108
210
0.0
220
0.8175471248425397
230
0.5758617009853118
  0
SPLINE
  5
6D7E
330
18
100
AcDbEntity
  8
1：主線
100
AcDbSpline
210
0.0000000000000001
220
0.0000000000000643
230
1.0
 70
     8
 71
     3
 72
    16
 73
    12
 74
     0
 42
0.000000001
 43
0.0000000001
 40
0.4254895648360844
 40
0.4254895648360844
 40
0.4254895648360844
 40
0.4254895648360844
 40
0.4974712845483275
 40
0.4974712845483275
 40
0.5694530042605706
 40
0.5694530042605706
 40
0.6414347239728137
 40
0.6414347239728137
 40
0.7134164436850568
 40
0.7134164436850568
 40
0.7853981633973
 40
0.7853981633973
 40
0.7853981633973
 40
0.7853981633973
 10
1991.784376966172
 20
370.6386182180066
 30
0.0000000000013555
 10
1992.09948695004
 20
371.1208411588937
 30
0.0000000000009292
 10
1992.384708664058
 20
371.6100009979281
 30
0.000000000000716
 10
1992.893691737788
 20
372.5996936497168
 30
0.0000000000008582
 10
1993.117451874643
 20
373.1002268797272
 30
0.0000000000010358
 10
1993.502117501716
 20
374.1100212702572
 30
0.0000000000003963
 10
1993.663021269101
 20
374.6192822307155
 30
0.000000000001249
 10
1993.920915437386
 20
375.6437365307861
 30
0.0000000000003608
 10
1994.017904033639
 20
376.1589286437431
 30
0.0000000000008937
 10
1994.147299637242
 20
377.1923192523725
 30
0.0000000000011424
 10
1994.179705458848
 20
377.7105154976991
 30
0.0000000000005739
 10
1994.179705458848
 20
378.2287130862099
 30
0.0000000000002187
  0
SPLINE
  5
6D7F
330
18
100
AcDbEntity
  8
1：主線
100
AcDbSpline
210
-0.0000000000006318
220
-0.0000000000001215
230
1.0
 70
     8
 71
     3
 72
    16
 73
    12
 74
     0
 42
0.000000001
 43
0.0000000001
 40
3.926990816987093
 40
3.926990816987093
 40
3.926990816987093
 40
3.926990816987093
 40
3.998972536699336
 40
3.998972536699336
 40
4.070954256411579
 40
4.070954256411579
 40
4.142935976123822
 40
4.142935976123822
 40
4.214917695836065
 40
4.214917695836065
 40
4.286899415548308
 40
4.286899415548308
 40
4.286899415548308
 40
4.286899415548308
 10
1920.179705458849
 20
378.2287130862095
 30
0.0000000000006805
 10
1920.179705458849
 20
377.7105154976996
 30
0.0000000000002542
 10
1920.212111280455
 20
377.1923192523729
 30
0.0000000000012845
 10
1920.341506884055
 20
376.1589286437435
 30
0.0000000000001831
 10
1920.438495480311
 20
375.6437365307861
 30
0.0000000000002187
 10
1920.696389648594
 20
374.6192822307155
 30
0.0000000000006805
 10
1920.857293415981
 20
374.1100212702572
 30
0.0000000000002897
 10
1921.241959043052
 20
373.1002268797275
 30
0.0000000000010358
 10
1921.465719179909
 20
372.5996936497161
 30
0.0000000000011779
 10
1921.974702253637
 20
371.6100009979281
 30
0.000000000000716
 10
1922.259923967656
 20
371.1208411588937
 30
0.0000000000009292
 10
1922.575033951524
 20
370.6386182180063
 30
0.0000000000013555
  0
LINE
  5
6D80
330
18
100
AcDbEntity
  8
1：主線
100
AcDbLine
 10
1920.179705458847
 20
378.2287130862087
 30
0.000000000001249
 11
1920.179705458847
 21
380.5484455099212
 31
0.0000000000019595
210
0.0
220
0.8175471248425397
230
0.5758617009853118
  0
LINE
  5
6D81
330
18
100
AcDbEntity
  8
1：主線
100
AcDbLine
 10
1994.179705458848
 20
378.2287130862095
 30
0.0000000000013911
 11
1994.179705458848
 21
380.5484455099221
 31
0.0000000000010358
210
0.0
220
0.8175471248425397
230
0.5758617009853118
  0
SPLINE
  5
6D82
330
18
100
AcDbEntity
  8
1：主線
100
AcDbSpline
210
-0.000000000002661
220
-0.0000000000006927
230
1.0
 70
     8
 71
     3
 72
    10
 73
     6
 74
     0
 42
0.000000001
 43
0.0000000001
 40
0.7853981633973
 40
0.7853981633973
 40
0.7853981633973
 40
0.7853981633973
 40
0.9417072868544293
 40
0.9417072868544293
 40
1.003463090627823
 40
1.003463090627823
 40
1.003463090627823
 40
1.003463090627823
 10
1994.179705458848
 20
380.5484455099227
 30
-0.0000000000001366
 10
1994.179705458848
 20
381.6737174701004
 30
0.0000000000014621
 10
1994.026578140816
 20
382.7989283341814
 30
0.0000000000005739
 10
1993.602786779647
 20
384.3474906668769
 30
0.0000000000016042
 10
1993.459307525295
 20
384.7836799073327
 30
0.0000000000008226
 10
1993.292711120273
 20
385.216628847738
 30
0.0000000000009647
  0
SPLINE
  5
6D83
330
18
100
AcDbEntity
  8
1：主線
100
AcDbSpline
210
-0.0000000000012844
220
0.0000000000002786
230
1.0
 70
     8
 71
     3
 72
    10
 73
     6
 74
     0
 42
0.000000001
 43
0.0000000001
 40
3.708925889756753
 40
3.708925889756753
 40
3.708925889756753
 40
3.708925889756753
 40
3.770681693529963
 40
3.770681693529963
 40
3.926990816987093
 40
3.926990816987093
 40
3.926990816987093
 40
3.926990816987093
 10
1921.066699797422
 20
385.2166288477338
 30
0.0000000000007516
 10
1920.9001033924
 20
384.7836799073304
 30
0.0000000000007516
 10
1920.756624138048
 20
384.347490666875
 30
0.0000000000013911
 10
1920.33283277688
 20
382.7989283341819
 30
0.0000000000001121
 10
1920.179705458847
 20
381.6737174701004
 30
0.0000000000014621
 10
1920.179705458849
 20
380.5484455099222
 30
0.0000000000008582
  0
SPLINE
  5
6D84
330
18
100
AcDbEntity
  8
2：副線
100
AcDbSpline
210
0.0000000001304647
220
-0.0000000001706178
230
-1.0
 70
     8
 71
     3
 72
    11
 73
     7
 74
     0
 42
0.000000001
 43
0.0000000001
 40
0.2704078026546922
 40
0.2704078026546922
 40
0.2704078026546922
 40
0.2704078026546922
 40
0.3079515710971956
 40
0.3079515710971956
 40
0.3079515710971956
 40
0.6058638519752618
 40
0.6058638519752618
 40
0.6058638519752618
 40
0.6058638519752618
 10
1927.798225106642
 20
273.2673898489082
 30
0.0000000000013191
 10
1927.809185660005
 20
273.2762101786099
 30
0.0000000000013475
 10
1927.820570834628
 20
273.2855259226961
 30
0.0000000000002675
 10
1927.832375658894
 20
273.295355660527
 30
0.0000000000010064
 10
1927.926047718676
 20
273.3733552790874
 30
0.0000000000019444
 10
1928.043631115058
 20
273.4688109875004
 30
0.000000000001518
 10
1928.159707545344
 20
273.5372452811288
 30
0.0000000000003812
  0
SPLINE
  5
6D85
330
18
100
AcDbEntity
  8
2：副線
100
AcDbSpline
210
-0.0000000000454904
220
-0.000000000203194
230
1.0
 70
     8
 71
     3
 72
    14
 73
    10
 74
     0
 42
0.000000001
 43
0.0000000001
 40
0.0
 40
0.0
 40
0.0
 40
0.0
 40
0.237191801872394
 40
0.237191801872394
 40
0.237191801872394
 40
0.5129014686768043
 40
0.5129014686768043
 40
0.5129014686768043
 40
0.66228753180266
 40
0.66228753180266
 40
0.66228753180266
 40
0.66228753180266
 10
1928.660001601943
 20
273.6924830475342
 30
0.0000000000000685
 10
1928.629845475368
 20
273.7016248167118
 30
0.000000000000978
 10
1928.574705236076
 20
273.7187632950189
 30
0.0000000000005801
 10
1928.465080650545
 20
273.7477295803209
 30
0.0000000000007791
 10
1928.33765399536
 20
273.7813997358923
 30
0.0000000000007791
 10
1928.177663231994
 20
273.8176483723395
 30
0.0000000000002675
 10
1928.038724708872
 20
273.8437629989897
 30
0.0000000000007791
 10
1927.96344450841
 20
273.8579125255925
 30
0.0000000000004096
 10
1927.877179949209
 20
273.8718719709599
 30
0.0000000000008928
 10
1927.794062252844
 20
273.884117397915
 30
0.0000000000012622
  0
SPLINE
  5
6D86
330
18
100
AcDbEntity
  8
2：副線
100
AcDbSpline
210
-0.0000000003233947
220
-0.0000000002565297
230
1.0
 70
     8
 71
     3
 72
    11
 73
     7
 74
     0
 42
0.000000001
 43
0.0000000001
 40
0.6290516312181725
 40
0.6290516312181725
 40
0.6290516312181725
 40
0.6290516312181725
 40
0.8415604591679649
 40
0.8415604591679649
 40
0.8415604591679649
 40
1.0
 40
1.0
 40
1.0
 40
1.0
 10
1930.522752737282
 20
272.4917087146622
 30
0.0000000000005517
 10
1930.477138350292
 20
272.5579202111013
 30
0.0000000000007791
 10
1930.42766105494
 20
272.6224679820592
 30
0.0000000000006085
 10
1930.392509049102
 20
272.6638905507706
 30
0.0000000000008643
 10
1930.36630087828
 20
272.6947738455032
 30
0.0000000000004948
 10
1930.352547703197
 20
272.7097676492061
 30
0.0000000000007791
 10
1930.341970891326
 20
272.7213976255406
 30
0.0000000000008075
  0
LINE
  5
6D87
330
18
100
AcDbEntity
  8
2：副線
100
AcDbLine
 10
1928.214691555476
 20
270.6271804432518
 30
0.0000000000007506
 11
1928.757779014274
 21
270.9407321337832
 31
0.0000000000008643
210
0.0
220
0.8164965809277276
230
0.5773502691896239
  0
LINE
  5
6D88
330
18
100
AcDbEntity
  8
2：副線
100
AcDbLine
 10
1927.798699650938
 20
273.244745438434
 30
0.0000000000006654
 11
1928.457347912069
 21
273.6250161892996
 31
0.0000000000008928
210
0.0
220
0.8164965809277276
230
0.5773502691896239
  0
LINE
  5
6D89
330
18
100
AcDbEntity
  8
2：副線
100
AcDbLine
 10
1973.795895659259
 20
253.4718107182938
 30
0.0000000000015465
 11
1974.189486463255
 21
253.2445709616564
 31
0.0000000000006938
210
0.0
220
0.8164965809277276
230
0.5773502691896239
  0
SPLINE
  5
6D8A
330
18
100
AcDbEntity
  8
2：副線
100
AcDbSpline
210
-0.0000000000048043
220
0.0000000000048503
230
1.0
 70
     8
 71
     3
 72
    14
 73
    10
 74
     0
 42
0.000000001
 43
0.0000000001
 40
-0.3200347941016478
 40
-0.3200347941016478
 40
-0.3200347941016478
 40
-0.3200347941016478
 40
-0.1976041965736142
 40
-0.1976041965736142
 40
-0.1097801092075634
 40
-0.1097801092075634
 40
-0.0422231189259859
 40
-0.0422231189259859
 40
0.0
 40
0.0
 40
0.0
 40
0.0
 10
1974.913148120991
 20
254.0515095801525
 30
0.0000000000011485
 10
1974.913148120993
 20
253.9265543747998
 30
0.0000000000004664
 10
1974.867150490781
 20
253.7890501641783
 30
0.0000000000009212
 10
1974.724920414759
 20
253.5756758158467
 30
0.0000000000005233
 10
1974.647082493451
 20
253.4934787718758
 30
0.0000000000010633
 10
1974.48973435871
 20
253.3730905296162
 30
0.000000000001177
 10
1974.414832011956
 20
253.3290670254711
 30
0.0000000000004096
 10
1974.288707636413
 20
253.2743287015286
 30
0.0000000000018022
 10
1974.239153221411
 20
253.2572959871057
 30
0.0000000000013759
 10
1974.189486463257
 20
253.2445709616566
 30
0.0000000000010064
  0
SPLINE
  5
6D8B
330
18
100
AcDbEntity
  8
2：副線
100
AcDbSpline
210
0.0000000000000905
220
-0.0000000000000825
230
1.0
 70
     8
 71
     3
 72
    14
 73
    10
 74
     0
 42
0.000000001
 43
0.0000000001
 40
0.0
 40
0.0
 40
0.0
 40
0.0
 40
0.0422231189259859
 40
0.0422231189259859
 40
0.1097801092075634
 40
0.1097801092075634
 40
0.1976041965736142
 40
0.1976041965736142
 40
0.3200347941016478
 40
0.3200347941016478
 40
0.3200347941016478
 40
0.3200347941016478
 10
1974.310243466521
 20
252.9140641354353
 30
0.0000000000005233
 10
1974.372289318564
 20
252.9338254695534
 30
0.0000000000012907
 10
1974.434232085744
 20
252.9593037430064
 30
0.0000000000013759
 10
1974.591978617754
 20
253.0392831482764
 30
0.0000000000014896
 10
1974.685754373669
 20
253.1020841703256
 30
0.0000000000004948
 10
1974.88290704161
 20
253.2711354508109
 30
0.0000000000010064
 10
1974.980560966267
 20
253.3848846463817
 30
0.0000000000008359
 10
1975.159105508378
 20
253.6769150933534
 30
0.0000000000007222
 10
1975.21693486367
 20
253.8626419497481
 30
0.0000000000009212
 10
1975.21693486367
 20
254.0292488902185
 30
0.0000000000013475
  0
LINE
  5
6D8C
330
18
100
AcDbEntity
  8
2：副線
100
AcDbLine
 10
1974.913148120991
 20
320.5959809257616
 30
0.0000000000015749
 11
1974.913148120991
 21
254.0515095801521
 31
0.0000000000008359
210
0.0
220
0.8164965809277276
230
0.5773502691896239
  0
LINE
  5
6D8D
330
18
100
AcDbEntity
  8
2：副線
100
AcDbLine
 10
1975.21693486367
 20
254.0292488902185
 30
0.0000000000013475
 11
1975.21693486367
 21
320.5737202358288
 31
0.000000000001177
210
0.0
220
0.8164965809277276
230
0.5773502691896239
  0
SPLINE
  5
6D8E
330
18
100
AcDbEntity
  8
2：副線
100
AcDbSpline
210
0.0000000000245667
220
0.0000000000147189
230
1.0
 70
     8
 71
     3
 72
    12
 73
     8
 74
     0
 42
0.000000001
 43
0.0000000001
 40
-0.1580563926755423
 40
-0.1580563926755423
 40
-0.1580563926755423
 40
-0.1580563926755423
 40
-0.0980372203621815
 40
-0.0980372203621815
 40
-0.0377066232162268
 40
-0.0377066232162268
 40
-0.0000000000000051
 40
-0.0000000000000051
 40
-0.0000000000000051
 40
-0.0000000000000051
 10
1974.703443163923
 20
320.9706788568379
 30
0.0000000000006938
 10
1974.753407738302
 20
320.9417886209766
 30
0.0000000000010349
 10
1974.796121606759
 20
320.9045434652732
 30
0.0000000000011485
 10
1974.86301409172
 20
320.8155545378826
 30
0.0000000000008643
 10
1974.887102611062
 20
320.7638016098082
 30
0.0000000000014896
 10
1974.908910636473
 20
320.6717572186279
 30
0.0000000000014043
 10
1974.913148120991
 20
320.6344650869295
 30
0.0000000000012338
 10
1974.913148120991
 20
320.5959809257616
 30
0.0000000000016317
  0
SPLINE
  5
6D8F
330
18
100
AcDbEntity
  8
2：副線
100
AcDbSpline
210
-0.0000000000005491
220
-0.0000000000011149
230
-1.0
 70
     8
 71
     3
 72
    16
 73
    12
 74
     0
 42
0.000000001
 43
0.0000000001
 40
0.0000000000000051
 40
0.0000000000000051
 40
0.0000000000000051
 40
0.0000000000000051
 40
0.0377066232162268
 40
0.0377066232162268
 40
0.0980372203621815
 40
0.0980372203621815
 40
0.1764669966519225
 40
0.1764669966519225
 40
0.2784257058285859
 40
0.2784257058285859
 40
0.320039400940578
 40
0.320039400940578
 40
0.320039400940578
 40
0.320039400940578
 10
1975.21693486367
 20
320.5737202358288
 30
0.0000000000012054
 10
1975.21693486367
 20
320.6250324507195
 30
0.0000000000010917
 10
1975.211609408115
 20
320.6745342104197
 30
0.0000000000016601
 10
1975.184206546938
 20
320.7961198960787
 30
0.0000000000012907
 10
1975.153939658022
 20
320.8638635697574
 30
0.0000000000012622
 10
1975.057085765467
 20
320.9966024250747
 30
0.0000000000012338
 10
1974.982313221065
 20
321.0545278700061
 30
0.000000000000637
 10
1974.77798569905
 20
321.1405528627762
 30
0.0000000000012338
 10
1974.63885567826
 20
321.1543350046881
 30
0.0000000000016886
 10
1974.43244710333
 20
321.1251340851253
 30
0.0000000000003243
 10
1974.371393785009
 20
321.1110047534754
 30
0.0000000000016033
 10
1974.310243466521
 20
321.0915286429
 30
0.0000000000008928
  0
LINE
  5
6D90
330
18
100
AcDbEntity
  8
2：副線
100
AcDbLine
 10
1944.439581326625
 20
335.2558432911102
 30
0.0000000000007791
 11
1944.439581326625
 21
319.7424082534827
 31
0.000000000001518
210
0.0
220
0.8164965809277276
230
0.5773502691896239
  0
LINE
  5
6D91
330
18
100
AcDbEntity
  8
2：副線
100
AcDbLine
 10
1922.723055355785
 20
347.7938854062626
 30
0.0000000000007791
 11
1922.723055355785
 21
332.280450368636
 31
0.0000000000005517
210
0.0
220
0.8164965809277276
230
0.5773502691896239
  0
SPLINE
  5
6D92
330
18
100
AcDbEntity
  8
2：副線
100
AcDbSpline
210
-0.000000000001853
220
0.0000000000043562
230
-1.0
 70
     8
 71
     3
 72
    16
 73
    12
 74
     0
 42
0.000000001
 43
0.0000000001
 40
-0.1649829861660502
 40
-0.1649829861660502
 40
-0.1649829861660502
 40
-0.1649829861660502
 40
-0.132412888820514
 40
-0.132412888820514
 40
-0.0839236619284948
 40
-0.0839236619284948
 40
-0.0466242566269415
 40
-0.0466242566269415
 40
-0.0179324063949775
 40
-0.0179324063949775
 40
0.0
 40
0.0
 40
0.0
 40
0.0
 10
1922.915881931839
 20
347.9023788242813
 30
0.0000000000008928
 10
1922.896460371732
 20
347.9318778036983
 30
0.0000000000011201
 10
1922.877155754678
 20
347.9553837676773
 30
0.0000000000014612
 10
1922.831147640801
 20
347.9965559320455
 30
0.0000000000014612
 10
1922.805416858629
 20
348.0056763660444
 30
0.0000000000007791
 10
1922.76738410672
 20
347.9900289465021
 30
0.0000000000006654
 10
1922.753372203644
 20
347.9725432162717
 30
0.0000000000013475
 10
1922.735079426312
 20
347.9228376951504
 30
0.0000000000015749
 10
1922.729309608159
 20
347.894968485623
 30
0.0000000000012338
 10
1922.724076131906
 20
347.8410706430444
 30
0.0000000000002675
 10
1922.723055355785
 20
347.818288320445
 30
0.0000000000006654
 10
1922.723055355785
 20
347.793885406263
 30
0.0000000000003812
  0
SPLINE
  5
6D93
330
18
100
AcDbEntity
  8
2：副線
100
AcDbSpline
210
0.0000000000005686
220
0.0000000000009986
230
1.0
 70
     8
 71
     3
 72
    15
 73
    11
 74
     0
 42
0.000000001
 43
0.0000000001
 40
-16.55877724776489
 40
-16.55877724776489
 40
-16.55877724776489
 40
-16.55877724776489
 40
-15.49658588932304
 40
-15.49658588932304
 40
-14.72594622633904
 40
-14.72594622633904
 40
-14.72594622633904
 40
-13.95530656335504
 40
-13.95530656335504
 40
-12.89311520493548
 40
-12.89311520493548
 40
-12.89311520493548
 40
-12.89311520493548
 10
1938.267554960999
 20
337.3517307645976
 30
0.0000000000013475
 10
1936.833612348525
 20
338.35397204338
 30
0.0000000000011201
 10
1935.409303520085
 20
339.3092216850092
 30
0.0000000000011201
 10
1933.04611060594
 20
340.8111814031232
 30
0.0000000000007791
 10
1932.082371724561
 20
341.3973850693859
 30
0.0000000000007791
 10
1931.16785717509
 20
341.9253802907014
 30
0.0000000000009496
 10
1930.253342625619
 20
342.4533755120166
 30
0.0000000000010064
 10
1929.388393078372
 20
342.9229656022848
 30
0.0000000000005517
 10
1927.481942144951
 20
343.8860859089069
 30
0.0000000000010633
 10
1926.499147929291
 20
344.3205778577636
 30
0.0000000000010064
 10
1925.646132166509
 20
344.6387126125634
 30
0.0000000000012907
  0
SPLINE
  5
6D94
330
18
100
AcDbEntity
  8
2：副線
100
AcDbSpline
210
-0.0000000000091738
220
-0.0000000000102404
230
1.0
 70
     8
 71
     3
 72
    12
 73
     8
 74
     0
 42
0.000000001
 43
0.0000000001
 40
-0.1649851547557846
 40
-0.1649851547557846
 40
-0.1649851547557846
 40
-0.1649851547557846
 40
-0.0937225590059504
 40
-0.0937225590059504
 40
-0.0360471380792117
 40
-0.0360471380792117
 40
0.0
 40
0.0
 40
0.0
 40
0.0
 10
1944.439581326625
 20
335.2558432911109
 30
0.0000000000004948
 10
1944.439581326625
 20
335.35281940074
 30
0.0000000000006654
 10
1944.392901144963
 20
335.4580858198618
 30
0.0000000000007222
 10
1944.254458171397
 20
335.6158217674523
 30
0.0000000000008928
 10
1944.174194995115
 20
335.6749957155135
 30
0.0000000000008928
 10
1944.033549210607
 20
335.7433027231974
 30
0.0000000000012907
 10
1943.976938931484
 20
335.7630099589256
 30
0.0000000000007791
 10
1943.920390657736
 20
335.7754200571656
 30
0.0000000000012338
  0
SPLINE
  5
6D95
330
18
100
AcDbEntity
  8
2：副線
100
AcDbSpline
210
0.0000000000003849
220
-0.0000000000004482
230
1.0
 70
     8
 71
     3
 72
    16
 73
    12
 74
     0
 42
0.000000001
 43
0.0000000001
 40
-0.7072079040279058
 40
-0.7072079040279058
 40
-0.7072079040279058
 40
-0.7072079040279058
 40
-0.631733590811928
 40
-0.631733590811928
 40
-0.4003945293878421
 40
-0.4003945293878421
 40
-0.2224414052154682
 40
-0.2224414052154682
 40
-0.0855543866213346
 40
-0.0855543866213346
 40
-0.0000000000000011
 40
-0.0000000000000011
 40
-0.0000000000000011
 40
-0.0000000000000011
 10
1980.836389507568
 20
252.7151043031864
 30
0.0000000000020296
 10
1980.836389507568
 20
252.6123967720387
 30
0.0000000000011201
 10
1980.828422349586
 20
252.5056114772404
 30
0.0000000000013191
 10
1980.76402611665
 20
252.0610753479787
 30
0.0000000000014328
 10
1980.64028695224
 20
251.7015796826309
 30
0.0000000000014328
 10
1980.312205809575
 20
251.1060230153204
 30
0.000000000000978
 10
1980.133429270632
 20
250.8609411637877
 30
0.0000000000009496
 10
1979.775076759466
 20
250.4865916403506
 30
0.0000000000006938
 10
1979.605359377574
 20
250.3436518587076
 30
0.0000000000013191
 10
1979.318910495134
 20
250.1544991088732
 30
0.0000000000010633
 10
1979.206216265287
 20
250.0920786190112
 30
0.0000000000013191
 10
1979.092995058597
 20
250.0411001238611
 30
0.0000000000007791
  0
LINE
  5
6D96
330
18
100
AcDbEntity
  8
2：副線
100
AcDbLine
 10
1980.836389507568
 20
344.5709696575562
 30
0.0000000000008928
 11
1980.836389507568
 21
252.7151043031871
 31
0.0000000000006085
210
0.0
220
0.8164965809277276
230
0.5773502691896239
  0
SPLINE
  5
6D97
330
18
100
AcDbEntity
  8
2：副線
100
AcDbSpline
210
-0.0000000000002057
220
0.0000000000001033
230
1.0
 70
     8
 71
     3
 72
    16
 73
    12
 74
     0
 42
0.000000001
 43
0.0000000001
 40
0.0
 40
0.0
 40
0.0
 40
0.0
 40
0.0889411594330038
 40
0.0889411594330038
 40
0.2312470145258097
 40
0.2312470145258097
 40
0.4162446261464576
 40
0.4162446261464576
 40
0.6567415212532998
 40
0.6567415212532998
 40
0.7071977341046153
 40
0.7071977341046153
 40
0.7071977341046153
 40
0.7071977341046153
 10
1979.092995058597
 20
345.5712000924051
 30
0.0000000000008359
 10
1979.210698262289
 20
345.6241966323117
 30
0.0000000000013475
 10
1979.327831896589
 20
345.6656781504642
 30
0.0000000000009496
 10
1979.625077250057
 20
345.7413515778006
 30
0.0000000000008359
 10
1979.80068437665
 20
345.756067904202
 30
0.0000000000014612
 10
1980.168905720065
 20
345.7140662031696
 30
0.0000000000009496
 10
1980.350512407457
 20
345.6342725617141
 30
0.0000000000015749
 10
1980.676191292877
 20
345.3344894988223
 30
0.0000000000013475
 10
1980.79191601454
 20
345.0790424138885
 30
0.0000000000012907
 10
1980.832832746578
 20
344.7064756870071
 30
0.0000000000012907
 10
1980.836389507568
 20
344.6396318663555
 30
0.0000000000012907
 10
1980.836389507568
 20
344.5709696575558
 30
0.0000000000018591
  0
LINE
  5
6D98
330
18
100
AcDbEntity
  8
2：副線
100
AcDbLine
 10
1974.25450676683
 20
320.9762476888858
 30
0.0000000000003812
 11
1974.913148120991
 21
320.5959809257616
 31
0.0000000000015749
210
0.0
220
0.8164965809277276
230
0.5773502691896239
  0
LINE
  5
6D99
330
18
100
AcDbEntity
  8
2：副線
100
AcDbLine
 10
1974.913148120991
 20
254.0515095801521
 30
0.0000000000008359
 11
1974.43948628757
 21
254.3249783671818
 31
0.0000000000014612
210
0.0
220
0.8164965809277276
230
0.5773502691896239
  0
LINE
  5
6D9A
330
18
100
AcDbEntity
  8
2：副線
100
AcDbLine
 10
1923.134848758925
 20
346.6381621122497
 30
0.0000000000006085
 11
1923.134848758925
 21
347.5277809935414
 31
0.0000000000013475
210
0.0
220
0.8164965809277276
230
0.5773502691896239
  0
LINE
  5
6D9B
330
18
100
AcDbEntity
  8
2：副線
100
AcDbLine
 10
1927.798699650938
 20
270.0300310192055
 30
0.0000000000013759
 11
1930.281874181331
 21
272.0775118093042
 31
0.0000000000010633
210
0.0
220
0.8164965809277276
230
0.5773502691896239
  0
LINE
  5
6D9C
330
18
100
AcDbEntity
  8
2：副線
100
AcDbLine
 10
1928.116322078445
 20
282.2944145644277
 30
0.0000000000006654
 11
1937.171578119923
 21
277.0663600512991
 31
0.0000000000008643
210
0.0
220
0.8164965809277276
230
0.5773502691896239
  0
LINE
  5
6D9D
330
18
100
AcDbEntity
  8
2：副線
100
AcDbLine
 10
1927.798699650926
 20
282.1110351704129
 30
0.0000000000014896
 11
1928.116322078445
 21
282.2944145644277
 31
0.0000000000006654
210
0.0
220
0.8164965809277276
230
0.5773502691896239
  0
LINE
  5
6D9E
330
18
100
AcDbEntity
  8
2：副線
100
AcDbLine
 10
1978.604312541452
 20
346.1044273379012
 30
0.0000000000006654
 11
1978.939253561593
 21
345.8891421508421
 31
0.0000000000007791
210
0.0
220
0.8164965809277276
230
0.5773502691896239
  0
LINE
  5
6D9F
330
18
100
AcDbEntity
  8
2：副線
100
AcDbLine
 10
1928.609555527764
 20
273.6050841426937
 30
0.000000000000637
 11
1928.609555527764
 21
272.8963967162652
 31
0.0000000000008359
210
0.0
220
0.8164965809277276
230
0.5773502691896239
  0
LINE
  5
6DA0
330
18
100
AcDbEntity
  8
2：副線
100
AcDbLine
 10
1928.609555527764
 20
272.8963967162652
 30
0.0000000000008359
 11
1927.798699650938
 21
272.4282488575056
 31
0.0000000000010633
210
0.0
220
0.8164965809277276
230
0.5773502691896239
  0
SPLINE
  5
6DA1
330
18
100
AcDbEntity
  8
2：副線
100
AcDbSpline
210
0.0000000000000244
220
-0.0000000000006414
230
1.0
 70
     8
 71
     3
 72
    12
 73
     8
 74
     0
 42
0.000000001
 43
0.0000000001
 40
0.0
 40
0.0
 40
0.0
 40
0.0
 40
0.0860325474396242
 40
0.0860325474396242
 40
0.2236846233430229
 40
0.2236846233430229
 40
0.3665012785141633
 40
0.3665012785141633
 40
0.3665012785141633
 40
0.3665012785141633
 10
1978.604312541452
 20
346.104427337902
 30
0.0000000000003812
 10
1978.72929079539
 20
346.161404619803
 30
0.0000000000009496
 10
1978.853738545512
 20
346.206375974812
 30
0.0000000000015749
 10
1979.170125960668
 20
346.2898211792377
 30
0.0000000000010064
 10
1979.35764461574
 20
346.3080419404203
 30
0.000000000001177
 10
1979.708271283374
 20
346.275191193234
 30
0.0000000000000401
 10
1979.870012207477
 20
346.2212933332781
 30
0.0000000000011201
 10
1980.007875192761
 20
346.1328408436235
 30
0.0000000000010064
  0
SPLINE
  5
6DA2
330
18
100
AcDbEntity
  8
2：副線
100
AcDbSpline
210
0.0000000000001667
220
-0.0000000000045638
230
1.0
 70
     8
 71
     3
 72
    12
 73
     8
 74
     0
 42
0.000000001
 43
0.0000000001
 40
-0.3664895574184884
 40
-0.3664895574184884
 40
-0.3664895574184884
 40
-0.3664895574184884
 40
-0.2312470145258097
 40
-0.2312470145258097
 40
-0.0889411594330038
 40
-0.0889411594330038
 40
0.0
 40
0.0
 40
0.0
 40
0.0
 10
1980.342066790464
 20
345.917980863932
 30
0.0000000000000969
 10
1980.211546231293
 20
346.0017156603393
 30
0.0000000000016317
 10
1980.05968986228
 20
346.0545474852366
 30
0.0000000000007791
 10
1979.71630244214
 20
346.0945233852086
 30
0.0000000000011201
 10
1979.523313493549
 20
346.0783023028488
 30
0.0000000000010633
 10
1979.196923859677
 20
345.9942407169188
 30
0.0000000000014612
 10
1979.068368629812
 20
345.9481123680822
 30
0.0000000000004948
 10
1978.939253561593
 20
345.8891421508428
 30
0.0000000000003812
  0
LINE
  5
6DA3
330
18
100
AcDbEntity
  8
2：副線
100
AcDbLine
 10
1927.939545383149
 20
282.6006007822747
 30
0.0000000000018591
 11
1927.798699650938
 21
282.5192834608691
 31
0.0000000000016317
210
0.0
220
0.8164965809277276
230
0.5773502691896239
  0
LINE
  5
6DA4
330
18
100
AcDbEntity
  8
2：副線
100
AcDbLine
 10
1927.939545383145
 20
291.9430726283518
 30
0.0000000000009212
 11
1927.939545383149
 21
282.6006007822747
 31
0.0000000000018591
210
0.0
220
0.8164965809277276
230
0.5773502691896239
  0
LINE
  5
6DA5
330
18
100
AcDbEntity
  8
2：副線
100
AcDbLine
 10
1937.171578119923
 20
277.474608341763
 30
0.0000000000008643
 11
1928.293098773741
 21
282.6006007822756
 31
0.0000000000005801
210
0.0
220
0.8164965809277276
230
0.5773502691896239
  0
LINE
  5
6DA6
330
18
100
AcDbEntity
  8
2：副線
100
AcDbLine
 10
1928.293098773741
 20
282.6006007822756
 30
0.0000000000005801
 11
1928.293098773739
 21
292.921979973915
 31
0.0000000000004664
210
0.0
220
0.8164965809277276
230
0.5773502691896239
  0
LINE
  5
6DA7
330
18
100
AcDbEntity
  8
2：副線
100
AcDbLine
 10
1931.172541045719
 20
291.0414466596807
 30
0.0000000000008928
 11
1935.261357645731
 21
288.6807672949964
 31
0.000000000001518
210
0.0
220
0.8164965809277276
230
0.5773502691896239
  0
SPLINE
  5
6DA8
330
18
100
AcDbEntity
  8
2：副線
100
AcDbSpline
210
0.0000000000263339
220
-0.0000000000233258
230
1.0
 70
     8
 71
     3
 72
    16
 73
    12
 74
     0
 42
0.000000001
 43
0.0000000001
 40
0.0
 40
0.0
 40
0.0
 40
0.0
 40
0.0093706703924853
 40
0.0093706703924853
 40
0.0243637430204618
 40
0.0243637430204618
 40
0.0438547374368312
 40
0.0438547374368312
 40
0.0691930301781114
 40
0.0691930301781114
 40
0.0802015080321612
 40
0.0802015080321612
 40
0.0802015080321612
 40
0.0802015080321612
 10
1974.310243290836
 20
253.934684760149
 30
0.0000000000011201
 10
1974.310243290836
 20
253.9219328929213
 30
0.0000000000015749
 10
1974.308894882071
 20
253.9087502976921
 30
0.000000000000978
 10
1974.301963002364
 20
253.8740128822402
 30
0.0000000000004948
 10
1974.294309763452
 20
253.8521881239363
 30
0.0000000000016317
 10
1974.269886637683
 20
253.8032992462543
 30
0.0000000000008359
 10
1974.251072764402
 20
253.7766647794277
 30
0.0000000000011201
 10
1974.199836596829
 20
253.7220133270035
 30
0.0000000000003812
 10
1974.165061115632
 20
253.6960381556749
 30
0.0000000000010064
 10
1974.112581234843
 20
253.6695845659143
 30
0.0000000000000401
 10
1974.096346949439
 20
253.6629731947492
 30
0.0000000000007222
 10
1974.080106106888
 20
253.6578887060016
 30
0.0000000000010917
  0
LINE
  5
6DA9
330
18
100
AcDbEntity
  8
2：副線
100
AcDbLine
 10
1974.310243290836
 20
319.8667836700623
 30
0.0000000000018022
 11
1974.310243290836
 21
253.9346847601488
 31
0.0000000000008643
210
0.0
220
0.8164965809277276
230
0.5773502691896239
  0
SPLINE
  5
6DAA
330
18
100
AcDbEntity
  8
2：副線
100
AcDbSpline
210
-0.0000000000005321
220
-0.0000000000010786
230
-1.0
 70
     8
 71
     3
 72
    16
 73
    12
 74
     0
 42
0.000000001
 43
0.0000000001
 40
-0.0802014969103863
 40
-0.0802014969103863
 40
-0.0802014969103863
 40
-0.0802014969103863
 40
-0.0700059586690619
 40
-0.0700059586690619
 40
-0.044369973804335
 40
-0.044369973804335
 40
-0.0246499854468528
 40
-0.0246499854468528
 40
-0.0094807636334049
 40
-0.0094807636334049
 40
0.0
 40
0.0
 40
0.0
 40
0.0
 10
1974.080106106888
 20
319.9982359063791
 30
0.0000000000016033
 10
1974.095147617031
 20
320.0029449224804
 30
0.0000000000007791
 10
1974.11018346045
 20
320.0063573085539
 30
0.0000000000009496
 10
1974.162076780708
 20
320.0135542594202
 30
0.0000000000010064
 10
1974.197485596258
 20
320.0099534755926
 30
0.0000000000016601
 10
1974.249742037074
 20
319.9880918419152
 30
0.0000000000008928
 10
1974.268965510125
 20
319.9734243609422
 30
0.000000000001177
 10
1974.293936400872
 20
319.9398858184194
 30
0.0000000000005517
 10
1974.30176839124
 20
319.9227874405545
 30
0.000000000001177
 10
1974.30886287742
 20
319.8921486185881
 30
0.0000000000008359
 10
1974.310243290836
 20
319.879685355215
 30
0.0000000000014043
 10
1974.310243290836
 20
319.866783670063
 30
0.0000000000014328
  0
SPLINE
  5
6DAB
330
18
100
AcDbEntity
  8
2：副線
100
AcDbSpline
210
-0.0000000000003836
220
-0.000000000000395
230
-1.0
 70
     8
 71
     3
 72
    14
 73
    10
 74
     0
 42
0.000000001
 43
0.0000000001
 40
-0.1644665105877819
 40
-0.1644665105877819
 40
-0.1644665105877819
 40
-0.1644665105877819
 40
-0.1438922341771879
 40
-0.1438922341771879
 40
-0.0799401300984378
 40
-0.0799401300984378
 40
-0.0307462038840145
 40
-0.0307462038840145
 40
0.0
 40
0.0
 40
0.0
 40
0.0
 10
1943.407714501057
 20
319.35645392439
 30
0.0000000000014043
 10
1943.407714501057
 20
319.3284558804827
 30
0.0000000000013191
 10
1943.411330320939
 20
319.2996277196495
 30
0.0000000000008359
 10
1943.440513720501
 20
319.1807632896651
 30
0.0000000000009212
 10
1943.497057105523
 20
319.090655474953
 30
0.0000000000008643
 10
1943.632555084424
 20
318.9610752839966
 30
0.0000000000007506
 10
1943.702907145414
 20
318.9143999008489
 30
0.0000000000014896
 10
1943.823957769405
 20
318.8597145778643
 30
0.0000000000009496
 10
1943.872157949623
 20
318.8437010250485
 30
0.0000000000010633
 10
1943.920390481985
 20
318.8331159014841
 30
0.0000000000014896
  0
LINE
  5
6DAC
330
18
100
AcDbEntity
  8
2：副線
100
AcDbLine
 10
1943.407714501057
 20
334.7375658936479
 30
0.0000000000006654
 11
1943.407714501057
 21
319.35645392439
 31
0.0000000000014043
210
0.0
220
0.8164965809277276
230
0.5773502691896239
  0
SPLINE
  5
6DAD
330
18
100
AcDbEntity
  8
2：副線
100
AcDbSpline
210
0.000000000000004
220
0.0000000000000187
230
1.0
 70
     8
 71
     3
 72
    19
 73
    15
 74
     0
 42
0.000000001
 43
0.0000000001
 40
34.31003837394713
 40
34.31003837394713
 40
34.31003837394713
 40
34.31003837394713
 40
35.55981694970002
 40
35.55981694970002
 40
36.41559812848143
 40
36.41559812848143
 40
37.27137930726286
 40
37.27137930726286
 40
37.27137930726286
 40
38.32175960765767
 40
38.32175960765767
 40
39.37213490805249
 40
39.37213490805249
 40
40.23244036277614
 40
40.23244036277614
 40
40.23244036277614
 40
40.23244036277614
 10
1923.115223020171
 20
346.453441312732
 30
0.0000000000012907
 10
1923.877227927947
 20
345.037448957656
 30
0.0000000000008928
 10
1924.800078827045
 20
343.6334420034888
 30
0.0000000000006085
 10
1926.618044671811
 20
341.440235449936
 30
0.0000000000017454
 10
1927.430618481408
 20
340.5971933830273
 30
0.0000000000006654
 10
1929.197611205492
 20
339.0675330575913
 30
0.0000000000007222
 10
1930.152305404086
 20
338.3821161181273
 30
0.0000000000009496
 10
1931.167856999405
 20
337.7957871311938
 30
0.0000000000010064
 10
1932.414338478791
 20
337.0761307135305
 30
0.0000000000014612
 10
1933.751143815175
 20
336.5077784584129
 30
0.0000000000014043
 10
1936.559268677203
 20
335.6414428078696
 30
0.0000000000005517
 10
1938.030317585378
 20
335.3404205856951
 30
0.0000000000017454
 10
1940.803667221667
 20
334.9476607951809
 30
0.0000000000012907
 10
1942.088950282899
 20
334.8273539870214
 30
0.000000000001177
 10
1943.407714501057
 20
334.7375658936479
 30
0.0000000000007222
  0
LINE
  5
6DAE
330
18
100
AcDbEntity
  8
2：副線
100
AcDbLine
 10
1923.115223020171
 20
331.0723293434531
 30
0.0000000000016886
 11
1923.115223020171
 21
346.4534413127327
 31
0.0000000000008928
210
0.0
220
0.8164965809277276
230
0.5773502691896239
  0
SPLINE
  5
6DAF
330
18
100
AcDbEntity
  8
2：副線
100
AcDbSpline
210
0.0000000000011207
220
-0.0000000000026282
230
1.0
 70
     8
 71
     3
 72
    16
 73
    12
 74
     0
 42
0.000000001
 43
0.0000000001
 40
-0.164464632466044
 40
-0.164464632466044
 40
-0.164464632466044
 40
-0.164464632466044
 40
-0.1344366227975841
 40
-0.1344366227975841
 40
-0.0852063102238209
 40
-0.0852063102238209
 40
-0.0473368390132338
 40
-0.0473368390132338
 40
-0.0182064765435515
 40
-0.0182064765435515
 40
0.0
 40
0.0
 40
0.0
 40
0.0
 10
1922.915881756154
 20
330.960074668585
 30
0.0000000000014612
 10
1922.933787468517
 20
330.9328780768848
 30
0.0000000000012054
 10
1922.951795824959
 20
330.9108173711128
 30
0.0000000000010349
 10
1922.998060044404
 20
330.8683165560182
 30
0.0000000000012054
 10
1923.025539513022
 20
330.8580524353577
 30
0.0000000000000117
 10
1923.066626101322
 20
330.8730704888752
 30
0.0000000000011485
 10
1923.081936707603
 20
330.8907353414066
 30
0.0000000000013191
 10
1923.101985355158
 20
330.9412420937364
 30
0.0000000000007222
 10
1923.108336516264
 20
330.9696115548003
 30
0.0000000000008643
 10
1923.11409811986
 20
331.0244062034132
 30
0.000000000001518
 10
1923.115223020171
 20
331.047553467039
 30
0.0000000000011201
 10
1923.115223020171
 20
331.0723293434534
 30
0.000000000001177
  0
SPLINE
  5
6DB0
330
18
100
AcDbEntity
  8
2：副線
100
AcDbSpline
210
0.0000000000002214
220
0.0000000000000902
230
1.0
 70
     8
 71
     3
 72
    16
 73
    12
 74
     0
 42
0.000000001
 43
0.0000000001
 40
0.0
 40
0.0
 40
0.0
 40
0.0
 40
0.084994194701311
 40
0.084994194701311
 40
0.2209849062234085
 40
0.2209849062234085
 40
0.3977728312021353
 40
0.3977728312021353
 40
0.6275971336744802
 40
0.6275971336744802
 40
0.7186489720833524
 40
0.7186489720833524
 40
0.7186489720833524
 40
0.7186489720833524
 10
1926.250735130935
 20
262.62705639637
 30
0.0000000000011201
 10
1926.250735130935
 20
262.5113939474162
 30
0.0000000000008643
 10
1926.243277413621
 20
262.4024570564797
 30
0.0000000000007791
 10
1926.204991818549
 20
262.1420039607859
 30
0.0000000000004664
 10
1926.162729875273
 20
262.0043259932093
 30
0.0000000000012338
 10
1926.028664925837
 20
261.7541501813793
 30
0.0000000000008643
 10
1925.925800509386
 20
261.6620015968432
 30
0.0000000000015749
 10
1925.650140053232
 20
261.5773706607866
 30
0.000000000000637
 10
1925.466124513121
 20
261.6236518664353
 30
0.000000000001177
 10
1925.204875435019
 20
261.807643207013
 30
0.0000000000015749
 10
1925.130231522221
 20
261.8730349135866
 30
0.0000000000012054
 10
1925.056447134742
 20
261.9502916593536
 30
0.0000000000009496
  0
LINE
  5
6DB1
330
18
100
AcDbEntity
  8
2：副線
100
AcDbLine
 10
1926.250735130935
 20
289.7755677122169
 30
0.0000000000010917
 11
1926.250735130935
 21
262.6270563963696
 31
0.0000000000016033
210
0.0
220
0.8164965809277276
230
0.5773502691896239
  0
SPLINE
  5
6DB2
330
18
100
AcDbEntity
  8
2：副線
100
AcDbSpline
210
-0.0000000000000214
220
0.0000000000000114
230
1.0
 70
     8
 71
     3
 72
    22
 73
    18
 74
     0
 42
0.000000001
 43
0.0000000001
 40
-4.883736767394553
 40
-4.883736767394553
 40
-4.883736767394553
 40
-4.883736767394553
 40
-4.274748618929491
 40
-4.274748618929491
 40
-3.451462068618642
 40
-3.451462068618642
 40
-2.765546657678697
 40
-2.765546657678697
 40
-2.041160499528424
 40
-2.041160499528424
 40
-1.374179141672761
 40
-1.374179141672761
 40
-0.7820576058581717
 40
-0.7820576058581717
 40
-0.3007913868685286
 40
-0.3007913868685286
 40
-0.0000000000000018
 40
-0.0000000000000018
 40
-0.0000000000000018
 40
-0.0000000000000018
 10
1937.287002427581
 20
283.4037758176502
 30
0.0000000000012338
 10
1937.287002427581
 20
284.2325037193954
 30
0.0000000000014896
 10
1937.110142700797
 20
285.1247056990036
 30
0.0000000000010917
 10
1936.330444423026
 20
287.2184935975025
 30
0.0000000000007506
 10
1935.600368606676
 20
288.4169507603439
 30
0.0000000000008359
 10
1933.995831414227
 20
290.3641351031532
 30
0.0000000000011201
 10
1933.168126385708
 20
291.1555022324436
 30
0.0000000000015465
 10
1931.459358591075
 20
292.4550890473471
 30
0.0000000000018591
 10
1930.580878055699
 20
292.9429067684763
 30
0.0000000000012622
 10
1929.074611737589
 20
293.4308275809446
 30
0.0000000000006085
 10
1928.432389182056
 20
293.4668593646494
 30
0.0000000000006654
 10
1927.4420601696
 20
293.1406994369346
 30
0.0000000000006654
 10
1927.067770241021
 20
292.8229903962755
 30
0.0000000000010349
 10
1926.57304258453
 20
291.970485647491
 30
0.000000000000438
 10
1926.417916050768
 20
291.4876422410777
 30
0.0000000000004664
 10
1926.277763537336
 20
290.5697140466774
 30
0.0000000000008643
 10
1926.250735130935
 20
290.1848929438009
 30
0.0000000000013759
 10
1926.250735130935
 20
289.7755677122162
 30
0.0000000000014896
  0
LINE
  5
6DB3
330
18
100
AcDbEntity
  8
2：副線
100
AcDbLine
 10
1937.287002427579
 20
256.255264501803
 30
0.0000000000018022
 11
1937.287002427579
 21
283.4037758176504
 31
0.0000000000008075
210
0.0
220
0.8164965809277276
230
0.5773502691896239
  0
SPLINE
  5
6DB4
330
18
100
AcDbEntity
  8
2：副線
100
AcDbSpline
210
0.0000000000004797
220
0.0000000000001768
230
1.0
 70
     8
 71
     3
 72
    16
 73
    12
 74
     0
 42
0.000000001
 43
0.0000000001
 40
-0.7186464528954645
 40
-0.7186464528954645
 40
-0.7186464528954645
 40
-0.7186464528954645
 40
-0.6382238480406861
 40
-0.6382238480406861
 40
-0.4059100462863717
 40
-0.4059100462863717
 40
-0.2255055812702066
 40
-0.2255055812702066
 40
-0.0867329158731566
 40
-0.0867329158731566
 40
-0.0000000000000003
 40
-0.0000000000000003
 40
-0.0000000000000003
 40
-0.0000000000000003
 10
1939.296792033637
 20
253.7286246986238
 30
0.0000000000000685
 10
1939.17860047641
 20
253.7662511503923
 30
0.000000000000438
 10
1939.060772938271
 20
253.8133049380097
 30
0.0000000000007506
 10
1938.610277499734
 20
254.0307906078943
 30
0.0000000000009496
 10
1938.292474388921
 20
254.2679267040083
 30
0.0000000000005517
 10
1937.824386190768
 20
254.7759263104741
 30
0.0000000000008075
 10
1937.652693407206
 20
255.0268163355712
 30
0.0000000000014043
 10
1937.43083302697
 20
255.486123971248
 30
0.0000000000003812
 10
1937.361705297967
 20
255.6907546098631
 30
0.0000000000011485
 10
1937.299147305276
 20
256.0147147713582
 30
0.0000000000008359
 10
1937.287002427581
 20
256.1372359530297
 30
0.0000000000006938
 10
1937.287002427581
 20
256.2552645018035
 30
0.0000000000013191
  0
SPLINE
  5
6DB5
330
18
100
AcDbEntity
  8
2：副線
100
AcDbSpline
210
-0.0000000000000004
220
-0.0000000000000013
230
1.0
 70
     8
 71
     3
 72
    45
 73
    41
 74
     0
 42
0.000000001
 43
0.0000000001
 40
-4.99874357971029
 40
-4.99874357971029
 40
-4.99874357971029
 40
-4.99874357971029
 40
-4.699846791087043
 40
-4.699846791087043
 40
-4.273841954146352
 40
-4.273841954146352
 40
-3.84783711720566
 40
-3.84783711720566
 40
-3.082526342991188
 40
-3.082526342991188
 40
-2.341387708103665
 40
-2.341387708103665
 40
-1.641752560637707
 40
-1.641752560637707
 40
-0.9040070008830394
 40
-0.9040070008830394
 40
-0.2092040729386628
 40
-0.2092040729386628
 40
0.5311203557848306
 40
0.5311203557848306
 40
1.180733659567332
 40
1.180733659567332
 40
1.947777152558611
 40
1.947777152558611
 40
2.566050458960043
 40
2.566050458960043
 40
2.566050458960043
 40
2.941415927287701
 40
2.941415927287701
 40
3.614984392476593
 40
3.614984392476593
 40
4.040196183752808
 40
4.040196183752808
 40
4.524905376763923
 40
4.524905376763923
 40
4.899324590206058
 40
4.899324590206058
 40
5.264252103768514
 40
5.264252103768514
 40
5.361753508717084
 40
5.361753508717084
 40
5.361753508717084
 40
5.361753508717084
 10
1965.081075164695
 20
262.327777029015
 30
0.0000000000002959
 10
1964.822145538215
 20
262.7395930053211
 30
0.0000000000017454
 10
1964.483811313137
 20
263.1147664115891
 30
0.0000000000008359
 10
1963.552515423145
 20
263.9429287980487
 30
0.0000000000015465
 10
1962.911342739973
 20
264.3655721316576
 30
0.0000000000006938
 10
1961.529031314686
 20
265.1263265779558
 30
0.0000000000011485
 10
1960.7860698786
 20
265.4644739823837
 30
0.0000000000008075
 10
1958.613388649804
 20
266.322660994669
 30
0.000000000001518
 10
1957.108723585762
 20
266.7750704687029
 30
0.0000000000003243
 10
1954.049143637474
 20
267.472191835321
 30
0.0000000000012338
 10
1952.492667709024
 20
267.7220628030546
 30
0.0000000000010349
 10
1949.50509245181
 20
267.9357514282841
 30
0.0000000000012338
 10
1948.071032067115
 20
267.9124796942746
 30
0.0000000000008928
 10
1945.374370425133
 20
267.4791571433244
 30
0.0000000000011485
 10
1944.130859950177
 20
267.0419889307799
 30
0.0000000000010917
 10
1942.259630710772
 20
265.7195992648047
 30
0.0000000000012054
 10
1941.602430381109
 20
264.8618915168857
 30
0.0000000000014612
 10
1940.884282448689
 20
262.7645013798846
 30
0.0000000000012622
 10
1940.864148541533
 20
261.5049389290301
 30
0.0000000000000117
 10
1941.487343770346
 20
259.0951278531883
 30
0.0000000000007222
 10
1942.049751181902
 20
257.9543750272818
 30
0.0000000000014043
 10
1943.773324474386
 20
255.710492275732
 30
0.0000000000002959
 10
1945.023823897819
 20
254.66159619907
 30
0.000000000000978
 10
1947.5808292295
 20
253.3021213556175
 30
0.000000000001177
 10
1948.825653617841
 20
252.8837256768996
 30
0.0000000000012907
 10
1950.097572429896
 20
252.6525136891754
 30
0.0000000000010064
 10
1950.869778500607
 20
252.5121404995906
 30
0.0000000000005233
 10
1951.652463556294
 20
252.4395913026243
 30
0.0000000000012907
 10
1953.835786045001
 20
252.4098401984973
 30
0.000000000001177
 10
1955.232204252047
 20
252.5890986870666
 30
0.0000000000013191
 10
1957.427682755333
 20
253.1458515964599
 30
0.0000000000006938
 10
1958.257978451841
 20
253.4260257656978
 30
0.0000000000011485
 10
1959.972196517695
 20
254.1514929096905
 30
0.0000000000014612
 10
1960.847925553778
 20
254.6140456383886
 30
0.000000000001717
 10
1962.295167174914
 20
255.564105078356
 30
0.0000000000004096
 10
1962.891095384959
 20
256.0223826330754
 30
0.0000000000012338
 10
1963.955380249675
 20
257.0157273796143
 30
0.0000000000003812
 10
1964.427657150057
 20
257.5495485795649
 30
0.0000000000012338
 10
1964.903126221184
 20
258.2745650140493
 30
0.0000000000006938
 10
1964.996293086423
 20
258.4302117374908
 30
0.000000000001518
 10
1965.081075164589
 20
258.5878148398123
 30
0.000000000000438
  0
SPLINE
  5
6DB6
330
18
100
AcDbEntity
  8
2：副線
100
AcDbSpline
210
-0.0000000000007496
220
-0.0000000000000664
230
1.0
 70
     8
 71
     3
 72
    14
 73
    10
 74
     0
 42
0.000000001
 43
0.0000000001
 40
2.566050458960043
 40
2.566050458960043
 40
2.566050458960043
 40
2.566050458960043
 40
4.152119635874478
 40
4.152119635874478
 40
8.149404038569693
 40
8.149404038569693
 40
11.02673430714559
 40
11.02673430714559
 40
13.70546329106432
 40
13.70546329106432
 40
13.70546329106432
 40
13.70546329106432
 10
1965.081075165828
 20
258.5878148421176
 30
0.0000000000008643
 10
1965.176712156304
 20
258.7656960274838
 30
0.000000000001177
 10
1965.252150261421
 20
258.9485146613646
 30
0.000000000000637
 10
1965.466043562413
 20
259.5956364278608
 30
0.0000000000008359
 10
1965.529732929704
 20
260.0658335033439
 30
0.0000000000004664
 10
1965.528925369891
 20
260.8554508234191
 30
0.0000000000012907
 10
1965.494134549915
 20
261.1812190269264
 30
0.0000000000018022
 10
1965.347812913945
 20
261.7876595265783
 30
0.000000000001518
 10
1965.242597489113
 20
262.0711131681966
 30
0.0000000000010917
 10
1965.081075165846
 20
262.327777027184
 30
0.0000000000004664
  0
SPLINE
  5
6DB7
330
18
100
AcDbEntity
  8
2：副線
100
AcDbSpline
210
0.0000000000001456
220
-0.0000000000212116
230
1.0
 70
     8
 71
     3
 72
    12
 73
     8
 74
     0
 42
0.000000001
 43
0.0000000001
 40
0.0395664996802317
 40
0.0395664996802317
 40
0.0395664996802317
 40
0.0395664996802317
 40
0.044369973804335
 40
0.044369973804335
 40
0.0700059586690619
 40
0.0700059586690619
 40
0.0802014969103863
 40
0.0802014969103863
 40
0.0802014969103863
 40
0.0802014969103863
 10
1974.247683169256
 20
320.3327729561717
 30
0.0000000000011201
 10
1974.238702911077
 20
320.3379667143869
 30
0.0000000000008928
 10
1974.229316760092
 20
320.3425438048779
 30
0.0000000000010064
 10
1974.167526570147
 20
320.3674985412048
 30
0.0000000000009212
 10
1974.105169211819
 20
320.3702516718946
 30
0.0000000000017738
 10
1974.013846543886
 20
320.3492997802761
 30
0.0000000000017738
 10
1973.987392922554
 20
320.3405708927513
 30
0.0000000000003243
 10
1973.960936256615
 20
320.3292439181802
 30
0.0000000000002959
  0
LINE
  5
6DB8
330
18
100
AcDbEntity
  8
2：副線
100
AcDbLine
 10
1973.33170081572
 20
320.6925331693639
 30
0.0000000000014612
 11
1973.960936256615
 21
320.3292439181795
 31
0.0000000000016317
210
0.0
220
0.8164965809277276
230
0.5773502691896239
  0
LINE
  5
6DB9
330
18
100
AcDbEntity
  8
2：副線
100
AcDbLine
 10
1944.009218670504
 20
319.1721592236635
 30
0.000000000000637
 11
1944.719810243584
 21
319.5824194596636
 31
0.0000000000008075
210
0.0
220
0.8164965809277276
230
0.5773502691896239
  0
SPLINE
  5
6DBA
330
18
100
AcDbEntity
  8
2：副線
100
AcDbSpline
210
-0.0000000000001516
220
0.0000000000007786
230
1.0
 70
     8
 71
     3
 72
    14
 73
    10
 74
     0
 42
0.000000001
 43
0.0000000001
 40
-4.452841034599527
 40
-4.452841034599527
 40
-4.452841034599527
 40
-4.452841034599527
 40
-4.040196183752808
 40
-4.040196183752808
 40
-3.614984392476593
 40
-3.614984392476593
 40
-2.941415927287701
 40
-2.941415927287701
 40
-2.566050458960043
 40
-2.566050458960043
 40
-2.566050458960043
 40
-2.566050458960043
 10
1960.470664662412
 20
256.686813209987
 30
0.0000000000005517
 10
1959.827707089865
 20
256.2778096908608
 30
0.0000000000002959
 10
1959.149107353676
 20
255.913583169119
 30
0.0000000000008643
 10
1957.724200963301
 20
255.2695823784048
 30
0.000000000001177
 10
1956.976064602498
 20
254.9929347222008
 30
0.0000000000012338
 10
1955.001953204465
 20
254.4226317964629
 30
0.0000000000019728
 10
1953.750288523981
 20
254.2130504502021
 30
0.0000000000002959
 10
1951.800257829845
 20
254.1577719440664
 30
0.0000000000013191
 10
1951.10257927178
 20
254.1923216204635
 30
0.0000000000013475
 10
1950.41562977175
 20
254.2868458422059
 30
0.000000000000438
  0
SPLINE
  5
6DBB
330
18
100
AcDbEntity
  8
2：副線
100
AcDbSpline
210
-0.0000000000000841
220
-0.000000000000015
230
-1.0
 70
     8
 71
     3
 72
    18
 73
    14
 74
     0
 42
0.000000001
 43
0.0000000001
 40
-13.70546329106432
 40
-13.70546329106432
 40
-13.70546329106432
 40
-13.70546329106432
 40
-13.08718998466289
 40
-13.08718998466289
 40
-12.32014649167161
 40
-12.32014649167161
 40
-11.6705331878891
 40
-11.6705331878891
 40
-10.93020875916561
 40
-10.93020875916561
 40
-10.23540583122123
 40
-10.23540583122123
 40
-10.03113003925454
 40
-10.03113003925454
 40
-10.03113003925454
 40
-10.03113003925454
 10
1950.41562977175
 20
254.2868458422059
 30
0.000000000000438
 10
1949.284139065886
 20
254.4425389148042
 30
0.0000000000012907
 10
1948.180681142435
 20
254.7637196448978
 30
0.0000000000008928
 10
1945.921335122355
 20
255.8617718024269
 30
0.0000000000014328
 10
1944.821931194361
 20
256.7353790425478
 30
0.0000000000010349
 10
1943.310603119061
 20
258.6354741524473
 30
0.0000000000017738
 10
1942.819255100919
 20
259.6116286448895
 30
0.0000000000016886
 10
1942.274967403296
 20
261.689429142344
 30
0.0000000000010349
 10
1942.292507871679
 20
262.78497312828
 30
0.000000000001717
 10
1942.919818489424
 20
264.6269534388813
 30
0.000000000000637
 10
1943.494148852072
 20
265.3896659638998
 30
0.0000000000008643
 10
1944.524700503492
 20
266.1426870957697
 30
0.0000000000013191
 10
1944.777907141396
 20
266.2981570140906
 30
0.0000000000012054
 10
1945.047645046832
 20
266.4384932076012
 30
0.0000000000016601
  0
SPLINE
  5
6DBC
330
18
100
AcDbEntity
  8
2：副線
100
AcDbSpline
210
-0.0000000000021509
220
0.0000000000008828
230
1.0
 70
     8
 71
     3
 72
    12
 73
     8
 74
     0
 42
0.000000001
 43
0.0000000001
 40
-0.3551378123620544
 40
-0.3551378123620544
 40
-0.3551378123620544
 40
-0.3551378123620544
 40
-0.2209849062234085
 40
-0.2209849062234085
 40
-0.084994194701311
 40
-0.084994194701311
 40
0.0
 40
0.0
 40
0.0
 40
0.0
 10
1926.227730045491
 20
261.5203001174126
 30
0.0000000000014043
 10
1926.323674460179
 20
261.5758427406412
 30
0.0000000000014043
 10
1926.406773198224
 20
261.6654790295403
 30
0.0000000000007506
 10
1926.538323389688
 20
261.9085601653868
 30
0.0000000000010633
 10
1926.586289437364
 20
262.0625986158803
 30
0.0000000000015465
 10
1926.629738582052
 20
262.3529513240527
 30
0.0000000000018022
 10
1926.638199706831
 20
262.4741778037841
 30
0.000000000000978
 10
1926.638199706831
 20
262.602691635955
 30
0.0000000000007506
  0
SPLINE
  5
6DBD
330
18
100
AcDbEntity
  8
2：副線
100
AcDbSpline
210
0.0000000000057878
220
-0.0000000000023587
230
1.0
 70
     8
 71
     3
 72
    12
 73
     8
 74
     0
 42
0.000000001
 43
0.0000000001
 40
0.0000000000000009
 40
0.0000000000000009
 40
0.0000000000000009
 40
0.0000000000000009
 40
0.0863951191012911
 40
0.0863951191012911
 40
0.2246273096633555
 40
0.2246273096633555
 40
0.3552959250861662
 40
0.3552959250861662
 40
0.3552959250861662
 40
0.3552959250861662
 10
1927.725476346236
 20
263.2304310964004
 30
0.0000000000008359
 10
1927.725476346236
 20
263.0997990235204
 30
0.0000000000009496
 10
1927.716830824823
 20
262.9767534996971
 30
0.0000000000014328
 10
1927.672466454047
 20
262.6827634018122
 30
0.0000000000009212
 10
1927.623502093507
 20
262.5275782551083
 30
0.0000000000012907
 10
1927.492322307265
 20
262.2899552275768
 30
0.0000000000004664
 10
1927.412076312108
 20
262.2042559540449
 30
0.0000000000005517
 10
1927.319934251508
 20
262.1509112674015
 30
0.0000000000008643
  0
LINE
  5
6DBE
330
18
100
AcDbEntity
  8
2：副線
100
AcDbLine
 10
1927.725476346236
 20
263.2304310963997
 30
0.0000000000012338
 11
1926.638199706829
 21
262.6026916359545
 31
0.0000000000011485
210
0.0
220
0.8164965809277276
230
0.5773502691896239
  0
LINE
  5
6DBF
330
18
100
AcDbEntity
  8
2：副線
100
AcDbLine
 10
1927.725476346236
 20
290.3789424122464
 30
0.0000000000016317
 11
1927.725476346236
 21
263.2304310963997
 31
0.0000000000012338
210
0.0
220
0.8164965809277276
230
0.5773502691896239
  0
LINE
  5
6DC0
330
18
100
AcDbEntity
  8
2：副線
100
AcDbLine
 10
1926.638199706829
 20
289.7512029518015
 30
0.000000000001518
 11
1927.725476346236
 21
290.3789424122464
 31
0.0000000000016317
210
0.0
220
0.8164965809277276
230
0.5773502691896239
  0
LINE
  5
6DC1
330
18
100
AcDbEntity
  8
2：副線
100
AcDbLine
 10
1926.638199706829
 20
262.6026916359545
 30
0.0000000000011485
 11
1926.638199706829
 21
289.7512029518015
 31
0.000000000001518
210
0.0
220
0.8164965809277276
230
0.5773502691896239
  0
SPLINE
  5
6DC2
330
18
100
AcDbEntity
  8
2：副線
100
AcDbSpline
210
0.0000000000006528
220
0.0000000000000059
230
1.0
 70
     8
 71
     3
 72
    10
 73
     6
 74
     0
 42
0.000000001
 43
0.0000000001
 40
-0.9476524482232413
 40
-0.9476524482232413
 40
-0.9476524482232413
 40
-0.9476524482232413
 40
-0.4523428042404145
 40
-0.4523428042404145
 40
-0.0000000000000053
 40
-0.0000000000000053
 40
-0.0000000000000053
 40
-0.0000000000000053
 10
1928.475446420957
 20
293.2149127799856
 30
0.0000000000010349
 10
1928.216089678054
 20
292.9044917914104
 30
0.0000000000008359
 10
1928.022432909052
 20
292.4888125888696
 30
0.0000000000010064
 10
1927.782911879519
 20
291.5157151669483
 30
0.0000000000015749
 10
1927.725476346236
 20
290.9746462075203
 30
0.0000000000014612
 10
1927.725476346236
 20
290.3789424122466
 30
0.0000000000012054
  0
SPLINE
  5
6DC3
330
18
100
AcDbEntity
  8
2：副線
100
AcDbSpline
210
-0.000000000000084
220
0.0000000000001689
230
1.0
 70
     8
 71
     3
 72
    12
 73
     8
 74
     0
 42
0.000000001
 43
0.0000000001
 40
0.0000000000000018
 40
0.0000000000000018
 40
0.0000000000000018
 40
0.0000000000000018
 40
0.3007913868685286
 40
0.3007913868685286
 40
0.7820576058581717
 40
0.7820576058581717
 40
1.220944300061636
 40
1.220944300061636
 40
1.220944300061636
 40
1.220944300061636
 10
1926.638199706829
 20
289.7512029518017
 30
0.0000000000011201
 10
1926.638199706829
 20
290.1473241436576
 30
0.0000000000012338
 10
1926.663927961622
 20
290.5197523285184
 30
0.0000000000006654
 10
1926.797386188611
 20
291.4081930913327
 30
0.0000000000007222
 10
1926.945120103933
 20
291.8756029062196
 30
0.0000000000007222
 10
1927.349482175202
 20
292.58337840626
 30
0.0000000000008075
 10
1927.595608175462
 20
292.8399758474705
 30
0.0000000000008075
 10
1927.891376546856
 20
293.0110255046524
 30
0.000000000000438
  0
SPLINE
  5
6DC4
330
18
100
AcDbEntity
  8
2：副線
100
AcDbSpline
210
-0.000000000004022
220
-0.0000000000065644
230
-1.0
 70
     8
 71
     3
 72
    14
 73
    10
 74
     0
 42
0.000000001
 43
0.0000000001
 40
0.0
 40
0.0
 40
0.0
 40
0.0
 40
0.0307462038840145
 40
0.0307462038840145
 40
0.0799401300984378
 40
0.0799401300984378
 40
0.1438922341771879
 40
0.1438922341771879
 40
0.1644665105877819
 40
0.1644665105877819
 40
0.1644665105877819
 40
0.1644665105877819
 10
1944.009218670505
 20
319.1721592236639
 30
0.0000000000002675
 10
1943.977845632507
 20
319.1731295614942
 30
-0.0000000000000167
 10
1943.946523543212
 20
319.1768340390271
 30
0.0000000000014896
 10
1943.867931196589
 20
319.1934119250551
 30
0.0000000000018022
 10
1943.822328812773
 20
319.2105353877572
 30
0.0000000000008643
 10
1943.734589955125
 20
319.2634088520937
 30
0.0000000000017454
 10
1943.698049716309
 20
319.30353163866
 30
0.0000000000011485
 10
1943.679191163577
 20
319.3604192064412
 30
0.0000000000002391
 10
1943.676855081295
 20
319.3745182844749
 30
0.0000000000006938
 10
1943.676855081295
 20
319.3885173064285
 30
0.0000000000007506
  0
LINE
  5
6DC5
330
18
100
AcDbEntity
  8
2：副線
100
AcDbLine
 10
1944.30832253888
 20
319.7530952130479
 30
0.0000000000016033
 11
1943.676855081295
 21
319.3885173064281
 31
0.000000000001177
210
0.0
220
0.8164965809277276
230
0.5773502691896239
  0
LINE
  5
6DC6
330
18
100
AcDbEntity
  8
2：副線
100
AcDbLine
 10
1943.676855081295
 20
319.3885173064281
 30
0.000000000001177
 11
1943.676855081295
 21
334.7696292756863
 31
0.0000000000008928
210
0.0
220
0.8164965809277276
230
0.5773502691896239
  0
SPLINE
  5
6DC7
330
18
100
AcDbEntity
  8
2：副線
100
AcDbSpline
210
0.0000000000000201
220
-0.0000000000000029
230
1.0
 70
     8
 71
     3
 72
    19
 73
    15
 74
     0
 42
0.000000001
 43
0.0000000001
 40
-40.23244036277293
 40
-40.23244036277293
 40
-40.23244036277293
 40
-40.23244036277293
 40
-39.37213490805249
 40
-39.37213490805249
 40
-38.32175960765767
 40
-38.32175960765767
 40
-37.27137930726286
 40
-37.27137930726286
 40
-37.27137930726286
 40
-36.41559812848143
 40
-36.41559812848143
 40
-35.55981694970002
 40
-35.55981694970002
 40
-34.31003837394628
 40
-34.31003837394628
 40
-34.31003837394628
 40
-34.31003837394628
 10
1943.425218668009
 20
335.0133891513907
 30
0.0000000000014612
 10
1942.107304650016
 20
335.0918807817874
 30
0.0000000000005517
 10
1940.823781716064
 20
335.2009629809958
 30
0.0000000000010633
 10
1938.056346093522
 20
335.5702320132226
 30
0.0000000000007791
 10
1936.589900747438
 20
335.8593098650271
 30
0.0000000000008928
 10
1933.793694013926
 20
336.7059067475515
 30
0.000000000001177
 10
1932.464211112597
 20
337.2665230148508
 30
0.0000000000013475
 10
1931.226326057206
 20
337.9812162848062
 30
0.0000000000013475
 10
1930.217778265994
 20
338.5635016235541
 30
0.0000000000012907
 10
1929.270926173205
 20
339.2467029375211
 30
0.0000000000008359
 10
1927.521082166602
 20
340.7751649614283
 30
0.0000000000015749
 10
1926.717811711201
 20
341.6191998280041
 30
0.0000000000016886
 10
1924.924350609386
 20
343.8174680303624
 30
0.0000000000008928
 10
1924.017445472118
 20
345.2267198480132
 30
0.0000000000014043
 10
1923.272675404244
 20
346.6484654296565
 30
0.0000000000014043
  0
ELLIPSE
  5
6DC8
330
18
100
AcDbEntity
  8
2：副線
100
AcDbEllipse
 10
1957.072224787556
 20
263.8438525902826
 30
0.0000000000011201
 11
-1.831329171421908
 21
3.171955170285856
 31
0.0
210
-0.0000000000000001
220
-0.0000000000000001
230
-1.0
 40
0.577350269189635
 41
1.282511417671019
 42
6.074094543084108
  0
ELLIPSE
  5
6DC9
330
18
100
AcDbEntity
  8
2：副線
100
AcDbEllipse
 10
1928.776221827496
 20
273.8202756649156
 30
0.0000000000009496
 11
0.0725276368812981
 21
0.2392482850271151
 31
0.0
210
0.0
220
0.0000000000000001
230
1.0
 40
0.3795736671932374
 41
2.244715938891554
 42
3.141592653594389
  0
ELLIPSE
  5
6DCA
330
18
100
AcDbEntity
  8
2：副線
100
AcDbEllipse
 10
1930.563314197464
 20
272.7884974040477
 30
0.0000000000013191
 11
0.1849525126895262
 21
0.1682039477831305
 31
0.0
210
-0.0000000000000001
220
0.0
230
-1.0
 40
0.7229042106946672
 41
3.14159265358919
 42
3.723180946938455
  0
ELLIPSE
  5
6DCB
330
18
100
AcDbEntity
  8
2：副線
100
AcDbEllipse
 10
1928.214691555474
 20
270.4230562980193
 30
0.0000000000013475
 11
-0.1250000000000033
 21
0.2165063509461162
 31
0.0
210
0.0
220
0.0
230
-1.0
 40
0.5773502691896272
 41
0.0000000000019531
 42
0.7853981633995462
  0
ELLIPSE
  5
6DCC
330
18
100
AcDbEntity
  8
2：副線
100
AcDbEllipse
 10
1956.800477993103
 20
271.6478011694111
 30
0.0000000000014328
 11
33.75
 21
-0.0000000000020068
 31
-0.0000000000000045
210
-0.0000000000000001
220
-0.0000000000000001
230
-1.0
 40
0.5773502691896237
 41
2.188257298156377
 42
2.632728628803703
  0
ELLIPSE
  5
6DCD
330
18
100
AcDbEntity
  8
2：副線
100
AcDbEllipse
 10
1956.800477993101
 20
271.4436770241795
 30
0.0000000000008359
 11
34.0
 21
0.0000000000000047
 31
-0.0000000000000026
210
0.0000000000000001
220
0.0
230
1.0
 40
0.5773502691896236
 41
3.64489769308423
 42
4.106214358239069
  0
ELLIPSE
  5
6DCE
330
18
100
AcDbEntity
  8
2：副線
100
AcDbEllipse
 10
1926.800477993103
 20
271.6478011694111
 30
0.0000000000014328
 11
3.999999999999996
 21
0.0000000000000002
 31
-0.0000000000000002
210
0.0
220
-0.0000000000000001
230
1.0
 40
0.5773502691896236
 41
0.4835000894215823
 42
1.087296237373623
  0
ELLIPSE
  5
6DCF
330
18
100
AcDbEntity
  8
2：副線
100
AcDbEllipse
 10
1926.800477993101
 20
271.4436770241795
 30
0.0000000000012907
 11
1.999999999999953
 21
0.0000000000000001
 31
-0.0000000000000001
210
0.0
220
0.0000000000000001
230
1.0
 40
0.5773502691896236
 41
5.234961333608134
 42
5.497787143782279
  0
ELLIPSE
  5
6DD0
330
18
100
AcDbEntity
  8
2：副線
100
AcDbEllipse
 10
1922.958072063629
 20
332.3296680722061
 30
0.000000000000438
 11
-0.1249999999993184
 21
0.2165063509449297
 31
0.0
210
0.0
220
0.0
230
-1.0
 40
0.5773502691896267
 41
3.017937772879447
 42
3.141592653590694
  0
ELLIPSE
  5
6DD1
330
18
100
AcDbEntity
  8
2：副線
100
AcDbEllipse
 10
1926.800477993103
 20
273.2807943312668
 30
0.0000000000012054
 11
4.0
 21
-0.0000000000002382
 31
-0.0000000000000004
210
-0.0000000000000001
220
-0.0000000000000002
230
-1.0
 40
0.5773502691896237
 41
-1.318575210426193
 42
-0.000000000000108
  0
ELLIPSE
  5
6DD2
330
18
100
AcDbEntity
  8
2：副線
100
AcDbEllipse
 10
1956.800477993103
 20
273.2807943312668
 30
0.0000000000012054
 11
33.74999999999995
 21
0.0000000000000047
 31
-0.0000000000000026
210
0.0000000000000001
220
0.0
230
1.0
 40
0.5773502691896237
 41
3.678463128748037
 42
4.091698445684384
  0
ELLIPSE
  5
6DD3
330
18
100
AcDbEntity
  8
2：副線
100
AcDbEllipse
 10
1956.800477993101
 20
271.4436770241795
 30
0.0000000000008359
 11
36.00000000000001
 21
-0.0000000000021439
 31
0.0000000000000003
210
0.0
220
-0.0000000000000001
230
-1.0
 40
0.5773502691896241
 41
1.066686704217314
 42
2.901536687502753
  0
ELLIPSE
  5
6DD4
330
18
100
AcDbEntity
  8
2：副線
100
AcDbEllipse
 10
1922.958072063629
 20
332.3296680722075
 30
0.0000000000007791
 11
0.2116882211162014
 21
0.1329966053726278
 31
-0.0000000000000001
210
-0.0000000000000002
220
-0.0000000000000001
230
-1.0
 40
0.7675613536605989
 41
3.141592653587552
 42
3.590925936760284
  0
ELLIPSE
  5
6DD5
330
18
100
AcDbEntity
  8
2：副線
100
AcDbEllipse
 10
1956.800477993103
 20
339.417017386413
 30
0.0000000000010064
 11
36.25000000000019
 21
-0.0000000000021571
 31
-0.000000000000006
210
-0.0000000000000002
220
0.0000000000000001
230
-1.0
 40
0.5773502691896237
 41
2.793622571433925
 42
3.141592653589402
  0
ELLIPSE
  5
6DD6
330
18
100
AcDbEntity
  8
2：副線
100
AcDbEllipse
 10
1974.189486463254
 20
253.0404468164244
 30
0.000000000000978
 11
-0.0758687968949957
 21
0.2382098353504839
 31
0.0
210
0.0000000000000003
220
0.0000000000000002
230
1.0
 40
0.3943907211556648
 41
-2.250132329094542
 42
-0.6793360022996465
  0
ELLIPSE
  5
6DD7
330
18
100
AcDbEntity
  8
2：副線
100
AcDbEllipse
 10
1956.800477993103
 20
271.2395528789481
 30
0.0000000000007222
 11
36.25000000000003
 21
0.0000000000000064
 31
-0.0000000000000072
210
0.0000000000000002
220
-0.0000000000000001
230
1.0
 40
0.577350269189624
 41
3.141592653589783
 42
5.216498602961883
  0
ELLIPSE
  5
6DD8
330
18
100
AcDbEntity
  8
2：副線
100
AcDbEllipse
 10
1975.089924816287
 20
254.1535716527675
 30
0.0000000000013191
 11
0.2499999999999926
 21
-0.0000000000000131
 31
0.0
210
0.0
220
-0.0000000000000001
230
-1.0
 40
0.5773502691896307
 41
1.037888389007516
 42
2.356194490193014
  0
ELLIPSE
  5
6DD9
330
18
100
AcDbEntity
  8
2：副線
100
AcDbEllipse
 10
1975.089924816287
 20
320.6980429983779
 30
0.0000000000012622
 11
0.2499999999999986
 21
-0.0000000000000149
 31
0.0
210
-0.0000000000000001
220
-0.0000000000000001
230
-1.0
 40
0.5773502691896237
 41
1.037888389009264
 42
2.356194490193001
  0
ELLIPSE
  5
6DDA
330
18
100
AcDbEntity
  8
2：副線
100
AcDbEllipse
 10
1974.189486463255
 20
321.2179113238889
 30
0.0000000000007791
 11
-0.075868796894987
 21
0.238209835350485
 31
0.0
210
-0.0000000000000001
220
-0.0000000000000001
230
-1.0
 40
0.3943907211556855
 41
2.250132329093655
 42
3.14159265358707
  0
ELLIPSE
  5
6DDB
330
18
100
AcDbEntity
  8
2：副線
100
AcDbEllipse
 10
1944.524828889841
 20
319.8780952130206
 30
0.0000000000014328
 11
0.0512438770427644
 21
0.2446917756395457
 31
0.0
210
0.0000000000000001
220
0.0
230
1.0
 40
0.2784173755966703
 41
2.215696143849222
 42
3.141592653590197
  0
ELLIPSE
  5
6DDC
330
18
100
AcDbEntity
  8
2：副線
100
AcDbEllipse
 10
1956.800477993103
 20
339.417017386413
 30
0.0000000000010064
 11
36.25000000000007
 21
-0.0000000000021608
 31
-0.0000000000000011
210
0.0
220
-0.0000000000000002
230
-1.0
 40
0.577350269189624
 41
1.066686704217302
 42
1.918766408952402
  0
ELLIPSE
  5
6DDD
330
18
100
AcDbEntity
  8
2：副線
100
AcDbEllipse
 10
1922.958072063629
 20
332.329668072207
 30
0.0000000000004948
 11
0.2500000000000015
 21
-0.0000000000000149
 31
0.0
210
-0.0000000000000001
220
-0.0000000000000001
230
-1.0
 40
0.5773502691896237
 41
0.9790006399494405
 42
2.793622571431334
  0
ELLIPSE
  5
6DDE
330
18
100
AcDbEntity
  8
2：副線
100
AcDbEllipse
 10
1944.524828889843
 20
319.8780952130211
 30
0.0000000000004096
 11
0.2500000000000078
 21
-0.0000000000000149
 31
0.0
210
-0.0000000000000001
220
-0.0000000000000001
230
-1.0
 40
0.5773502691896236
 41
1.918766408950038
 42
3.141592653587039
  0
ELLIPSE
  5
6DDF
330
18
100
AcDbEntity
  8
2：副線
100
AcDbEllipse
 10
1944.524828889841
 20
335.3915302506474
 30
0.0000000000010064
 11
0.2500000000000078
 21
-0.0000000000000149
 31
0.0
210
-0.0000000000000001
220
-0.0000000000000001
230
-1.0
 40
0.5773502691896236
 41
1.918766408953449
 42
3.14159265359045
  0
ELLIPSE
  5
6DE0
330
18
100
AcDbEntity
  8
2：副線
100
AcDbEllipse
 10
1956.800477993103
 20
355.3387007145033
 30
0.0000000000016317
 11
36.25000000000111
 21
-0.0000000000021582
 31
-0.0000000000000033
210
-0.0000000000000001
220
-0.0000000000000001
230
-1.0
 40
0.5773502691896239
 41
2.604950494666741
 42
2.778344020882697
  0
ELLIPSE
  5
6DE1
330
18
100
AcDbEntity
  8
2：副線
100
AcDbEllipse
 10
1956.800477993103
 20
355.3387007145033
 30
0.0000000000016317
 11
36.25000000000051
 21
-0.0000000000021571
 31
-0.000000000000006
210
-0.0000000000000002
220
0.0000000000000001
230
-0.9999999999999998
 40
0.5773502691896237
 41
1.934044959502927
 42
2.10743848572075
  0
ELLIPSE
  5
6DE2
330
18
100
AcDbEntity
  8
2：副線
100
AcDbEllipse
 10
1956.800477993103
 20
266.5446975386129
 30
0.0000000000009212
 11
36.25000000000002
 21
-0.0000000000021573
 31
-0.0000000000000027
210
-0.0000000000000001
220
-0.0000000000000001
230
-1.0
 40
0.5773502691896237
 41
0.9084534931345054
 42
3.141592653589425
  0
ELLIPSE
  5
6DE3
330
18
100
AcDbEntity
  8
2：副線
100
AcDbEllipse
 10
1956.800477993103
 20
362.0747975071573
 30
0.0000000000010633
 11
36.25000000000002
 21
0.0000000000000042
 31
-0.0000000000000053
210
0.0000000000000001
220
-0.0000000000000002
230
1.0
 40
0.5773502691896236
 41
3.141592653589783
 42
5.374731814044703
  0
ELLIPSE
  5
6DE4
330
18
100
AcDbEntity
  8
2：副線
100
AcDbEllipse
 10
1922.958072063629
 20
347.8431031098336
 30
0.0000000000010633
 11
0.2500000000000027
 21
-0.0000000000000149
 31
0.0
210
0.0
220
-0.0000000000000001
230
-1.0
 40
0.5773502691896236
 41
1.3364582621411
 42
2.793622571434972
  0
ELLIPSE
  5
6DE5
330
18
100
AcDbEntity
  8
2：副線
100
AcDbEllipse
 10
1956.800477993103
 20
273.4849184764984
 30
0.0000000000013191
 11
33.50000000000006
 21
-0.0000000000019899
 31
-0.0000000000000062
210
-0.0000000000000002
220
0.0000000000000001
230
-1.0
 40
0.5773502691896236
 41
2.196832565030089
 42
2.617392836501574
  0
ELLIPSE
  5
6DE6
330
18
100
AcDbEntity
  8
2：副線
100
AcDbEllipse
 10
1926.800477993103
 20
273.4849184764984
 30
0.0000000000013191
 11
4.25
 21
0.0000000000000006
 31
-0.0000000000000003
210
0.0000000000000001
220
0.0000000000000001
230
1.0
 40
0.5773502691896236
 41
-0.6108652381986058
 42
1.333705654249077
  0
ELLIPSE
  5
6DE7
330
18
100
AcDbEntity
  8
2：副線
100
AcDbEllipse
 10
1930.281874181327
 20
271.8733876640732
 30
0.0000000000012907
 11
-0.1590431259815265
 21
0.1928867130676021
 31
0.0
210
-0.0000000000000002
220
0.0
230
-1.0
 40
0.6688348434218872
 41
-0.0000000000009593
 42
0.8892877104999854
  0
ELLIPSE
  5
6DE8
330
18
100
AcDbEntity
  8
2：副線
100
AcDbEllipse
 10
1956.800477993106
 20
358.6046870382132
 30
0.0000000000015749
 11
35.25000000000482
 21
0.0000000000000049
 31
-0.0000000000000026
210
0.0000000000000001
220
0.0
230
1.0
 40
0.5773502691896236
 41
3.022423885147299
 42
3.05593057377031
  0
ELLIPSE
  5
6DE9
330
18
100
AcDbEntity
  8
2：副線
100
AcDbEllipse
 10
1938.395368223374
 20
337.4757788336516
 30
0.0000000000010633
 11
0.0812066937112691
 21
0.2364433820103577
 31
0.0
210
0.0
220
-0.0000000000000001
230
-1.0
 40
0.4174363629018986
 41
3.141592650622747
 42
4.023921871246654
  0
ELLIPSE
  5
6DEA
330
18
100
AcDbEntity
  8
2：副線
100
AcDbEllipse
 10
1944.009218846252
 20
335.9103392341122
 30
0.0000000000014043
 11
0.0535897221161955
 21
0.244188741926224
 31
0.0
210
0.0
220
-0.0000000000000001
230
-1.0
 40
0.2901116488655923
 41
3.14159265359498
 42
4.064761032956266
  0
ELLIPSE
  5
6DEB
330
18
100
AcDbEntity
  8
2：副線
100
AcDbEllipse
 10
1956.800477993101
 20
362.2789216523887
 30
0.000000000001177
 11
36.00000000000001
 21
-0.0000000000021439
 31
0.0000000000000003
210
0.0
220
-0.0000000000000001
230
-1.0
 40
0.5773502691896241
 41
0.9084534931344965
 42
3.377843959575224
  0
ELLIPSE
  5
6DEC
330
18
100
AcDbEntity
  8
2：副線
100
AcDbEllipse
 10
1978.939253561593
 20
345.6850180056109
 30
0.0000000000006654
 11
-0.1026396426698891
 21
0.2279585570944649
 31
0.0
210
-0.0000000000000001
220
0.0
230
-1.0
 40
0.5021176265999558
 41
0.7309964506221745
 42
2.301792777417071
  0
ELLIPSE
  5
6DED
330
18
100
AcDbEntity
  8
2：副線
100
AcDbEllipse
 10
1956.800477993101
 20
362.2789216523887
 30
0.000000000001177
 11
35.50000000000002
 21
-0.0000000000021148
 31
-0.0000000000000002
210
0.0
220
-0.0000000000000001
230
-1.0
 40
0.5773502691896239
 41
0.9094339845200432
 42
3.309626543073233
  0
ELLIPSE
  5
6DEE
330
18
100
AcDbEntity
  8
2：副線
100
AcDbEllipse
 10
1978.60431254145
 20
345.900303192669
 30
0.0000000000012338
 11
-0.1024671390111161
 21
0.2280361493775697
 31
0.0
210
-0.0000000000000002
220
-0.0000000000000002
230
-1.0
 40
0.5014860946434088
 41
0.0000000000017101
 42
0.7306167853969411
  0
ELLIPSE
  5
6DEF
330
18
100
AcDbEntity
  8
2：副線
100
AcDbEllipse
 10
1938.395368223278
 20
337.4757788332216
 30
0.0000000000008359
 11
0.1435591609908076
 21
0.2046723413057573
 31
0.0
210
0.0
220
-0.0000000000000002
230
1.0
 40
0.1870639402359478
 41
2.345924407805257
 42
3.141592654806597
  0
ELLIPSE
  5
6DF0
330
18
100
AcDbEntity
  8
2：副線
100
AcDbEllipse
 10
1925.86098972388
 20
344.712505633972
 30
0.0000000000009496
 11
0.0865052222183195
 21
0.2345567021616514
 31
0.0
210
0.0
220
-0.0000000000000001
230
-1.0
 40
0.8602219676970049
 41
3.141592662967762
 42
4.100616736551208
  0
ELLIPSE
  5
6DF1
330
18
100
AcDbEntity
  8
2：副線
100
AcDbEllipse
 10
1923.149568801227
 20
347.9536638028347
 30
0.0000000000009496
 11
0.2088076618690305
 21
0.1374749444256282
 31
0.0
210
0.0
220
0.0
230
1.0
 40
0.7632181194521265
 41
2.675956533711169
 42
3.141592653590286
  0
ELLIPSE
  5
6DF2
330
18
100
AcDbEntity
  8
2：副線
100
AcDbEllipse
 10
1925.860989724658
 20
344.712505633686
 30
0.0000000000010633
 11
0.1741145234746014
 21
0.1793993665409221
 31
0.0
210
0.0
220
0.0000000000000001
230
1.0
 40
0.7017218467909922
 41
2.515582862774293
 42
3.141592653588006
  0
ELLIPSE
  5
6DF3
330
18
100
AcDbEntity
  8
2：副線
100
AcDbEllipse
 10
1928.432778832467
 20
272.998458788882
 30
0.0000000000011201
 11
-0.1250000000000124
 21
0.2165063509461019
 31
0.0
210
0.0000000000000001
220
0.0000000000000001
230
1.0
 40
0.5773502691896269
 41
3.141592653587679
 42
3.926990816984982
  0
ELLIPSE
  5
6DF4
330
18
100
AcDbEntity
  8
2：副線
100
AcDbEllipse
 10
1928.432778832467
 20
272.998458788882
 30
0.0000000000011201
 11
0.2499999999999996
 21
-0.0000000000000149
 31
0.0
210
-0.0000000000000001
220
-0.0000000000000001
230
-1.0
 40
0.5773502691896236
 41
-0.0000000000029818
 42
0.7853981633944665
  0
ELLIPSE
  5
6DF5
330
18
100
AcDbEntity
  8
2：副線
100
AcDbEllipse
 10
1980.670624600572
 20
344.6790159371598
 30
0.0000000000007222
 11
0.2500000000000042
 21
0.0
 31
0.0
210
0.0000000000000001
220
0.0
230
1.0
 40
0.5773502691896237
 41
5.437287696034509
 42
6.283185307178448
  0
ELLIPSE
  5
6DF6
330
18
100
AcDbEntity
  8
2：副線
100
AcDbEllipse
 10
1980.670624600572
 20
252.8231505827901
 30
0.0000000000008643
 11
0.2500000000000097
 21
-0.0000000000000162
 31
0.0
210
-0.0000000000000001
220
-0.0000000000000001
230
-1.0
 40
0.5773502691896289
 41
0.0000000000006355
 42
0.8458976111445748
  0
ELLIPSE
  5
6DF7
330
18
100
AcDbEntity
  8
2：副線
100
AcDbEllipse
 10
1978.939253561591
 20
250.154918037066
 30
0.0000000000012907
 11
-0.1026396426699015
 21
0.2279585570944875
 31
0.0
210
-0.0000000000000002
220
-0.0000000000000001
230
-1.0
 40
0.5021176265999746
 41
2.301792777419696
 42
3.141592653590376
  0
ELLIPSE
  5
6DF8
330
18
100
AcDbEntity
  8
2：副線
100
AcDbEllipse
 10
1928.116322078445
 20
282.4985387096593
 30
0.0000000000009496
 11
-0.125000000000002
 21
0.2165063509461139
 31
0.0
210
0.0000000000000001
220
0.0
230
-1.0
 40
0.577350269189627
 41
3.926990816989405
 42
5.497787143784075
  0
ELLIPSE
  5
6DF9
330
18
100
AcDbEntity
  8
2：副線
100
AcDbEllipse
 10
1928.116322078445
 20
282.4985387096593
 30
0.0000000000009496
 11
0.1250000000000003
 21
0.2165063509461111
 31
0.0
210
0.0
220
0.0
230
1.0
 40
0.5773502691896267
 41
3.926990816989405
 42
5.497787143784302
  0
ELLIPSE
  5
6DFA
330
18
100
AcDbEntity
  8
2：副線
100
AcDbEllipse
 10
1928.116322078445
 20
282.4985387096603
 30
0.0000000000007791
 11
0.2499999999999993
 21
0.0000000000000278
 31
0.0
210
-0.0000000000000001
220
0.0
230
-1.0
 40
0.5773502691894866
 41
-2.356194490194714
 42
-0.7853981633998185
  0
ELLIPSE
  5
6DFB
330
18
100
AcDbEntity
  8
2：副線
100
AcDbEllipse
 10
1931.172541045719
 20
294.3074329833909
 30
0.0000000000010917
 11
-2.000000000000202
 21
3.464101615137638
 31
0.0
210
0.0000000000000001
220
0.0000000000000001
230
1.0
 40
0.5773502691896269
 41
1.549475221532175
 42
2.356194490191855
  0
ELLIPSE
  5
6DFC
330
18
100
AcDbEntity
  8
2：副線
100
AcDbEllipse
 10
1932.940307998686
 20
292.0620673858401
 30
0.0000000000013475
 11
1.250000000000013
 21
2.165063509461128
 31
0.0
210
0.0000000000000001
220
0.0
230
1.0
 40
0.5773502691896267
 41
1.78163365159584
 42
2.356194490192407
  0
ELLIPSE
  5
6DFD
330
18
100
AcDbEntity
  8
2：副線
100
AcDbEllipse
 10
1973.960936256615
 20
253.7847725725709
 30
0.0000000000007791
 11
-0.0746922048110925
 21
0.2385813792827451
 31
0.0
210
-0.0000000000000001
220
-0.0000000000000001
230
-1.0
 40
0.3892071011877085
 41
2.248198606336911
 42
3.141592653591631
  0
ELLIPSE
  5
6DFE
330
18
100
AcDbEntity
  8
2：副線
100
AcDbEllipse
 10
1974.18948628757
 20
254.0610674411385
 30
0.0000000000007791
 11
0.2499999999999976
 21
-0.0000000000000272
 31
0.0
210
-0.0000000000000001
220
-0.0000000000000001
230
-1.0
 40
0.5773502691896249
 41
0.0000000000005134
 42
1.066686704218206
  0
ELLIPSE
  5
6DFF
330
18
100
AcDbEntity
  8
2：副線
100
AcDbEllipse
 10
1956.800477817418
 20
272.0560493584302
 30
0.0000000000010633
 11
36.24999999999982
 21
-0.0000000000021706
 31
-0.0000000000000012
210
0.0
220
-0.0000000000000002
230
-1.0
 40
0.5773502691896239
 41
1.073922868786386
 42
2.074714416961721
  0
ELLIPSE
  5
6E00
330
18
100
AcDbEntity
  8
2：副線
100
AcDbEllipse
 10
1939.417507108009
 20
253.8550207307604
 30
0.0000000000010064
 11
0.0758376047230125
 21
0.2382197676723667
 31
0.0
210
0.0
220
0.0000000000000001
230
-1.0
 40
0.3942537819611191
 41
3.14159265358841
 42
4.033104611177773
  0
ELLIPSE
  5
6E01
330
18
100
AcDbEntity
  8
2：副線
100
AcDbEllipse
 10
1925.275371484276
 20
262.0199865400376
 30
0.0000000000015749
 11
0.1807929312575689
 21
0.1726670669447579
 31
0.0
210
0.0
220
0.0
230
1.0
 40
0.7150039315109427
 41
2.54245773562033
 42
3.141592653592767
  0
ELLIPSE
  5
6E02
330
18
100
AcDbEntity
  8
2：副線
100
AcDbEllipse
 10
1956.800477817418
 20
272.0560493584299
 30
0.0000000000014896
 11
36.24999999999971
 21
-0.0000000000021496
 31
-0.0000000000000041
210
-0.0000000000000001
220
0.0000000000000001
230
-1.0
 40
0.5773502691896237
 41
2.637674563422176
 42
3.141592653589396
  0
ELLIPSE
  5
6E03
330
18
100
AcDbEntity
  8
2：副線
100
AcDbEllipse
 10
1956.800477817418
 20
338.3963965588076
 30
0.0000000000010064
 11
36.24999999999988
 21
0.0000000000000022
 31
-0.0000000000000013
210
0.0
220
0.0
230
1.0
 40
0.577350269189624
 41
4.349140347674629
 42
5.209262438392795
  0
ELLIPSE
  5
6E04
330
18
100
AcDbEntity
  8
2：副線
100
AcDbEllipse
 10
1956.800477817418
 20
338.3963965588076
 30
0.0000000000010064
 11
36.24999999999983
 21
0.0000000000000051
 31
-0.0000000000000047
210
0.0000000000000001
220
-0.0000000000000001
230
1.0
 40
0.5773502691896236
 41
3.141592653589785
 42
3.504841286296518
  0
ELLIPSE
  5
6E05
330
18
100
AcDbEntity
  8
2：副線
100
AcDbEllipse
 10
1923.149568625541
 20
331.0113596471389
 30
0.0000000000012338
 11
0.20880766186896
 21
0.1374749444256048
 31
0.0
210
-0.0000000000000001
220
-0.0000000000000001
230
-1.0
 40
0.7632181194521023
 41
-2.675956533711097
 42
-1.329705772507778
  0
ELLIPSE
  5
6E06
330
18
100
AcDbEntity
  8
2：副線
100
AcDbEllipse
 10
1956.800477817416
 20
338.6005207040399
 30
0.0000000000010064
 11
35.99999999999974
 21
-0.0000000000021372
 31
-0.0000000000000092
210
-0.0000000000000003
220
0.0
230
-1.0
 40
0.5773502691896237
 41
2.782433930534092
 42
2.976010224143924
  0
ELLIPSE
  5
6E07
330
18
100
AcDbEntity
  8
2：副線
100
AcDbEllipse
 10
1973.960936256615
 20
320.1251197729476
 30
0.0000000000008928
 11
-0.0746922048110685
 21
0.2385813792827393
 31
0.0
210
0.0000000000000001
220
0.0
230
-1.0
 40
0.3892071011877278
 41
0.6774022795417177
 42
2.248198606336614
  0
ELLIPSE
  5
6E08
330
18
100
AcDbEntity
  8
2：副線
100
AcDbEllipse
 10
1974.18948628757
 20
319.9931663510521
 30
0.0000000000014328
 11
0.2499999999999932
 21
0.0
 31
0.0
210
0.0
220
0.0000000000000001
230
1.0
 40
0.5773502691896239
 41
5.216498602964393
 42
6.283185307182086
  0
ELLIPSE
  5
6E09
330
18
100
AcDbEntity
  8
2：副線
100
AcDbEllipse
 10
1956.800477817418
 20
338.6005207040392
 30
0.0000000000011201
 11
35.99999999999984
 21
-0.0000000000021449
 31
-0.0000000000000044
210
-0.0000000000000001
220
-0.0000000000000001
230
-1.0
 40
0.5773502691896236
 41
1.073922868786405
 42
1.934044959504571
  0
ELLIPSE
  5
6E0A
330
18
100
AcDbEntity
  8
2：副線
100
AcDbEllipse
 10
1944.009218670504
 20
318.9680350784316
 30
0.0000000000008643
 11
0.0535897221164853
 21
0.2441887419261578
 31
0.0
210
0.0000000000000001
220
0.0
230
1.0
 40
0.2901116488670866
 41
0.6476279474310758
 42
2.218424274225972
  0
ELLIPSE
  5
6E0B
330
18
100
AcDbEntity
  8
2：副線
100
AcDbEllipse
 10
1958.749705336245
 20
264.8123464366287
 30
0.000000000000978
 11
-3.771749425730718
 21
6.532861638784359
 31
0.0000000000000004
210
-0.0000000000000001
220
0.0
230
-1.0
 40
0.5773502691896267
 41
3.165270123851962
 42
4.037165997676161
  0
ELLIPSE
  5
6E0C
330
18
100
AcDbEntity
  8
2：副線
100
AcDbEllipse
 10
1958.579098058642
 20
264.7138462789793
 30
0.0000000000009496
 11
-3.896673279108498
 21
6.749236099911028
 31
-0.0000000000000017
210
0.0
220
0.0000000000000003
230
1.0
 40
0.5773502691896266
 41
0.9124211448530349
 42
2.994133490356823
  0
ELLIPSE
  5
6E0D
330
18
100
AcDbEntity
  8
2：副線
100
AcDbEllipse
 10
1964.795537325029
 20
259.2904214490837
 30
0.0000000000013475
 11
-1.108833564696311
 21
0.5770512332565226
 31
-0.0000000000000001
210
0.0000000000000001
220
0.0
230
-0.9999999999999998
 40
0.4433304817791252
 41
-2.051174441735318
 42
0.0000000004509
  0
ELLIPSE
  5
6E0E
330
18
100
AcDbEntity
  8
2：副線
100
AcDbEllipse
 10
1964.795537325129
 20
263.0303836382849
 30
0.0000000000010349
 11
1.069105048868121
 21
0.6476993086525625
 31
-0.0000000000000002
210
0.0000000000000003
220
-0.0000000000000003
230
1.0
 40
0.6018786212729744
 41
3.141592652942775
 42
4.616364443041216
  0
ELLIPSE
  5
6E0F
330
18
100
AcDbEntity
  8
2：副線
100
AcDbEllipse
 10
1937.421578119923
 20
256.3769052063811
 30
0.000000000001177
 11
0.2499999999999922
 21
-0.0000000000000108
 31
0.0
210
-0.0000000000000001
220
-0.0000000000000001
230
-1.0
 40
0.5773502691896339
 41
2.139218222011487
 42
3.141592653590486
  0
ELLIPSE
  5
6E10
330
18
100
AcDbEntity
  8
2：副線
100
AcDbEllipse
 10
1937.421578119923
 20
283.5254165222283
 30
0.0000000000010633
 11
0.2500000000000118
 21
0.0
 31
0.0
210
0.0000000000000001
220
-0.0000000000000001
230
1.0
 40
0.5773502691896236
 41
3.141592653588654
 42
4.143967085167653
  0
ELLIPSE
  5
6E11
330
18
100
AcDbEntity
  8
2：副線
100
AcDbEllipse
 10
1926.461423011533
 20
289.8532650244173
 30
0.0000000000011485
 11
0.2500000000000024
 21
-0.0000000000000149
 31
0.0
210
0.0
220
-0.0000000000000002
230
-1.0
 40
0.5773502691896235
 41
0.7853981633984262
 42
2.573170758374873
  0
ELLIPSE
  5
6E12
330
18
100
AcDbEntity
  8
2：副線
100
AcDbEllipse
 10
1926.461423011533
 20
262.7047537085711
 30
0.0000000000008928
 11
0.2500000000000013
 21
-0.0000000000000181
 31
0.0
210
-0.0000000000000001
220
0.0
230
-1.0
 40
0.5773502691896205
 41
0.7853981633944325
 42
2.573170758370879
  0
ELLIPSE
  5
6E13
330
18
100
AcDbEntity
  8
2：副線
100
AcDbEllipse
 10
1927.548699650938
 20
263.332493169016
 30
0.000000000000978
 11
0.2499999999999914
 21
-0.0000000000000204
 31
0.0
210
0.0
220
-0.0000000000000001
230
-1.0
 40
0.5773502691896459
 41
-0.0000000000030658
 42
0.7853981633943825
  0
ELLIPSE
  5
6E14
330
18
100
AcDbEntity
  8
2：副線
100
AcDbEllipse
 10
1927.548699650938
 20
290.4810044848624
 30
0.0000000000012338
 11
0.2499999999999835
 21
-0.0000000000000149
 31
0.0
210
-0.0000000000000001
220
0.0
230
-1.0
 40
0.5773502691896236
 41
0.0000000000006564
 42
0.7853981633981047
  0
ELLIPSE
  5
6E15
330
18
100
AcDbEntity
  8
2：副線
100
AcDbEllipse
 10
1943.500078385997
 20
319.4905793790443
 30
0.0000000000008928
 11
0.2499999999999969
 21
0.0
 31
0.0
210
0.0000000000000001
220
-0.0000000000000001
230
1.0
 40
0.5773502691896239
 41
4.333965942613662
 42
5.49778714377918
  0
ELLIPSE
  5
6E16
330
18
100
AcDbEntity
  8
2：副線
100
AcDbEllipse
 10
1943.500078385995
 20
334.871691348303
 30
0.0000000000014612
 11
0.0167035331239304
 21
0.2494413598046305
 31
0.0
210
0.0000000000000002
220
0.0
230
1.0
 40
0.4016701618796058
 41
0.9937893491441297
 42
2.165167430391705
  0
ELLIPSE
  5
6E17
330
18
100
AcDbEntity
  8
2：副線
100
AcDbEllipse
 10
1943.500078385997
 20
334.8716913483027
 30
0.0000000000007791
 11
0.2499999999999903
 21
0.0
 31
0.0
210
0.0000000000000001
220
0.0
230
1.0
 40
0.5773502691896237
 41
4.333965942613662
 42
5.49778714377918
  0
ELLIPSE
  5
6E18
330
18
100
AcDbEntity
  8
2：副線
100
AcDbEllipse
 10
1943.500078385988
 20
334.8716913482957
 30
0.0000000000013475
 11
-0.186271158571123
 21
0.1667424825429004
 31
0.0
210
0.0000000000000001
220
-0.0000000000000001
230
1.0
 40
0.2785365022420079
 41
-2.496665784904809
 42
-0.9258694581109557
  0
ELLIPSE
  5
6E19
330
18
100
AcDbEntity
  8
2：副線
100
AcDbEllipse
 10
1923.347535122216
 20
346.5067676265686
 30
0.0000000000007222
 11
0.220222031800456
 21
0.1183311316166188
 31
0.0
210
-0.0000000000000001
220
0.0
230
-1.0
 40
0.6410179137953432
 41
-2.737670357698051
 42
-1.566292276447309
  0
ELLIPSE
  5
6E1A
330
18
100
AcDbEntity
  8
2：副線
100
AcDbEllipse
 10
1923.347535122216
 20
346.5067676265666
 30
0.0000000000007791
 11
-0.1862711585613777
 21
0.1667424825483694
 31
0.0
210
0.0000000000000001
220
0.0000000000000001
230
1.0
 40
0.278536502228178
 41
-0.925869458110775
 42
-0.0000000000043699
  0
ELLIPSE
  5
6E1B
330
18
100
AcDbEntity
  8
2：副線
100
AcDbEllipse
 10
1923.34753512222
 20
346.5067676265654
 30
0.0000000000011201
 11
0.2499999999998666
 21
0.0
 31
0.0
210
0.0
220
-0.0000000000000001
230
1.0
 40
0.5773502691896235
 41
3.141592653578364
 42
3.520015691354482
  0
ELLIPSE
  5
6E1C
330
18
100
AcDbEntity
  8
2：副線
100
AcDbEllipse
 10
1923.34753512222
 20
331.1256556572867
 30
0.0000000000010633
 11
0.2500000000000518
 21
0.0
 31
0.0
210
0.0000000000000001
220
-0.0000000000000001
230
1.0
 40
0.5773502691896239
 41
3.141592653588427
 42
3.520015691354254
  0
ELLIPSE
  5
6E1D
330
18
100
AcDbEntity
  8
2：副線
100
AcDbEllipse
 10
1947.259220142044
 20
327.9887693859984
 30
0.0000000000013475
 11
5.981796949155564
 21
10.36077623645691
 31
-0.000000000000002
210
-0.0000000000000001
220
-0.0000000000000002
230
-1.0
 40
0.5773502691907454
 41
-1.222671038833652
 42
-1.146079096773292
  0
ELLIPSE
  5
6E1E
330
18
100
AcDbEntity
  8
2：副線
100
AcDbEllipse
 10
1947.082443446744
 20
328.0908314586207
 30
0.0000000000014328
 11
6.106796949150941
 21
10.57728258739579
 31
-0.000000000000002
210
0.0000000000000001
220
0.0000000000000001
230
1.0
 40
0.5773502691907604
 41
1.147881274579165
 42
1.222671038834938
  0
ELLIPSE
  5
6E1F
330
18
100
AcDbEntity
  8
2：副線
100
AcDbEllipse
 10
1926.929900182923
 20
339.7259077368373
 30
0.000000000001177
 11
6.10679694916214
 21
10.57728258740503
 31
0.0
210
-0.0000000000000002
220
0.0000000000000001
230
-1.0
 40
0.5773502691901388
 41
-1.222671038829422
 42
-1.187622280649843
  0
LINE
  5
6E20
330
18
100
AcDbEntity
  8
1：主線
370
    15
100
AcDbLine
 10
1921.800477993104
 20
-94.53207495424221
 30
0.0000000000007783
 11
1921.800477993104
 21
260.9236435711444
 31
0.0000000000012054
210
0.0
220
0.8164965809277276
230
0.5773502691896236
  0
LINE
  5
6E21
330
18
100
AcDbEntity
  8
1：主線
370
    15
100
AcDbLine
 10
1921.800477993104
 20
359.4575222316345
 30
0.0000000000016317
 11
1921.800477993104
 21
371.9915629002148
 31
0.0000000000014107
210
0.0
220
0.8164965809277276
230
0.5773502691896236
  0
LINE
  5
6E22
330
18
100
AcDbEntity
  8
1：主線
370
    15
100
AcDbLine
 10
1991.800477993104
 20
-96.19509218760109
 30
0.0000000000009966
 11
1991.800477993104
 21
370.7115204669445
 31
0.0000000000018643
210
0.0
220
0.8164965809277276
230
0.5773502691896236
  0
LINE
  5
6E23
330
18
100
AcDbEntity
  8
1：主線
100
AcDbLine
 10
1953.446404477346
 20
266.6494637437157
 30
0.0000000000007506
 11
1953.446404477346
 21
267.00985035937
 31
0.000000000000637
210
0.0
220
0.8164965809277276
230
0.5773502691896239
  0
LINE
  5
6E24
330
18
100
AcDbEntity
  8
1：主線
100
AcDbLine
 10
1957.689045164464
 20
259.3009945153664
 30
0.000000000001177
 11
1958.042598555058
 21
259.0968703701341
 31
0.0000000000013759
210
0.0
220
0.8164965809277276
230
0.5773502691896239
  0
LINE
  5
6E25
330
18
100
AcDbEntity
  8
1：主線
100
AcDbLine
 10
1961.292598555058
 20
258.774933021565
 30
0.0000000000016033
 11
1961.822928640949
 21
259.0811192394129
 31
0.0000000000014896
210
0.0
220
0.8164965809277276
230
0.5773502691896239
  0
SPLINE
  5
6E26
330
18
100
AcDbEntity
  8
1：主線
100
AcDbSpline
210
-0.0000000000000416
220
-0.000000000000239
230
1.0
 70
     8
 71
     3
 72
    10
 73
     6
 74
     0
 42
0.000000001
 43
0.0000000001
 40
2.750432114066211
 40
2.750432114066211
 40
2.750432114066211
 40
2.750432114066211
 40
2.849300273174427
 40
2.849300273174427
 40
2.948168432282644
 40
2.948168432282644
 40
2.948168432282644
 40
2.948168432282644
 10
1954.539657434353
 20
265.6940766828569
 30
0.0000000000003812
 10
1954.529925820315
 20
265.5585106747868
 30
0.000000000001177
 10
1954.524829903357
 20
265.4229279431989
 30
0.0000000000004948
 10
1954.524829903357
 20
265.1538428969506
 30
0.0000000000000685
 10
1954.529925820315
 20
265.016750959894
 30
0.0000000000010633
 10
1954.539657434353
 20
264.8775801019293
 30
0.0000000000002959
  0
SPLINE
  5
6E27
330
18
100
AcDbEntity
  8
1：主線
100
AcDbSpline
210
-0.0000000000011007
220
-0.0000000000005729
230
1.0
 70
     8
 71
     3
 72
    11
 73
     7
 74
     0
 42
0.000000001
 43
0.0000000001
 40
5.599732387240639
 40
5.599732387240639
 40
5.599732387240639
 40
5.599732387240639
 40
5.698600546348855
 40
5.698600546348855
 40
5.698600546348855
 40
5.797468705457072
 40
5.797468705457072
 40
5.797468705457072
 40
5.797468705457072
 10
1959.569800140096
 20
261.9734258567063
 30
0.0000000000007791
 10
1959.572922031684
 20
262.1051757397394
 30
0.0000000000005517
 10
1959.574229041958
 20
262.2385709450335
 30
0.0000000000004948
 10
1959.574229041958
 20
262.3731134681569
 30
0.0000000000009496
 10
1959.574229041958
 20
262.5076559912815
 30
0.0000000000009496
 10
1959.572922031684
 20
262.646935454632
 30
0.000000000000637
 10
1959.569800140096
 20
262.7899224376337
 30
0.0000000000012907
  0
LINE
  5
6E28
330
18
100
AcDbEntity
  8
1：主線
100
AcDbLine
 10
1960.224768469168
 20
259.3997241127855
 30
0.0000000000013475
 11
1960.57832185976
 21
259.6038482580178
 31
0.0000000000011485
210
0.0
220
0.8164965809277276
230
0.5773502691896239
  0
SPLINE
  5
6E29
330
18
100
AcDbEntity
  8
1：主線
100
AcDbSpline
210
-0.0000000000000067
220
0.0000000000000807
230
1.0
 70
     8
 71
     3
 72
    16
 73
    12
 74
     0
 42
0.000000001
 43
0.0000000001
 40
0.0
 40
0.0
 40
0.0
 40
0.0
 40
0.05120545429319
 40
0.05120545429319
 40
0.0644112404270251
 40
0.0644112404270251
 40
0.0797384205640905
 40
0.0797384205640905
 40
0.0960549902276549
 40
0.0960549902276549
 40
0.1188769816225307
 40
0.1188769816225307
 40
0.1188769816225307
 40
0.1188769816225307
 10
1928.703694190615
 20
273.5810273798896
 30
0.0000000000003812
 10
1928.630581930979
 20
273.6031912144919
 30
0.0000000000013475
 10
1928.552227002859
 20
273.6188333408587
 30
0.0000000000007791
 10
1928.448361525648
 20
273.6256029154723
 30
0.000000000001177
 10
1928.42742414944
 20
273.6271409592347
 30
0.000000000001177
 10
1928.385118688758
 20
273.6245291352619
 30
0.0000000000014612
 10
1928.360892903965
 20
273.6201612539556
 30
0.0000000000012338
 10
1928.311268873632
 20
273.6071348841873
 30
0.000000000001518
 10
1928.285511287176
 20
273.5980584480389
 30
0.0000000000008643
 10
1928.225402471243
 20
273.573071421048
 30
0.0000000000018591
 10
1928.191197170604
 20
273.5559113948699
 30
0.0000000000015465
 10
1928.158308170966
 20
273.536920985824
 30
0.0000000000009496
  0
SPLINE
  5
6E2A
330
18
100
AcDbEntity
  8
1：主線
100
AcDbSpline
210
-0.0000000000850708
220
-0.0000000000551268
230
1.0
 70
     8
 71
     3
 72
    16
 73
    12
 74
     0
 42
0.000000001
 43
0.0000000001
 40
0.1904711711666598
 40
0.1904711711666598
 40
0.1904711711666598
 40
0.1904711711666598
 40
0.1931625825905547
 40
0.1931625825905547
 40
0.2216054899886335
 40
0.2216054899886335
 40
0.2365967776487695
 40
0.2365967776487695
 40
0.2441804577569139
 40
0.2441804577569139
 40
0.2517723131110254
 40
0.2517723131110254
 40
0.2517723131110254
 40
0.2517723131110254
 10
1930.4923204532
 20
272.4448926390045
 30
0.0000000000015749
 10
1930.490917574224
 20
272.4480234190393
 30
0.0000000000009496
 10
1930.489488368539
 20
272.4511436954671
 30
0.0000000000013191
 10
1930.472690306754
 20
272.4872545273357
 30
0.0000000000012054
 10
1930.454933465678
 20
272.5168554041087
 30
0.0000000000012907
 10
1930.426592628334
 20
272.5598206778662
 30
0.0000000000014043
 10
1930.416828370394
 20
272.5735716133962
 30
0.0000000000012054
 10
1930.402748713442
 20
272.5916649012914
 30
0.0000000000020296
 10
1930.397947333549
 20
272.597549011759
 30
0.0000000000008928
 10
1930.387635379714
 20
272.6097982198076
 30
0.0000000000011201
 10
1930.382064455736
 20
272.6162219894417
 30
0.0000000000013191
 10
1930.378361684773
 20
272.6202934562644
 30
0.0000000000014043
  0
LINE
  5
6E2B
330
18
100
AcDbEntity
  8
1：主線
100
AcDbLine
 10
1928.089691555474
 20
270.639562648966
 30
0.000000000001177
 11
1929.099825706307
 21
271.2227638728669
 31
0.0000000000006085
210
0.0
220
0.8164965809277276
230
0.5773502691896239
  0
SPLINE
  5
6E2C
330
18
100
AcDbEntity
  8
1：主線
100
AcDbSpline
210
-0.000000000000728
220
-0.0000000000012856
230
-1.0
 70
     8
 71
     3
 72
    16
 73
    12
 74
     0
 42
0.000000001
 43
0.0000000001
 40
4.410490906409268
 40
4.410490906409268
 40
4.410490906409268
 40
4.410490906409268
 40
4.531250135999437
 40
4.531250135999437
 40
4.652009365589606
 40
4.652009365589606
 40
4.772768595179774
 40
4.772768595179774
 40
4.893527824769943
 40
4.893527824769943
 40
5.01428705436011
 40
5.01428705436011
 40
5.01428705436011
 40
5.01428705436011
 10
1928.703694190615
 20
273.5810273798894
 30
0.0000000000002675
 10
1928.848663832324
 20
273.5370801242938
 30
0.0000000000011201
 10
1928.98865316384
 20
273.4881844791402
 30
0.0000000000016033
 10
1929.256463300895
 20
273.3814334207315
 30
0.0000000000005233
 10
1929.384282157836
 20
273.3235777932308
 30
0.0000000000016886
 10
1929.625741708434
 20
273.2000653362651
 30
0.0000000000002106
 10
1929.739379667096
 20
273.1344086206719
 30
0.0000000000007222
 10
1929.950737853765
 20
272.9966777012668
 30
0.0000000000005801
 10
1930.048454210493
 20
272.9246048062595
 30
0.0000000000016033
 10
1930.226597654291
 20
272.7756332306757
 30
0.0000000000000969
 10
1930.307020025289
 20
272.6987388159317
 30
0.000000000000978
 10
1930.378361684773
 20
272.6202934562644
 30
0.0000000000014043
  0
SPLINE
  5
6E2D
330
18
100
AcDbEntity
  8
1：主線
100
AcDbSpline
210
0.0000000002401768
220
-0.0000000005175695
230
-1.0
 70
     8
 71
     3
 72
     8
 73
     4
 74
     0
 42
0.000000001
 43
0.0000000001
 40
0.0
 40
0.0
 40
0.0
 40
0.0
 40
0.2116172789456585
 40
0.2116172789456585
 40
0.2116172789456585
 40
0.2116172789456585
 10
1928.089691555476
 20
270.6395626489665
 30
0.0000000000007222
 10
1928.003160293437
 20
270.589603801535
 30
0.0000000000010064
 10
1927.905314097195
 20
270.5437798761654
 30
0.0000000000004096
 10
1927.798699650938
 20
270.5039966338353
 30
0.0000000000016886
  0
LINE
  5
6E2E
330
18
100
AcDbEntity
  8
1：主線
100
AcDbLine
 10
1923.09753512222
 20
332.1215119720317
 30
0.0000000000006085
 11
1923.083072063629
 21
332.1131617212601
 31
0.0000000000016317
210
0.0
220
0.8164965809277276
230
0.5773502691896239
  0
SPLINE
  5
6E2F
330
18
100
AcDbEntity
  8
1：主線
100
AcDbSpline
210
-0.000000000000231
220
-0.0000000000000756
230
1.0
 70
     8
 71
     3
 72
    16
 73
    12
 74
     0
 42
0.000000001
 43
0.0000000001
 40
2.00822440803653
 40
2.00822440803653
 40
2.00822440803653
 40
2.00822440803653
 40
2.077818424467693
 40
2.077818424467693
 40
2.147412440898856
 40
2.147412440898856
 40
2.217006457330019
 40
2.217006457330019
 40
2.286600473761182
 40
2.286600473761182
 40
2.356194490192344
 40
2.356194490192344
 40
2.356194490192344
 40
2.356194490192344
 10
1922.746383842513
 20
332.1966714668332
 30
0.0000000000015749
 10
1922.457277682031
 20
332.6568363609287
 30
0.0000000000011201
 10
1922.195680189803
 20
333.1231891221961
 30
0.0000000000016886
 10
1921.728959509169
 20
334.0660309825511
 30
0.0000000000008359
 10
1921.523837407001
 20
334.5425203817389
 30
0.0000000000010064
 10
1921.171272278457
 20
335.5032701791766
 30
0.0000000000005517
 10
1921.023830715984
 20
335.9875303327561
 30
0.0000000000012907
 10
1920.787539174527
 20
336.961327103512
 30
0.0000000000022001
 10
1920.698690681374
 20
337.4508626336675
 30
0.0000000000012907
 10
1920.580159611761
 20
338.4326054630309
 30
0.0000000000002106
 10
1920.550477993103
 20
338.9248108659361
 30
0.0000000000019159
 10
1920.550477993103
 20
339.4170173864123
 30
0.0000000000014043
  0
SPLINE
  5
6E30
330
18
100
AcDbEntity
  8
1：主線
100
AcDbSpline
210
-0.0000000005012427
220
0.0000000000100237
230
1.0
 70
     8
 71
     3
 72
     8
 73
     4
 74
     0
 42
0.000000001
 43
0.0000000001
 40
3.907748610017012
 40
3.907748610017012
 40
3.907748610017012
 40
3.907748610017012
 40
3.926990816987241
 40
3.926990816987241
 40
3.926990816987241
 40
3.926990816987241
 10
1920.557281280092
 20
271.6477984833694
 30
0.0000000000003527
 10
1920.552745946713
 20
271.5117354647808
 30
0.0000000000006938
 10
1920.550477993103
 20
271.3756441727797
 30
0.0000000000010064
 10
1920.550477993103
 20
271.2395528789474
 30
0.0000000000010064
  0
SPLINE
  5
6E31
330
18
100
AcDbEntity
  8
1：主線
100
AcDbSpline
210
0.0000000000000235
220
0.0000000000013503
230
1.0
 70
     8
 71
     3
 72
    16
 73
    12
 74
     0
 42
0.000000001
 43
0.0000000001
 40
0.1580563926755362
 40
0.1580563926755362
 40
0.1580563926755362
 40
0.1580563926755362
 40
0.1904529943285446
 40
0.1904529943285446
 40
0.2228495959815529
 40
0.2228495959815529
 40
0.2552461976345612
 40
0.2552461976345612
 40
0.2876427992875696
 40
0.2876427992875696
 40
0.320039400940578
 40
0.320039400940578
 40
0.320039400940578
 40
0.320039400940578
 10
1974.703455233575
 20
320.9707001388478
 30
0.0000000000010633
 10
1974.685547545794
 20
320.9810391472082
 30
0.0000000000006938
 10
1974.665356864163
 20
320.9901077122696
 30
0.0000000000008928
 10
1974.619847796347
 20
321.0049711804651
 30
0.0000000000008928
 10
1974.59453002092
 20
321.0107449256767
 30
0.0000000000009496
 10
1974.539037505613
 20
321.0179846970553
 30
0.0000000000010064
 10
1974.508872520987
 20
321.0194408550687
 30
0.0000000000014896
 10
1974.444602309007
 20
321.0172491316151
 30
0.0000000000006085
 10
1974.410507596663
 20
321.013600105522
 30
0.0000000000007222
 10
1974.339616473847
 20
321.0007923800307
 30
0.000000000000438
 10
1974.302827195886
 20
320.9916361371537
 30
0.0000000000011485
 10
1974.265355260151
 20
320.979701488539
 30
0.0000000000012622
  0
SPLINE
  5
6E32
330
18
100
AcDbEntity
  8
1：主線
100
AcDbSpline
210
0.0000000000000157
220
-0.0000000000001332
230
1.0
 70
     8
 71
     3
 72
    16
 73
    12
 74
     0
 42
0.000000001
 43
0.0000000001
 40
0.2812885408197699
 40
0.2812885408197699
 40
0.2812885408197699
 40
0.2812885408197699
 40
0.4517044817668589
 40
0.4517044817668589
 40
0.6221204227139479
 40
0.6221204227139479
 40
0.7925363636610367
 40
0.7925363636610367
 40
0.9629523046081256
 40
0.9629523046081256
 40
1.133368245555214
 40
1.133368245555214
 40
1.133368245555214
 40
1.133368245555214
 10
1974.265355260151
 20
320.979701488539
 30
0.0000000000012622
 10
1972.465499391828
 20
320.4064552197059
 30
0.0000000000012054
 10
1970.581653921468
 20
319.9222155613032
 30
0.0000000000001254
 10
1966.699960975987
 20
319.1453234451909
 30
0.0000000000015465
 10
1964.702166992892
 20
318.8526838889501
 30
0.0000000000009496
 10
1960.649964758891
 20
318.4672578684598
 30
0.0000000000012622
 10
1958.595613187826
 20
318.3744777207706
 30
0.0000000000014896
 10
1954.489336105598
 20
318.3914009691406
 30
0.0000000000002675
 10
1952.437468219126
 20
318.501104089232
 30
0.0000000000006085
 10
1948.395128359033
 20
318.919898284868
 30
0.0000000000016886
 10
1946.404712889758
 20
319.22898249098
 30
0.0000000000015465
 10
1944.473585012799
 20
319.6334034373809
 30
0.0000000000012338
  0
ARC
  5
6E33
330
18
100
AcDbEntity
  8
1：主線
100
AcDbCircle
 10
-1922.958072063627
 20
332.3296680722072
 30
-0.0000000000010962
 40
0.2500000000000001
210
-0.0000000000000001
220
0.0000000000000002
230
-1.0
100
AcDbArc
 50
239.9999999999999
 51
327.8602321700832
  0
ARC
  5
6E34
330
18
100
AcDbEntity
  8
1：主線
100
AcDbCircle
 10
-1944.524828889838
 20
319.878095213022
 30
0.0000000000004346
 40
0.2500000000000001
210
-0.0000000000000001
220
0.0000000000000002
230
-1.0
100
AcDbArc
 50
281.8280653244853
 51
0.0
  0
LINE
  5
6E35
330
18
100
AcDbEntity
  8
1：主線
100
AcDbLine
 10
1944.274828889843
 20
335.3915302506474
 30
0.0000000000009496
 11
1944.274828889843
 21
319.8780952130209
 31
0.0000000000007791
210
0.0
220
0.8164965809277276
230
0.5773502691896239
  0
LINE
  5
6E36
330
18
100
AcDbEntity
  8
1：主線
100
AcDbLine
 10
1920.550477993101
 20
362.0747975071571
 30
0.0000000000009496
 11
1920.550477993101
 21
339.4170173864128
 31
0.0000000000010064
210
0.0
220
0.8164965809277276
230
0.5773502691896239
  0
LINE
  5
6E37
330
18
100
AcDbEntity
  8
1：主線
100
AcDbLine
 10
1920.550477993101
 20
271.2395528789478
 30
0.0000000000005233
 11
1920.550477993101
 21
266.5446975386129
 31
0.0000000000009212
210
0.0
220
0.8164965809277276
230
0.5773502691896239
  0
LINE
  5
6E38
330
18
100
AcDbEntity
  8
1：主線
100
AcDbLine
 10
1930.122831055348
 20
272.0662743771403
 30
0.0000000000014043
 11
1927.798699650938
 21
270.1499312663542
 31
0.0000000000014328
210
0.0
220
0.8164965809277276
230
0.5773502691896239
  0
SPLINE
  5
6E39
330
18
100
AcDbEntity
  8
1：主線
100
AcDbSpline
210
0.0000000000008746
220
0.0000000000035139
230
1.0
 70
     8
 71
     3
 72
    16
 73
    12
 74
     0
 42
0.000000001
 43
0.0000000001
 40
1.148646796106223
 40
1.148646796106223
 40
1.148646796106223
 40
1.148646796106223
 40
1.183325501356311
 40
1.183325501356311
 40
1.218004206606399
 40
1.218004206606399
 40
1.252682911856487
 40
1.252682911856487
 40
1.287361617106575
 40
1.287361617106575
 40
1.322040322356663
 40
1.322040322356663
 40
1.322040322356663
 40
1.322040322356663
 10
1943.955629124138
 20
335.6661504921873
 30
0.0000000000011201
 10
1943.564859672735
 20
335.7519088533091
 30
0.0000000000007791
 10
1943.176643657965
 20
335.8415844462931
 30
0.0000000000019159
 10
1942.405781096192
 20
336.028665430758
 30
0.0000000000010633
 10
1942.023134567245
 20
336.1260708168769
 30
0.0000000000018022
 10
1941.263866906005
 20
336.3284978178418
 30
0.0000000000011201
 10
1940.887245791347
 20
336.4335194268718
 30
0.0000000000018022
 10
1940.140477649631
 20
336.6510565768225
 30
0.0000000000010633
 10
1939.77033063973
 20
336.7635721114837
 30
0.0000000000002106
 10
1939.036951638387
 20
336.995966269952
 30
0.0000000000006085
 10
1938.673719663574
 20
337.1158448870723
 30
0.0000000000007791
 10
1938.314161529835
 20
337.239335451582
 30
0.0000000000011201
  0
SPLINE
  5
6E3A
330
18
100
AcDbEntity
  8
1：主線
100
AcDbSpline
210
0.0000000000008861
220
-0.0000000000002192
230
1.0
 70
     8
 71
     3
 72
    10
 73
     6
 74
     0
 42
0.000000001
 43
0.0000000001
 40
3.665181097147429
 40
3.665181097147429
 40
3.665181097147429
 40
3.665181097147429
 40
3.794522250255096
 40
3.794522250255096
 40
3.926990816987241
 40
3.926990816987241
 40
3.926990816987241
 40
3.926990816987241
 10
1921.800477993103
 20
367.5597048295589
 30
0.0000000000012338
 10
1921.391820331413
 20
366.6792063353897
 30
0.0000000000012907
 10
1921.081342055205
 20
365.7821083632215
 30
0.000000000001177
 10
1920.658167904206
 20
363.9485493512087
 30
0.0000000000008928
 10
1920.550477993103
 20
363.0116868497661
 30
0.0000000000009496
 10
1920.550477993103
 20
362.0747975071568
 30
0.0000000000014043
  0
SPLINE
  5
6E3B
330
18
100
AcDbEntity
  8
1：主線
100
AcDbSpline
210
0.0000000000000173
220
0.0000000000000349
230
1.0
 70
     8
 71
     3
 72
    20
 73
    16
 74
     0
 42
0.000000001
 43
0.0000000001
 40
0.1240358211231713
 40
0.1240358211231713
 40
0.1240358211231713
 40
0.1240358211231713
 40
0.4428606530361497
 40
0.4428606530361497
 40
0.7618918846754383
 40
0.7618918846754383
 40
1.081022257260373
 40
1.081022257260373
 40
1.400078278664839
 40
1.400078278664839
 40
1.718929938950594
 40
1.718929938950594
 40
2.037882258644752
 40
2.037882258644752
 40
2.356194490192344
 40
2.356194490192344
 40
2.356194490192344
 40
2.356194490192344
 10
1978.501845402441
 20
346.1283393420471
 30
0.0000000000002106
 10
1975.543240808161
 20
344.7989021055893
 30
0.0000000000002675
 10
1972.211081053848
 20
343.7426970705682
 30
0.0000000000006085
 10
1965.134116488104
 20
342.2856921884414
 30
0.0000000000014612
 10
1961.390287223633
 20
341.8855236244484
 30
0.0000000000012338
 10
1953.871506485824
 20
341.7834647736873
 30
0.0000000000012338
 10
1950.097840237754
 20
342.0818079264512
 30
0.0000000000008928
 10
1942.905618952389
 20
343.3464227355995
 30
0.000000000001177
 10
1939.488237160974
 20
344.3123603549908
 30
0.0000000000007222
 10
1933.357887709651
 20
346.8108223642849
 30
0.0000000000020865
 10
1930.645667687776
 20
348.3426136073561
 30
0.0000000000006654
 10
1926.197503268492
 20
351.8116758390869
 30
0.0000000000006085
 10
1924.463074786612
 20
353.748053669838
 30
0.000000000001518
 10
1922.141149910452
 20
357.8163190311499
 30
0.0000000000006654
 10
1921.550477993103
 20
359.9460396982175
 30
0.0000000000009496
 10
1921.550477993103
 20
362.0747975071566
 30
0.0000000000014043
  0
SPLINE
  5
6E3C
330
18
100
AcDbEntity
  8
1：主線
100
AcDbSpline
210
-0.0000000000000993
220
-0.0000000000001339
230
1.0
 70
     8
 71
     3
 72
    26
 73
    22
 74
     0
 42
0.000000001
 43
0.0000000001
 40
12.89311520520468
 40
12.89311520520468
 40
12.89311520520468
 40
12.89311520520468
 40
13.25968140945141
 40
13.25968140945141
 40
13.62624761369814
 40
13.62624761369814
 40
13.99281381794487
 40
13.99281381794487
 40
14.3593800221916
 40
14.3593800221916
 40
14.72594622643833
 40
14.72594622643833
 40
15.09251243068506
 40
15.09251243068506
 40
15.45907863493179
 40
15.45907863493179
 40
15.82564483917852
 40
15.82564483917852
 40
16.19221104342525
 40
16.19221104342525
 40
16.55877724767198
 40
16.55877724767198
 40
16.55877724767198
 40
16.55877724767198
 10
1925.774484499803
 20
344.4779489324966
 30
0.0000000000012907
 10
1926.062939903924
 20
344.3715657021668
 30
0.0000000000007791
 10
1926.366880442888
 20
344.2514637532785
 30
0.0000000000008928
 10
1927.005716142834
 20
343.9826313056784
 30
0.0000000000005517
 10
1927.340620736309
 20
343.8338930495103
 30
-0.0000000000000736
 10
1928.040576746197
 20
343.5071673154781
 30
0.0000000000010064
 10
1928.405628827487
 20
343.3291760771891
 30
0.0000000000012907
 10
1929.164122133495
 20
342.9440822986284
 30
0.0000000000008359
 10
1929.557560364775
 20
342.7369789701787
 30
0.0000000000005517
 10
1930.37016500162
 20
342.294624076951
 30
0.0000000000009496
 10
1930.78932637764
 20
342.0593741591473
 30
0.0000000000003812
 10
1931.649941363835
 20
341.5624978651907
 30
0.0000000000013475
 10
1932.091385450448
 20
341.3008770802043
 30
0.0000000000010064
 10
1932.992553133468
 20
340.7537435393423
 30
0.0000000000018591
 10
1933.452267205717
 20
340.4682377441621
 30
0.0000000000007222
 10
1934.385667213318
 20
339.8763446635925
 30
0.0000000000008359
 10
1934.859341290561
 20
339.5699670114863
 30
0.0000000000008928
 10
1935.816379911184
 20
338.9396172921196
 30
0.0000000000016317
 10
1936.299732884912
 20
338.6156556858194
 30
0.0000000000008359
 10
1937.272235469588
 20
337.9533928911381
 30
0.0000000000008928
 10
1937.761384841696
 20
337.6150947865316
 30
0.0000000000007222
 10
1938.251809061921
 20
337.271106492174
 30
0.0000000000010633
  0
SPLINE
  5
6E3D
330
18
100
AcDbEntity
  8
1：主線
100
AcDbSpline
210
-0.00000000000071
220
-0.0000000000005957
230
1.0
 70
     8
 71
     3
 72
    16
 73
    12
 74
     0
 42
0.000000001
 43
0.0000000001
 40
1.819552331260859
 40
1.819552331260859
 40
1.819552331260859
 40
1.819552331260859
 40
1.854231036505789
 40
1.854231036505789
 40
1.888909741750718
 40
1.888909741750718
 40
1.923588446995648
 40
1.923588446995648
 40
1.958267152240578
 40
1.958267152240578
 40
1.992945857485507
 40
1.992945857485507
 40
1.992945857485507
 40
1.992945857485507
 10
1925.686875201834
 20
344.5331062665149
 30
0.0000000000012907
 10
1925.471761272141
 20
344.7418832512511
 30
0.0000000000019159
 10
1925.262847188616
 20
344.952882667082
 30
0.0000000000006654
 10
1924.857678711708
 20
345.3790868008167
 30
0.0000000000005517
 10
1924.661424321593
 20
345.5942915239192
 30
0.0000000000012338
 10
1924.281822420865
 20
346.0286611723144
 30
0.0000000000008359
 10
1924.098474915066
 20
346.2478261058881
 30
0.0000000000006085
 10
1923.744921041327
 20
346.6898653291884
 30
0.0000000000013475
 10
1923.574714680879
 20
346.9127396301309
 30
0.0000000000008359
 10
1923.247664245301
 20
347.3619407026391
 30
0.0000000000007222
 10
1923.090820181629
 20
347.5882674877936
 30
0.0000000000012907
 10
1922.940761139357
 20
347.8161888584085
 30
0.0000000000016317
  0
ARC
  5
6E3E
330
18
100
AcDbEntity
  8
1：主線
100
AcDbCircle
 10
-1928.432778832464
 20
272.9984587888829
 30
-0.0000000000012035
 40
0.2500000000000001
210
-0.0000000000000002
220
0.0000000000000002
230
-1.0
100
AcDbArc
 50
180.0
 51
239.9999999999999
  0
LINE
  5
6E3F
330
18
100
AcDbEntity
  8
1：主線
100
AcDbLine
 10
1928.682778832467
 20
273.5871466126261
 30
0.0000000000006654
 11
1928.682778832467
 21
272.9984587888815
 31
0.0000000000011201
210
0.0
220
0.8164965809277276
230
0.5773502691896239
  0
LINE
  5
6E40
330
18
100
AcDbEntity
  8
1：主線
100
AcDbLine
 10
1928.557778832468
 20
272.781952437935
 30
0.0000000000013475
 11
1927.798699650938
 21
272.3436978681435
 31
0.0000000000006654
210
0.0
220
0.8164965809277276
230
0.5773502691896239
  0
SPLINE
  5
6E41
330
18
100
AcDbEntity
  8
1：主線
100
AcDbSpline
210
0.0000000000000186
220
-0.0000000000015914
230
1.0
 70
     8
 71
     3
 72
    16
 73
    12
 74
     0
 42
0.000000001
 43
0.0000000001
 40
0.0
 40
0.0
 40
0.0
 40
0.0
 40
0.0733002557028365
 40
0.0733002557028365
 40
0.1466005114056729
 40
0.1466005114056729
 40
0.2199007671085094
 40
0.2199007671085094
 40
0.2932010228113458
 40
0.2932010228113458
 40
0.3665012785141823
 40
0.3665012785141823
 40
0.3665012785141823
 40
0.3665012785141823
 10
1978.501845402441
 20
346.1283393420471
 30
0.0000000000002106
 10
1978.608254618942
 20
346.176153901314
 30
0.0000000000013475
 10
1978.715254315209
 20
346.2158249778998
 30
0.0000000000009496
 10
1978.92853053506
 20
346.2772925686758
 30
0.0000000000012907
 10
1979.034815293805
 20
346.2990916203243
 30
0.0000000000011201
 10
1979.244691080804
 20
346.3230939407357
 30
0.0000000000010633
 10
1979.348309993785
 20
346.3252892700717
 30
0.0000000000007791
 10
1979.550344923765
 20
346.3082424293347
 30
0.0000000000008359
 10
1979.648775367411
 20
346.2889542277718
 30
0.0000000000010064
 10
1979.836497115746
 20
346.2277147973213
 30
0.0000000000004948
 10
1979.925737807261
 20
346.1857160146104
 30
0.0000000000006654
 10
1980.007914101548
 20
346.13289674846
 30
0.0000000000009496
  0
LINE
  5
6E42
330
18
100
AcDbEntity
  8
1：主線
100
AcDbLine
 10
1980.342132895098
 20
345.9180757765233
 30
0.0000000000016317
 11
1980.007914101546
 21
346.1328967484604
 31
0.0000000000005517
210
0.0
220
0.8164965809277276
230
0.5773502691896239
  0
ARC
  5
6E43
330
18
100
AcDbEntity
  8
1：主線
100
AcDbCircle
 10
-1938.395368221988
 20
337.4757788341284
 30
-0.0000000000004017
 40
0.2500000000000036
210
-0.0000000000000002
220
0.0000000000000002
230
-1.0
100
AcDbArc
 50
288.9550801219792
 51
305.0461910423993
  0
ARC
  5
6E44
330
18
100
AcDbEntity
  8
1：主線
100
AcDbCircle
 10
-1925.860989724655
 20
344.7125056336853
 30
-0.0000000000005697
 40
0.2500000000000036
210
0.0
220
0.0000000000000003
230
-1.0
100
AcDbArc
 50
290.2441278015299
 51
314.1435226239213
  0
SPLINE
  5
6E45
330
18
100
AcDbEntity
  8
1：主線
100
AcDbSpline
210
0.0000000000016928
220
-0.0000000000010152
230
-1.0
 70
     8
 71
     3
 72
    16
 73
    12
 74
     0
 42
0.000000001
 43
0.0000000001
 40
5.497787143782137
 40
5.497787143782137
 40
5.497787143782137
 40
5.497787143782137
 40
5.61996019142174
 40
5.61996019142174
 40
5.742133239061343
 40
5.742133239061343
 40
5.864306286700945
 40
5.864306286700945
 40
5.986479334340548
 40
5.986479334340548
 40
6.108652381980152
 40
6.108652381980152
 40
6.108652381980152
 40
6.108652381980152
 10
1930.800477993103
 20
273.2807943312663
 30
0.0000000000016033
 10
1930.800477993103
 20
273.1985015823342
 30
0.0000000000011485
 10
1930.791798409307
 20
273.1161942894626
 30
0.0000000000007791
 10
1930.75673726115
 20
272.9513318411367
 30
0.000000000000978
 10
1930.73033462712
 20
272.86876212514
 30
0.000000000000637
 10
1930.659108965773
 20
272.7038301709164
 30
0.0000000000010349
 10
1930.614267600216
 20
272.6214754797285
 30
0.0000000000002959
 10
1930.505752305738
 20
272.4582631733905
 30
0.0000000000012338
 10
1930.442073629657
 20
272.3774196734811
 30
0.000000000001177
 10
1930.296145121701
 20
272.2189649643218
 30
0.0000000000010917
 10
1930.21389867589
 20
272.1413634219794
 30
0.0000000000016601
 10
1930.12283105535
 20
272.0662743771403
 30
0.0000000000009496
  0
SPLINE
  5
6E46
330
18
100
AcDbEntity
  8
1：主線
100
AcDbSpline
210
-0.0000000000021694
220
-0.0000000000011086
230
1.0
 70
     8
 71
     3
 72
    16
 73
    12
 74
     0
 42
0.000000001
 43
0.0000000001
 40
0.3664895574184884
 40
0.3664895574184884
 40
0.3664895574184884
 40
0.3664895574184884
 40
0.4346311927557139
 40
0.4346311927557139
 40
0.5027728280929393
 40
0.5027728280929393
 40
0.5709144634301646
 40
0.5709144634301646
 40
0.63905609876739
 40
0.63905609876739
 40
0.7071977341046153
 40
0.7071977341046153
 40
0.7071977341046153
 40
0.7071977341046153
 10
1980.342132895098
 20
345.9180757765235
 30
0.0000000000017454
 10
1980.418513319691
 20
345.8689818375696
 30
0.0000000000004948
 10
1980.488732203064
 20
345.8105699856336
 30
0.000000000001518
 10
1980.613811849361
 20
345.678068951
 30
0.0000000000003243
 10
1980.66866542816
 20
345.6040382601117
 30
0.0000000000011201
 10
1980.761932181683
 20
345.4439982177738
 30
0.0000000000003243
 10
1980.800382644125
 20
345.3580092900414
 30
0.0000000000007222
 10
1980.861259536079
 20
345.1770116337581
 30
0.0000000000016317
 10
1980.883709576039
 20
345.081992710372
 30
0.0000000000007791
 10
1980.913388783486
 20
344.8851497879326
 30
0.0000000000003243
 10
1980.920624600574
 20
344.7833142109179
 30
0.0000000000013475
 10
1980.920624600574
 20
344.67901593716
 30
0.0000000000008928
  0
LINE
  5
6E47
330
18
100
AcDbEntity
  8
1：主線
100
AcDbLine
 10
1980.920624600572
 20
252.8231505827906
 30
0.0000000000005517
 11
1980.920624600572
 21
344.6790159371602
 31
0.0000000000003812
210
0.0
220
0.8164965809277276
230
0.5773502691896239
  0
SPLINE
  5
6E48
330
18
100
AcDbEntity
  8
1：主線
100
AcDbSpline
210
0.0000000000005013
220
-0.0000000000002757
230
-1.0
 70
     8
 71
     3
 72
    26
 73
    22
 74
     0
 42
0.000000001
 43
0.0000000001
 40
0.0000000000000011
 40
0.0000000000000011
 40
0.0000000000000011
 40
0.0000000000000011
 40
0.0707207904027916
 40
0.0707207904027916
 40
0.141441580805582
 40
0.141441580805582
 40
0.2121623712083725
 40
0.2121623712083725
 40
0.282883161611163
 40
0.282883161611163
 40
0.3536039520139535
 40
0.3536039520139535
 40
0.424324742416744
 40
0.424324742416744
 40
0.4950455328195344
 40
0.4950455328195344
 40
0.5657663232223248
 40
0.5657663232223248
 40
0.6364871136251154
 40
0.6364871136251154
 40
0.7072079040279058
 40
0.7072079040279058
 40
0.7072079040279058
 40
0.7072079040279058
 10
1979.041893204263
 20
249.926959479972
 30
0.0000000000005517
 10
1979.145645766566
 20
249.9736746638915
 30
0.0000000000008928
 10
1979.24809573431
 20
250.0286880403035
 30
0.0000000000010633
 10
1979.448431248332
 20
250.1537215631109
 30
0.0000000000008359
 10
1979.546313768953
 20
250.2237412849018
 30
0.0000000000016886
 10
1979.73563668777
 20
250.3769512829459
 30
0.0000000000015749
 10
1979.827077227509
 20
250.4601407410158
 30
0.0000000000007506
 10
1980.001811444651
 20
250.6376586134223
 30
0.0000000000006938
 10
1980.085102741586
 20
250.7319858022728
 30
0.000000000000978
 10
1980.241943786431
 20
250.9295007237628
 30
0.0000000000014612
 10
1980.315490814726
 20
251.0326827032089
 30
0.0000000000005517
 10
1980.451459873354
 20
251.2454954984972
 30
0.0000000000016886
 10
1980.513885596143
 20
251.3551301656797
 30
0.000000000001177
 10
1980.626426518898
 20
251.5783700179621
 30
0.0000000000011485
 10
1980.676540299331
 20
251.6919692785326
 30
0.0000000000011201
 10
1980.763451238783
 20
251.9206230233845
 30
0.0000000000011201
 10
1980.800251384847
 20
252.0356772185072
 30
0.0000000000016317
 10
1980.85971225648
 20
252.2648522426735
 30
0.0000000000010633
 10
1980.882374344731
 20
252.3789678510123
 30
0.0000000000009212
 10
1980.912828723517
 20
252.6039929633824
 30
0.0000000000008928
 10
1980.920624600574
 20
252.7149046282971
 30
0.0000000000010917
 10
1980.920624600574
 20
252.8231505827906
 30
0.0000000000010633
  0
SPLINE
  5
6E49
330
18
100
AcDbEntity
  8
1：主線
100
AcDbSpline
210
0.0000000000000042
220
-0.0000000000000134
230
1.0
 70
     8
 71
     3
 72
    20
 73
    16
 74
     0
 42
0.000000001
 43
0.0000000001
 40
3.926990816987241
 40
3.926990816987241
 40
3.926990816987241
 40
3.926990816987241
 40
4.242652088035347
 40
4.242652088035347
 40
4.561384169396275
 40
4.561384169396275
 40
4.882380932119729
 40
4.882380932119729
 40
5.203504468230652
 40
5.203504468230652
 40
5.524430342998978
 40
5.524430342998978
 40
5.845284567427301
 40
5.845284567427301
 40
6.160129977443018
 40
6.160129977443018
 40
6.160129977443018
 40
6.160129977443018
 10
1920.550477993103
 20
266.5446975386124
 30
0.0000000000013475
 10
1920.550477993103
 20
264.3121703209114
 30
0.0000000000012338
 10
1921.166838213912
 20
262.081288630833
 30
0.0000000000014612
 10
1923.567967256381
 20
257.8364239924514
 30
0.0000000000008359
 10
1925.36246258987
 20
255.8244662499333
 30
0.0000000000010349
 10
1929.955054313615
 20
252.2211789378836
 30
0.0000000000004096
 10
1932.759890787085
 20
250.6331498938904
 30
0.0000000000013759
 10
1939.08845911701
 20
248.0499254863042
 30
0.0000000000008643
 10
1942.61151665759
 20
247.0554854379519
 30
0.0000000000004664
 10
1950.017128938181
 20
245.7596147085467
 30
0.0000000000002959
 10
1953.898176023538
 20
245.4580238876184
 30
0.0000000000019159
 10
1961.627692550689
 20
245.5769509946791
 30
0.0000000000016033
 10
1965.474811808151
 20
245.9972820226659
 30
0.0000000000000969
 10
1972.67968828742
 20
247.5039182806511
 30
0.0000000000008928
 10
1976.044154412376
 20
248.5772104627006
 30
0.0000000000006085
 10
1979.041893204263
 20
249.926959479972
 30
0.0000000000005517
  0
SPLINE
  5
6E4A
330
18
100
AcDbEntity
  8
1：主線
100
AcDbSpline
210
-0.0000000109459499
220
-0.00000000824458
230
-1.0
 70
     8
 71
     3
 72
    12
 73
     8
 74
     0
 42
0.000000001
 43
0.0000000001
 40
0.1387452268973814
 40
0.1387452268973814
 40
0.1387452268973814
 40
0.1387452268973814
 40
0.1418753137013021
 40
0.1418753137013021
 40
0.157777089917459
 40
0.157777089917459
 40
0.1649829861660502
 40
0.1649829861660502
 40
0.1649829861660502
 40
0.1649829861660502
 10
1922.925060521865
 20
347.837232410562
 30
0.0000000000003812
 10
1922.925063305156
 20
347.8372340075138
 30
0.0000000000012907
 10
1922.925172316803
 20
347.8371276667684
 30
0.0000000000006085
 10
1922.926373873509
 20
347.8358279839889
 30
0.0000000000012907
 10
1922.929674250415
 20
347.8320066368518
 30
0.0000000000006085
 10
1922.936095698036
 20
347.8231117152092
 30
0.0000000000000401
 10
1922.938339845955
 20
347.8198665075687
 30
0.0000000000010633
 10
1922.940761139357
 20
347.8161888584085
 30
0.0000000000016317
  0
SPLINE
  5
6E4B
330
18
100
AcDbEntity
  8
1：主線
100
AcDbSpline
210
0.0000000000039731
220
0.0000000000045232
230
-1.0
 70
     8
 71
     3
 72
    20
 73
    16
 74
     0
 42
0.000000001
 43
0.0000000001
 40
0.0
 40
0.0
 40
0.0
 40
0.0
 40
0.0313738421248248
 40
0.0313738421248248
 40
0.0625240797376859
 40
0.0625240797376859
 40
0.091201767060818
 40
0.091201767060818
 40
0.116143891314902
 40
0.116143891314902
 40
0.1380654462333368
 40
0.1380654462333368
 40
0.1593872831795914
 40
0.1593872831795914
 40
0.1649851547557846
 40
0.1649851547557846
 40
0.1649851547557846
 40
0.1649851547557846
 10
1943.955629124138
 20
335.6661504921873
 30
0.0000000000011201
 10
1943.987021444765
 20
335.6592611256841
 30
0.0000000000012907
 10
1944.01976321328
 20
335.6484715478831
 30
0.0000000000013475
 10
1944.08321130439
 20
335.6198824841753
 30
0.000000000001177
 10
1944.113930711433
 20
335.6021278119182
 30
0.0000000000010064
 10
1944.167190731961
 20
335.5634521736291
 30
0.0000000000016317
 10
1944.190168397644
 20
335.5428901568047
 30
0.0000000000008928
 10
1944.22575450804
 20
335.503685338968
 30
0.0000000000009496
 10
1944.239297804364
 20
335.4851628950882
 30
0.000000000001177
 10
1944.258318889425
 20
335.4526848519216
 30
0.0000000000010064
 10
1944.264565422068
 20
335.4384847938153
 30
0.0000000000005517
 10
1944.272384143712
 20
335.4144778987091
 30
0.0000000000010633
 10
1944.274098308795
 20
335.4046096603355
 30
0.0000000000012338
 10
1944.274768903395
 20
335.3950531705881
 30
0.0000000000019728
 10
1944.274828889841
 20
335.3932188373229
 30
0.0000000000008359
 10
1944.274828889843
 20
335.3915302506474
 30
0.0000000000010064
  0
SPLINE
  5
6E4C
330
18
100
AcDbEntity
  8
1：主線
100
AcDbSpline
210
0.0000000000030892
220
-0.0000000000028302
230
1.0
 70
     8
 71
     3
 72
    18
 73
    14
 74
     0
 42
0.000000001
 43
0.0000000001
 40
0.0
 40
0.0
 40
0.0
 40
0.0
 40
0.0148660617822621
 40
0.0148660617822621
 40
0.0309063633886944
 40
0.0309063633886944
 40
0.0469466649951266
 40
0.0469466649951266
 40
0.0629869666015588
 40
0.0629869666015588
 40
0.079027268207991
 40
0.079027268207991
 40
0.0802015080321612
 40
0.0802015080321612
 40
0.0802015080321612
 40
0.0802015080321612
 10
1974.439486287572
 20
254.0610674411388
 30
0.0000000000013759
 10
1974.43948628757
 20
254.0131798927208
 30
0.000000000001177
 10
1974.431609044185
 20
253.9673172766228
 30
0.0000000000010633
 10
1974.40419265324
 20
253.8783575830663
 30
0.0000000000012622
 10
1974.383781923204
 20
253.8356300282593
 30
0.0000000000003812
 10
1974.334391624919
 20
253.7574015462054
 30
0.0000000000005233
 10
1974.305378022025
 20
253.7218791898573
 30
0.0000000000008075
 10
1974.240853722921
 20
253.6584242139121
 30
0.0000000000009496
 10
1974.205335850265
 20
253.6304909152182
 30
0.0000000000016601
 10
1974.1290386788
 20
253.5831053240352
 30
0.0000000000014043
 10
1974.088248395349
 20
253.5636304040643
 30
0.0000000000014896
 10
1974.041978385124
 20
253.5482112294568
 30
0.0000000000012622
 10
1974.038809663388
 20
253.5471871259511
 30
0.0000000000005233
 10
1974.035628461425
 20
253.5461911932876
 30
0.0000000000002106
  0
SPLINE
  5
6E4D
330
18
100
AcDbEntity
  8
1：主線
100
AcDbSpline
210
0.0000000000000067
220
0.0000000000001037
230
1.0
 70
     8
 71
     3
 72
    16
 73
    12
 74
     0
 42
0.000000001
 43
0.0000000001
 40
0.2885247053899978
 40
0.2885247053899978
 40
0.2885247053899978
 40
0.2885247053899978
 40
0.4886830150248086
 40
0.4886830150248086
 40
0.6888413246596194
 40
0.6888413246596194
 40
0.8889996342944302
 40
0.8889996342944302
 40
1.08915794392924
 40
1.08915794392924
 40
1.289316253564051
 40
1.289316253564051
 40
1.289316253564051
 40
1.289316253564051
 10
1974.035628461425
 20
253.5461911932876
 30
0.0000000000002391
 10
1971.91334218154
 20
252.8817711871594
 30
0.0000000000012622
 10
1969.676631401012
 20
252.340720342935
 30
0.0000000000003527
 10
1965.062634760006
 20
251.5262600370719
 30
0.0000000000011201
 10
1962.685470384678
 20
251.2528762289442
 30
0.0000000000001822
 10
1957.884696912813
 20
250.9844121133197
 30
0.0000000000014328
 10
1955.461215804962
 20
250.9893401525429
 30
0.000000000000637
 10
1950.663809853074
 20
251.2773248862202
 30
0.0000000000008075
 10
1948.29001288583
 20
251.5603726246907
 30
0.0000000000011201
 10
1943.685983407743
 20
252.393594091708
 30
0.0000000000007506
 10
1941.455872016636
 20
252.9437415605099
 30
0.0000000000010064
 10
1939.341669503284
 20
253.6168009630877
 30
0.0000000000006085
  0
SPLINE
  5
6E4E
330
18
100
AcDbEntity
  8
1：主線
100
AcDbSpline
210
-0.0000000000004674
220
-0.0000000000002163
230
-1.0
 70
     8
 71
     3
 72
    16
 73
    12
 74
     0
 42
0.000000001
 43
0.0000000001
 40
1.852276400025741
 40
1.852276400025741
 40
1.852276400025741
 40
1.852276400025741
 40
1.953060018059062
 40
1.953060018059062
 40
2.053843636092382
 40
2.053843636092382
 40
2.154627254125703
 40
2.154627254125703
 40
2.255410872159024
 40
2.255410872159024
 40
2.356194490192344
 40
2.356194490192344
 40
2.356194490192344
 40
2.356194490192344
 10
1925.09457855302
 20
261.8473194730926
 30
0.0000000000004948
 10
1924.503753719054
 20
262.4659490443377
 30
0.0000000000013759
 10
1923.966364698781
 20
263.1024106440749
 30
0.0000000000014612
 10
1923.004240326699
 20
264.4048537979714
 30
0.0000000000005517
 10
1922.579507304146
 20
265.0708380327418
 30
0.0000000000016033
 10
1921.847524760804
 20
266.4257320367034
 30
0.0000000000015749
 10
1921.540281150586
 20
267.11464423223
 30
0.000000000001518
 10
1921.047037027215
 20
268.5082606243999
 30
0.0000000000008359
 10
1920.861045858866
 20
269.2129626736204
 30
0.0000000000017738
 10
1920.612762322205
 20
270.6304638580233
 30
0.000000000000637
 10
1920.550477817418
 20
271.343253108162
 30
0.0000000000008075
 10
1920.550477817418
 20
272.0560493584302
 30
0.0000000000010633
  0
LINE
  5
6E4F
330
18
100
AcDbEntity
  8
1：主線
100
AcDbLine
 10
1920.550477817418
 20
338.3963965588076
 30
0.000000000001518
 11
1920.550477817418
 21
272.0560493584302
 31
0.0000000000010349
210
0.0
220
0.8164965809277276
230
0.5773502691896239
  0
SPLINE
  5
6E50
330
18
100
AcDbEntity
  8
1：主線
100
AcDbSpline
210
-0.0000000000962163
220
0.0000000000024053
230
1.0
 70
     8
 71
     3
 72
     8
 73
     4
 74
     0
 42
0.000000001
 43
0.0000000001
 40
3.902936860974845
 40
3.902936860974845
 40
3.902936860974845
 40
3.902936860974845
 40
3.926990816987241
 40
3.926990816987241
 40
3.926990816987241
 40
3.926990816987241
 10
1920.561108759418
 20
338.9067090806374
 30
0.0000000000010633
 10
1920.554021931731
 20
338.7366417237014
 30
0.0000000000015749
 10
1920.550477817418
 20
338.5665191440488
 30
0.0000000000008928
 10
1920.550477817418
 20
338.3963965588076
 30
0.000000000001518
  0
SPLINE
  5
6E51
330
18
100
AcDbEntity
  8
1：主線
100
AcDbSpline
210
0.0000000000094498
220
0.0000000000057888
230
-1.0
 70
     8
 71
     3
 72
    16
 73
    12
 74
     0
 42
0.000000001
 43
0.0000000001
 40
0.0
 40
0.0
 40
0.0
 40
0.0
 40
0.0079132999360463
 40
0.0079132999360463
 40
0.0158265998720927
 40
0.0158265998720927
 40
0.023739899808139
 40
0.023739899808139
 40
0.0316531997441853
 40
0.0316531997441853
 40
0.0395664996802317
 40
0.0395664996802317
 40
0.0395664996802317
 40
0.0395664996802317
 10
1974.439486287572
 20
319.9931663510532
 30
0.0000000000009496
 10
1974.43948628757
 20
320.0186571998998
 30
0.0000000000006654
 10
1974.437228625856
 20
320.0447023334153
 30
0.0000000000006938
 10
1974.427368578609
 20
320.0969185621683
 30
0.0000000000010917
 10
1974.419748756523
 20
320.1230878016799
 30
0.0000000000004664
 10
1974.39873425691
 20
320.173938220349
 30
0.0000000000002959
 10
1974.385327288265
 20
320.1985996849966
 30
0.0000000000011485
 10
1974.353235266194
 20
320.2444829868428
 30
0.0000000000005801
 10
1974.334560840348
 20
320.2656778550168
 30
0.0000000000009212
 10
1974.293447082867
 20
320.303095217014
 30
0.0000000000013475
 10
1974.271035398238
 20
320.3193100740155
 30
0.0000000000005233
 10
1974.247689296556
 20
320.3327889521046
 30
0.0000000000012054
  0
LINE
  5
6E52
330
18
100
AcDbEntity
  8
1：主線
100
AcDbLine
 10
1974.247689296556
 20
320.3327889521044
 30
0.0000000000011485
 11
1973.524658685749
 21
320.7502308698862
 31
0.0000000000014612
210
0.0
220
0.8164965809277276
230
0.5773502691896239
  0
LINE
  5
6E53
330
18
100
AcDbEntity
  8
1：主線
100
AcDbLine
 10
1926.22775798843
 20
261.5202131057221
 30
0.0000000000010917
 11
1927.31996627632
 21
262.1507998547462
 31
0.0000000000004948
210
0.0
220
0.8164965809277276
230
0.5773502691896239
  0
SPLINE
  5
6E54
330
18
100
AcDbEntity
  8
1：主線
100
AcDbSpline
210
-0.0000000000000426
220
0.0000000000000154
230
1.0
 70
     8
 71
     3
 72
    18
 73
    14
 74
     0
 42
0.000000001
 43
0.0000000001
 40
-13.70546329106432
 40
-13.70546329106432
 40
-13.70546329106432
 40
-13.70546329106432
 40
-11.67448546832718
 40
-11.67448546832718
 40
-9.44660290190632
 40
-9.44660290190632
 40
-7.218720335485465
 40
-7.218720335485465
 40
-4.99083776906461
 40
-4.99083776906461
 40
-2.762955202643754
 40
-2.762955202643754
 40
-2.566050458960043
 40
-2.566050458960043
 40
-2.566050458960043
 40
-2.566050458960043
 10
1963.72643227712
 20
262.382684328176
 30
0.0000000000009496
 10
1963.775433104498
 20
262.3018026114741
 30
0.000000000000978
 10
1963.82727930319
 20
262.1839843389388
 30
0.000000000000978
 10
1963.912444239605
 20
261.8993864194073
 30
0.0000000000007791
 10
1963.945066566673
 20
261.7282011530805
 30
0.0000000000010633
 10
1963.980245917147
 20
261.3671624357745
 30
0.0000000000004948
 10
1963.983131006752
 20
261.1769181559317
 30
0.0000000000009496
 10
1963.957867750481
 20
260.7945860091334
 30
0.0000000000008359
 10
1963.929700640177
 20
260.602163137324
 30
0.000000000001177
 10
1963.841206878989
 20
260.2338629558277
 30
0.000000000001177
 10
1963.780103204808
 20
260.0569439046239
 30
0.0000000000014612
 10
1963.699963315766
 20
259.893341969584
 30
0.0000000000004096
 10
1963.693369775215
 20
259.8802817721122
 30
0.0000000000003527
 10
1963.686703761346
 20
259.8674726842861
 30
0.0000000000014328
  0
SPLINE
  5
6E55
330
18
100
AcDbEntity
  8
1：主線
100
AcDbSpline
210
0.0000000000001086
220
0.0000000000001028
230
1.0
 70
     8
 71
     3
 72
    16
 73
    12
 74
     0
 42
0.000000001
 43
0.0000000001
 40
-5.361753508717084
 40
-5.361753508717084
 40
-5.361753508717084
 40
-5.361753508717084
 40
-5.179971013893573
 40
-5.179971013893573
 40
-4.998188519070062
 40
-4.998188519070062
 40
-4.816406024246551
 40
-4.816406024246551
 40
-4.63462352942304
 40
-4.63462352942304
 40
-4.452841034599529
 40
-4.452841034599529
 40
-4.452841034599529
 40
-4.452841034599529
 10
1963.68670376036
 20
259.8674726823909
 30
0.0000000000005517
 10
1963.56711926751
 20
259.6376849411419
 30
0.0000000000008075
 10
1963.420459832657
 20
259.4045555171448
 30
0.0000000000009212
 10
1963.083406245656
 20
258.9432826665667
 30
0.0000000000005801
 10
1962.893149384275
 20
258.7151151598811
 30
-0.0000000000002725
 10
1962.479313160423
 20
258.2704463988024
 30
0.0000000000016317
 10
1962.255746119275
 20
258.0538761359111
 30
0.0000000000014043
 10
1961.783137764294
 20
257.6357259931969
 30
0.0000000000007791
 10
1961.534083200193
 20
257.4341098695876
 30
0.0000000000014612
 10
1961.016193050743
 20
257.0476546029732
 30
0.0000000000005517
 10
1960.747340381934
 20
256.8627943839894
 30
0.0000000000012054
 10
1960.470608945008
 20
256.6868381053738
 30
0.000000000001518
  0
SPLINE
  5
6E56
330
18
100
AcDbEntity
  8
1：主線
100
AcDbSpline
210
-0.0000000000000128
220
-0.0000000000000583
230
1.0
 70
     8
 71
     3
 72
    26
 73
    22
 74
     0
 42
0.000000001
 43
0.0000000001
 40
1.108282792849729
 40
1.108282792849729
 40
1.108282792849729
 40
1.108282792849729
 40
1.581423521378432
 40
1.581423521378432
 40
2.075144339796274
 40
2.075144339796274
 40
2.366725121267075
 40
2.366725121267075
 40
2.692717845374888
 40
2.692717845374888
 40
3.058658898208781
 40
3.058658898208781
 40
3.447704976894262
 40
3.447704976894262
 40
3.836751055579743
 40
3.836751055579743
 40
4.225797134265225
 40
4.225797134265225
 40
4.567368973707501
 40
4.567368973707501
 40
4.998743579704542
 40
4.998743579704542
 40
4.998743579704542
 40
4.998743579704542
 10
1945.047248239521
 20
266.4392579067682
 30
0.000000000001177
 10
1945.607945776475
 20
266.7317640028201
 30
0.0000000000006085
 10
1946.277743393053
 20
266.957840566872
 30
0.0000000000014043
 10
1947.808498377968
 20
267.2666303674808
 30
0.0000000000003527
 10
1948.674225899357
 20
267.3429996998501
 30
0.0000000000006654
 10
1950.112452364195
 20
267.3510034549682
 30
0.0000000000007506
 10
1950.65994365138
 20
267.3294412500289
 30
0.000000000001177
 10
1951.832054452957
 20
267.238869205766
 30
0.0000000000007791
 10
1952.458143246078
 20
267.1646239005735
 30
0.0000000000012054
 10
1953.785102556743
 20
266.9601350199517
 30
0.0000000000008928
 10
1954.485743726598
 20
266.8242174431695
 30
0.0000000000008359
 10
1955.910091631867
 20
266.4960052759937
 30
0.0000000000011201
 10
1956.632666623337
 20
266.3007295064671
 30
0.0000000000016601
 10
1958.036595109149
 20
265.8635572185604
 30
0.0000000000008928
 10
1958.718262209254
 20
265.6216067045619
 30
0.0000000000008643
 10
1960.017586478621
 20
265.0918384336907
 30
0.0000000000009496
 10
1960.635469009566
 20
264.8039938102139
 30
0.0000000000007791
 10
1961.702440786626
 20
264.2176901653233
 30
0.0000000000010349
 10
1962.163196422156
 20
263.9242763956821
 30
0.0000000000014043
 10
1963.068464829408
 20
263.2216661768904
 30
0.0000000000004096
 10
1963.472948229285
 20
262.8010900168873
 30
0.0000000000004948
 10
1963.726432276269
 20
262.382684329585
 30
0.0000000000011201
  0
LINE
  5
6E57
330
18
100
AcDbEntity
  8
1：主線
100
AcDbLine
 10
1974.43948628757
 20
319.9931663510528
 30
0.0000000000012907
 11
1974.43948628757
 21
254.0610674411392
 31
0.0000000000008928
210
0.0
220
0.8164965809277276
230
0.5773502691896239
  0
SPLINE
  5
6E58
330
18
100
AcDbEntity
  8
1：主線
100
AcDbSpline
210
-0.0000000000004399
220
-0.0000000000003892
230
-1.0
 70
     8
 71
     3
 72
    26
 73
    22
 74
     0
 42
0.000000001
 43
0.0000000001
 40
0.0000000000000003
 40
0.0000000000000003
 40
0.0000000000000003
 40
0.0000000000000003
 40
0.0714150970708319
 40
0.0714150970708319
 40
0.1432797423603783
 40
0.1432797423603783
 40
0.2151443876499246
 40
0.2151443876499246
 40
0.287009032939471
 40
0.287009032939471
 40
0.3588736782290174
 40
0.3588736782290174
 40
0.4307383235185639
 40
0.4307383235185639
 40
0.5026029688081103
 40
0.5026029688081103
 40
0.5744676140976567
 40
0.5744676140976567
 40
0.6463322593872031
 40
0.6463322593872031
 40
0.7186464528954644
 40
0.7186464528954644
 40
0.7186464528954644
 40
0.7186464528954644
 10
1937.171578119925
 20
256.3769052063816
 30
0.0000000000008359
 10
1937.171578119923
 20
256.2657435476211
 30
0.0000000000009212
 10
1937.180907848161
 20
256.1524376435094
 30
0.0000000000005233
 10
1937.217394379695
 20
255.9234290834109
 30
0.0000000000008075
 10
1937.244663114057
 20
255.807713566361
 30
0.0000000000003527
 10
1937.316015076863
 20
255.5771757416736
 30
0.0000000000002106
 10
1937.360099274352
 20
255.4623522972703
 30
0.0000000000013759
 10
1937.463797900334
 20
255.2361426050869
 30
0.0000000000006938
 10
1937.523413790309
 20
255.1247601336939
 30
0.0000000000003527
 10
1937.656648820182
 20
254.9079864917204
 30
0.0000000000007222
 10
1937.730264500103
 20
254.8026016278599
 30
0.000000000001717
 10
1937.889755938978
 20
254.6002054956014
 30
0.0000000000013475
 10
1937.975635054819
 20
254.5031910858346
 30
0.0000000000008075
 10
1938.157731456021
 20
254.3196881491882
 30
0.0000000000009496
 10
1938.253944200669
 20
254.2332041635808
 30
0.0000000000012054
 10
1938.454616751301
 20
254.0726477917168
 30
0.0000000000012622
 10
1938.55907842741
 20
253.998572135535
 30
0.0000000000003527
 10
1938.77410757847
 20
253.8643756656127
 30
0.0000000000008359
 10
1938.884669715054
 20
253.8042564882308
 30
0.0000000000009212
 10
1939.110412979958
 20
253.6988942794067
 30
0.000000000000438
 10
1939.225612639018
 20
253.6537478322903
 30
0.0000000000010064
 10
1939.341669503284
 20
253.6168009630877
 30
0.0000000000005801
  0
LINE
  5
6E59
330
18
100
AcDbEntity
  8
1：主線
100
AcDbLine
 10
1937.171578119923
 20
283.5254165222281
 30
0.0000000000016033
 11
1937.171578119923
 21
256.3769052063811
 31
0.0000000000012054
210
0.0
220
0.8164965809277276
230
0.5773502691896239
  0
SPLINE
  5
6E5A
330
18
100
AcDbEntity
  8
1：主線
100
AcDbSpline
210
0.0000000000000494
220
0.0000000000000965
230
1.0
 70
     8
 71
     3
 72
    40
 73
    36
 74
     0
 42
0.000000001
 43
0.0000000001
 40
1.22094430006163
 40
1.22094430006163
 40
1.22094430006163
 40
1.22094430006163
 40
1.361653592234931
 40
1.361653592234931
 40
1.49893428902142
 40
1.49893428902142
 40
1.629553405409158
 40
1.629553405409158
 40
1.754599823252337
 40
1.754599823252337
 40
1.997621956241084
 40
1.997621956241084
 40
2.234633624308052
 40
2.234633624308052
 40
2.47070281424361
 40
2.47070281424361
 40
2.707814181303527
 40
2.707814181303527
 40
2.9471025003868
 40
2.9471025003868
 40
3.189258466253508
 40
3.189258466253508
 40
3.43431699631838
 40
3.43431699631838
 40
3.681469535281529
 40
3.681469535281529
 40
3.92912918174289
 40
3.92912918174289
 40
4.175541447766912
 40
4.175541447766912
 40
4.419449249424309
 40
4.419449249424309
 40
4.651593008409431
 40
4.651593008409431
 40
4.883736767394553
 40
4.883736767394553
 40
4.883736767394553
 40
4.883736767394553
 10
1927.891297087513
 20
293.0112087427466
 30
0.0000000000004096
 10
1927.976577149926
 20
293.0604452097385
 30
0.000000000000438
 10
1928.066430135286
 20
293.1018473663982
 30
0.0000000000011201
 10
1928.254029769361
 20
293.168388339884
 30
0.0000000000014612
 10
1928.351548114498
 20
293.1938899205824
 30
0.0000000000012622
 10
1928.552005595698
 20
293.2289346103497
 30
0.0000000000005233
 10
1928.654452493341
 20
293.2391796052253
 30
0.0000000000006938
 10
1928.864219731058
 20
293.2453431780738
 30
0.0000000000013475
 10
1928.97114016753
 20
293.2418487045453
 30
0.0000000000006938
 10
1929.298003812449
 20
293.2118605080622
 30
0.0000000000008928
 10
1929.529477491021
 20
293.1666824942521
 30
0.0000000000008359
 10
1930.012106342795
 20
293.0266648238143
 30
0.0000000000012907
 10
1930.262577952044
 20
292.9331109527037
 30
0.0000000000007506
 10
1930.780121226769
 20
292.6993846095432
 30
0.0000000000012622
 10
1931.047115816425
 20
292.5594177246265
 30
0.000000000000978
 10
1931.592361920942
 20
292.2354586947887
 30
0.000000000000637
 10
1931.870653177262
 20
292.0512880757968
 30
0.000000000000438
 10
1932.431959710482
 20
291.6418973751241
 30
0.0000000000011485
 10
1932.714976917764
 20
291.4163339515889
 30
0.0000000000003243
 10
1933.278125252088
 20
290.927757413553
 30
0.0000000000005517
 10
1933.558177319886
 20
290.6643302520057
 30
0.0000000000004664
 10
1934.10646055785
 20
290.1047637622895
 30
0.0000000000015749
 10
1934.374495219126
 20
289.8082823820358
 30
0.0000000000007222
 10
1934.888671075421
 20
289.1890147155678
 30
0.0000000000009496
 10
1935.134604126813
 20
288.8660137885546
 30
0.000000000000637
 10
1935.594097716673
 20
288.2021183951959
 30
0.0000000000011485
 10
1935.807575967688
 20
287.861190960687
 30
0.0000000000010633
 10
1936.192968974646
 20
287.1711100007257
 30
0.0000000000005801
 10
1936.365083287822
 20
286.8219880152295
 30
0.0000000000015749
 10
1936.661271918857
 20
286.1250947507343
 30
0.0000000000010917
 10
1936.785794715289
 20
285.7773590674275
 30
0.0000000000018875
 10
1936.979796498158
 20
285.1044728959931
 30
0.0000000000016886
 10
1937.051637491553
 20
284.7790439692113
 30
0.0000000000010349
 10
1937.147532190039
 20
284.1408663250969
 30
0.0000000000015465
 10
1937.171578119923
 20
283.8281326857476
 30
0.0000000000009212
 10
1937.171578119925
 20
283.5254165222283
 30
0.0000000000012054
  0
SPLINE
  5
6E5B
330
18
100
AcDbEntity
  8
1：主線
100
AcDbSpline
210
-0.0000000000001292
220
-0.0000000000004349
230
-1.0
 70
     8
 71
     3
 72
    16
 73
    12
 74
     0
 42
0.000000001
 43
0.0000000001
 40
0.3551378123620517
 40
0.3551378123620517
 40
0.3551378123620517
 40
0.3551378123620517
 40
0.4278400443063119
 40
0.4278400443063119
 40
0.500542276250572
 40
0.500542276250572
 40
0.5732445081948321
 40
0.5732445081948321
 40
0.6459467401390923
 40
0.6459467401390923
 40
0.7186489720833524
 40
0.7186489720833524
 40
0.7186489720833524
 40
0.7186489720833524
 10
1926.22775798843
 20
261.5202131057216
 30
0.0000000000015749
 10
1926.156171600605
 20
261.4788826854409
 30
0.0000000000012622
 10
1926.076799673933
 20
261.4509477169341
 30
0.0000000000004948
 10
1925.914020244814
 20
261.4260330953549
 30
0.0000000000018307
 10
1925.831079568586
 20
261.4288489219358
 30
0.0000000000007506
 10
1925.670290213923
 20
261.4595162406446
 30
0.0000000000005801
 10
1925.592276133289
 20
261.4871006134052
 30
0.0000000000010349
 10
1925.441892061337
 20
261.5610244717276
 30
0.0000000000015465
 10
1925.369379368466
 20
261.6073922830866
 30
0.0000000000016033
 10
1925.228789765023
 20
261.7159028958452
 30
0.0000000000010349
 10
1925.160695259124
 20
261.7780912565407
 30
0.0000000000009496
 10
1925.09457855302
 20
261.8473194730922
 30
0.0000000000009212
  0
SPLINE
  5
6E5C
330
18
100
AcDbEntity
  8
1：主線
100
AcDbSpline
210
0.0000000000044001
220
-0.000000000001959
230
1.0
 70
     8
 71
     3
 72
    16
 73
    12
 74
     0
 42
0.000000001
 43
0.0000000001
 40
0.0000000000000009
 40
0.0000000000000009
 40
0.0000000000000009
 40
0.0000000000000009
 40
0.0710591850172343
 40
0.0710591850172343
 40
0.1421183700344677
 40
0.1421183700344677
 40
0.213177555051701
 40
0.213177555051701
 40
0.2842367400689345
 40
0.2842367400689345
 40
0.3552959250861678
 40
0.3552959250861678
 40
0.3552959250861678
 40
0.3552959250861678
 10
1927.798699650938
 20
263.332493169016
 30
0.0000000000009212
 10
1927.798699650938
 20
263.2270248862177
 30
0.0000000000008643
 10
1927.793155675699
 20
263.1254116956728
 30
0.0000000000018307
 10
1927.770392149286
 20
262.9316629258809
 30
0.0000000000015749
 10
1927.75319058778
 20
262.8395216754262
 30
0.000000000000438
 10
1927.7061533133
 20
262.6660781841025
 30
0.0000000000013475
 10
1927.676334497162
 20
262.5847313566024
 30
0.000000000000978
 10
1927.60210751186
 20
262.4344221051116
 30
0.0000000000005801
 10
1927.557628067654
 20
262.3653564483176
 30
0.0000000000005801
 10
1927.451496722478
 20
262.2436109127879
 30
0.0000000000008928
 10
1927.389574106935
 20
262.1909879544891
 30
0.0000000000010917
 10
1927.31996627632
 20
262.1507998547457
 30
0.0000000000009496
  0
LINE
  5
6E5D
330
18
100
AcDbEntity
  8
1：主線
100
AcDbLine
 10
1927.798699650938
 20
263.332493169016
 30
0.0000000000008928
 11
1927.798699650938
 21
290.4810044848627
 31
0.0000000000012622
210
0.0
220
0.8164965809277276
230
0.5773502691896239
  0
SPLINE
  5
6E5E
330
18
100
AcDbEntity
  8
1：主線
100
AcDbSpline
210
-0.0000000000009146
220
0.0000000000004192
230
1.0
 70
     8
 71
     3
 72
    14
 73
    10
 74
     0
 42
0.000000001
 43
0.0000000001
 40
0.0000000000000053
 40
0.0000000000000053
 40
0.0000000000000053
 40
0.0000000000000053
 40
0.2442647466041678
 40
0.2442647466041678
 40
0.4885294932083303
 40
0.4885294932083303
 40
0.7327942398124927
 40
0.7327942398124927
 40
0.9264156891016611
 40
0.9264156891016611
 40
0.9264156891016611
 40
0.9264156891016611
 10
1927.798699650938
 20
290.4810044848627
 30
0.0000000000012907
 10
1927.798699650938
 20
290.8046554446094
 30
0.0000000000006085
 10
1927.815729991152
 20
291.1112817905419
 30
0.0000000000012338
 10
1927.882902206989
 20
291.6816644317326
 30
0.0000000000012054
 10
1927.9330606001
 20
291.9453930232561
 30
0.0000000000007222
 10
1928.064414984808
 20
292.4229845243875
 30
-0.0000000000000167
 10
1928.145602251915
 20
292.6367890930009
 30
0.000000000000978
 10
1928.315830994393
 20
292.9719265511029
 30
0.0000000000001254
 10
1928.39966443999
 20
293.103203472709
 30
0.0000000000012338
 10
1928.491359725337
 20
293.2179682232246
 30
0.0000000000005801
  0
ARC
  5
6E5F
330
18
100
AcDbEntity
  8
1：主線
100
AcDbCircle
 10
-1923.347535122216
 20
346.5067676265666
 30
-0.0000000000019566
 40
0.2499999999963276
210
-0.0000000000000003
220
0.0000000000000001
230
-1.0
100
AcDbArc
 50
0.0
 51
41.83363111542183
  0
SPLINE
  5
6E60
330
18
100
AcDbEntity
  8
1：主線
100
AcDbSpline
210
0.0000000006274281
220
-0.0000000000636629
230
1.0
 70
     8
 71
     3
 72
    12
 73
     8
 74
     0
 42
0.000000001
 43
0.0000000001
 40
0.0
 40
0.0
 40
0.0
 40
0.0
 40
0.0159722218504739
 40
0.0159722218504739
 40
0.0319444437009478
 40
0.0319444437009478
 40
0.0402443574897549
 40
0.0402443574897549
 40
0.0402443574897549
 40
0.0402443574897549
 10
1923.09753512222
 20
331.125655657287
 30
0.0000000000012907
 10
1923.09753512222
 20
331.110478598829
 30
0.0000000000012907
 10
1923.096915672074
 20
331.0972775934487
 30
0.0000000000014043
 10
1923.095037289754
 20
331.0763169363876
 30
0.0000000000014043
 10
1923.093751467991
 20
331.0685505666396
 30
0.0000000000009496
 10
1923.092424890733
 20
331.0623026919089
 30
0.0000000000010633
 10
1923.092071829231
 20
331.0611590866121
 30
0.0000000000006654
 10
1923.09207539298
 20
331.0611591694659
 30
0.0000000000011201
  0
SPLINE
  5
6E61
330
18
100
AcDbEntity
  8
1：主線
100
AcDbSpline
210
0.000000015037762
220
-0.0000000138227061
230
0.9999999999999998
 70
     8
 71
     3
 72
     8
 73
     4
 74
     0
 42
0.000000001
 43
0.0000000001
 40
4.275116104954229
 40
4.275116104954229
 40
4.275116104954229
 40
4.275116104954229
 40
4.316964865981098
 40
4.316964865981098
 40
4.316964865981098
 40
4.316964865981098
 10
1923.161263963655
 20
346.6735101091177
 30
0.0000000000008928
 10
1923.269623591642
 20
346.7945606844618
 30
0.0000000000013475
 10
1923.37906440729
 20
346.9136284456983
 30
0.0000000000007791
 10
1923.489494752324
 20
347.0306110134701
 30
0.0000000000018591
  0
LINE
  5
6E62
330
18
100
AcDbEntity
  8
1：主線
100
AcDbLine
 10
1923.09753512222
 20
346.5067676265659
 30
0.0000000000008359
 11
1923.09753512222
 21
331.1256556572867
 31
0.0000000000016886
210
0.0
220
0.8164965809277276
230
0.5773502691896239
  0
ELLIPSE
  5
6E63
330
18
100
AcDbEntity
  8
1：主線
100
AcDbEllipse
 10
1957.86582185976
 20
264.3020360735478
 30
0.0000000000014612
 11
-2.750000000000176
 21
4.763139720814211
 31
0.0
210
0.0000000000000002
220
0.0000000000000001
230
1.0
 40
0.5773502691896347
 41
2.971143232606583
 42
3.109445899732181
  0
ELLIPSE
  5
6E64
330
18
100
AcDbEntity
  8
1：主線
100
AcDbEllipse
 10
1957.689045164464
 20
264.1999740009329
 30
0.0000000000006654
 11
-2.750000000000218
 21
4.763139720814283
 31
0.0000000000000003
210
0.0000000000000001
220
0.0
230
1.0
 40
0.5773502691896351
 41
2.896313743021395
 42
4.468377555566006
  0
ELLIPSE
  5
6E65
330
18
100
AcDbEntity
  8
1：主線
100
AcDbEllipse
 10
1957.689045164464
 20
264.1999740009329
 30
0.0000000000006654
 11
-3.000000000000238
 21
5.196152422706493
 31
0.0
210
0.0000000000000003
220
0.0000000000000002
230
1.0
 40
0.577350269189635
 41
0.710778679527583
 42
4.421344375166545
  0
ELLIPSE
  5
6E66
330
18
100
AcDbEntity
  8
1：主線
100
AcDbEllipse
 10
1958.042598555058
 20
264.4040981461645
 30
0.0000000000012338
 11
-3.249999999999924
 21
5.629165124598896
 31
-0.0000000000000004
210
0.0
220
-0.0000000000000001
230
-1.0
 40
0.577350269189635
 41
1.998808036831306
 42
3.926990816987179
  0
ELLIPSE
  5
6E67
330
18
100
AcDbEntity
  8
1：主線
100
AcDbEllipse
 10
1958.572928640949
 20
264.7102843640122
 30
0.0000000000011485
 11
-3.250000000000261
 21
5.629165124598701
 31
0.0000000000000007
210
0.0000000000000002
220
0.0
230
1.0
 40
0.577350269189635
 41
3.141592653589459
 42
4.128428878103373
  0
ELLIPSE
  5
6E68
330
18
100
AcDbEntity
  8
1：主線
100
AcDbEllipse
 10
1957.512268469168
 20
264.0979119283162
 30
0.0000000000008928
 11
-2.712500000000224
 21
4.698187815530468
 31
0.0000000000000003
210
0.0000000000000001
220
0.0
230
1.0
 40
0.5773502691896351
 41
0.632269225549837
 42
4.525859711698271
  0
ELLIPSE
  5
6E69
330
18
100
AcDbEntity
  8
1：主線
100
AcDbEllipse
 10
1957.86582185976
 20
264.3020360735478
 30
0.0000000000014612
 11
-2.712500000000197
 21
4.698187815530422
 31
0.0
210
0.0000000000000001
220
0.0000000000000001
230
1.0
 40
0.5773502691896349
 41
3.141592653589451
 42
3.323608838355691
  0
ELLIPSE
  5
6E6A
330
18
100
AcDbEntity
  8
1：主線
100
AcDbEllipse
 10
1964.406559585737
 20
267.6700844698747
 30
0.0000000000017738
 11
10.98863048791796
 21
0.0000000000000016
 31
-0.0000000000000014
210
0.0000000000000001
220
0.0000000000000001
230
1.0
 40
0.5773502691896236
 41
3.597369899126952
 42
4.25661173484764
  0
ELLIPSE
  5
6E6B
330
18
100
AcDbEntity
  8
1：主線
100
AcDbEllipse
 10
1964.406559585737
 20
268.4865810508035
 30
0.000000000001177
 11
10.98863048791796
 21
0.0000000000000016
 31
-0.0000000000000014
210
0.0000000000000001
220
0.0000000000000001
230
1.0
 40
0.5773502691896236
 41
3.597369899126869
 42
4.256611734847558
  0
ELLIPSE
  5
6E6C
330
18
100
AcDbEntity
  8
1：主線
100
AcDbEllipse
 10
1952.385744305565
 20
260.7298635319895
 30
0.000000000000978
 11
7.500000000000028
 21
-0.0000000000005352
 31
-0.0000000000000007
210
-0.0000000000000001
220
-0.0000000000000001
230
-1.0
 40
0.5773502691896156
 41
-1.279506018052163
 42
-1.112547179167063
  0
ELLIPSE
  5
6E6D
330
18
100
AcDbEntity
  8
1：主線
100
AcDbEllipse
 10
1952.385744305565
 20
260.7298635319895
 30
0.000000000000978
 11
7.500000000000022
 21
-0.0000000000005352
 31
-0.0000000000000007
210
-0.0000000000000001
220
-0.0000000000000001
230
-1.0
 40
0.5773502691896157
 41
-0.5692461581196833
 42
-0.2912903087436403
  0
ELLIPSE
  5
6E6E
330
18
100
AcDbEntity
  8
1：主線
100
AcDbEllipse
 10
1958.749705336245
 20
264.8123464366284
 30
0.0000000000009496
 11
-3.22500000000025
 21
5.585863854409467
 31
0.0000000000000004
210
0.0000000000000001
220
0.0
230
1.0
 40
0.577350269189635
 41
3.256407002353641
 42
4.075161709116611
  0
ELLIPSE
  5
6E6F
330
18
100
AcDbEntity
  8
1：主線
100
AcDbEllipse
 10
1926.800477993103
 20
269.4024355718601
 30
0.0000000000012054
 11
2.399999999999291
 21
0.0000000000000004
 31
-0.0000000000000001
210
0.0000000000000001
220
-0.0000000000000002
230
1.0
 40
0.5773502691896239
 41
1.040964182019993
 42
1.141835845171168
  0
MTEXT
  5
6E7E
330
18
100
AcDbEntity
  8
7：文字
 62
     7
 48
2.0
100
AcDbMText
 10
2060.435493390496
 20
-1.696828613746674
 30
0.0
 40
15.0
 41
188.2662939976999
 46
0.0
 71
     1
 72
     5
  1
{\fMS PGothic|b0|i0|c128|p50;LP-2101A-L-EV}
 73
     1
 44
1.0
1001
ACAD
1000
ACAD_MTEXT_COLUMN_INFO_BEGIN
1070
    75
1070
     2
1070
    79
1070
     0
1070
    76
1070
     1
1070
    78
1070
     0
1070
    48
1040
188.2662939976999
1070
    49
1040
15.0
1070
    50
1070
     1
1040
0.0
1000
ACAD_MTEXT_COLUMN_INFO_END
  0
ENDSEC
  0
SECTION
  2
OBJECTS
  0
DICTIONARY
  5
C
330
0
100
AcDbDictionary
281
     1
  3
ACAD_CIP_PREVIOUS_PRODUCT_INFO
350
28CD
  3
ACAD_COLOR
350
28AE
  3
ACAD_DETAILVIEWSTYLE
350
28C7
  3
ACAD_GROUP
350
D
  3
ACAD_LAYOUT
350
75E
  3
ACAD_MATERIAL
350
287C
  3
ACAD_MLEADERSTYLE
350
28C3
  3
ACAD_MLINESTYLE
350
1B
  3
ACAD_PLOTSETTINGS
350
75F
  3
ACAD_PLOTSTYLENAME
350
75C
  3
ACAD_SCALELIST
350
28B1
  3
ACAD_SECTIONVIEWSTYLE
350
28C5
  3
ACAD_TABLESTYLE
350
28AF
  3
ACAD_VISUALSTYLE
350
2895
  3
AcadDim
350
2413
  3
AcadDim_CRX
350
46CA
  3
ACDB_RECOMPOSE_DATA
350
6E8B
  3
ACDBVARIABLEDICTIONARY
350
33
  3
CONTENTDICTIONARY
350
23
  0
DICTIONARY
  5
2AC1
330
8
100
AcDbDictionary
280
     1
281
     1
  0
DICTIONARY
  5
28D1
330
2
100
AcDbDictionary
280
     1
281
     1
  3
ACAD_LAYERSTATES
360
28D2
  0
DICTIONARY
  5
2AA5
330
E
100
AcDbDictionary
280
     1
281
     1
  3
ADSK_XREC_LAYER_RECONCILED
360
2AA6
  0
DICTIONARY
  5
2B09
330
32B
100
AcDbDictionary
280
     1
281
     1
  3
ADSK_XREC_LAYER_RECONCILED
360
2B0A
  0
DICTIONARY
  5
294B
330
294A
100
AcDbDictionary
280
     1
281
     1
  3
ADSK_XREC_LAYER_RECONCILED
360
2AA7
  0
DICTIONARY
  5
294D
330
294C
100
AcDbDictionary
280
     1
281
     1
  3
ADSK_XREC_LAYER_RECONCILED
360
2AA8
  0
DICTIONARY
  5
294F
330
294E
100
AcDbDictionary
280
     1
281
     1
  3
ADSK_XREC_LAYER_RECONCILED
360
2AA9
  0
DICTIONARY
  5
2951
330
2950
100
AcDbDictionary
280
     1
281
     1
  3
ADSK_XREC_LAYER_RECONCILED
360
2AAA
  0
DICTIONARY
  5
2953
330
2952
100
AcDbDictionary
280
     1
281
     1
  3
ADSK_XREC_LAYER_RECONCILED
360
2AAB
  0
DICTIONARY
  5
2955
330
2954
100
AcDbDictionary
280
     1
281
     1
  3
ADSK_XREC_LAYER_RECONCILED
360
2AAC
  0
DICTIONARY
  5
2957
330
2956
100
AcDbDictionary
280
     1
281
     1
  3
ADSK_XREC_LAYER_RECONCILED
360
2AAD
  0
DICTIONARY
  5
2959
330
2958
100
AcDbDictionary
280
     1
281
     1
  3
ADSK_XREC_LAYER_RECONCILED
360
2AAE
  0
DICTIONARY
  5
295B
330
295A
100
AcDbDictionary
280
     1
281
     1
  3
ADSK_XREC_LAYER_RECONCILED
360
2AAF
  0
DICTIONARY
  5
295D
330
295C
100
AcDbDictionary
280
     1
281
     1
  3
ADSK_XREC_LAYER_RECONCILED
360
2AB0
  0
DICTIONARY
  5
295F
330
295E
100
AcDbDictionary
280
     1
281
     1
  3
ADSK_XREC_LAYER_RECONCILED
360
2AB1
  0
DICTIONARY
  5
2961
330
2960
100
AcDbDictionary
280
     1
281
     1
  3
ADSK_XREC_LAYER_RECONCILED
360
2AB2
  0
DICTIONARY
  5
4AE4
330
4AE3
100
AcDbDictionary
280
     1
281
     1
  0
DICTIONARY
  5
4AE6
330
4AE5
100
AcDbDictionary
280
     1
281
     1
  0
DICTIONARY
  5
2C42
330
18
100
AcDbDictionary
280
     1
281
     1
  3
ACAD_SORTENTS
360
2C49
  0
DICTIONARY
  5
6BA7
330
280B
100
AcDbDictionary
280
     1
281
     1
  0
XRECORD
  5
28CD
102
{ACAD_REACTORS
330
C
102
}
330
C
100
AcDbXrecord
280
     1
300
ACDLT
300
2014
300
ACDLT_F_S
  0
DICTIONARY
  5
28AE
102
{ACAD_REACTORS
330
C
102
}
330
C
100
AcDbDictionary
281
     1
  0
DICTIONARY
  5
28C7
102
{ACAD_REACTORS
330
C
102
}
330
C
100
AcDbDictionary
281
     1
  3
Imperial24
350
5947
  3
Metric50
350
28C8
  0
DICTIONARY
  5
D
102
{ACAD_REACTORS
330
C
102
}
330
C
100
AcDbDictionary
281
     1
  3
*A1
350
4993
  3
*A2
350
4A6D
  3
*A3
350
4BE1
  3
*A4
350
593A
  0
DICTIONARY
  5
75E
102
{ACAD_REACTORS
330
C
102
}
330
C
100
AcDbDictionary
281
     1
  3
Model
350
760
  3
ﾚｲｱｳﾄ1
350
761
  0
DICTIONARY
  5
287C
102
{ACAD_REACTORS
330
C
102
}
330
C
100
AcDbDictionary
281
     1
  3
ByBlock
350
2885
  3
ByLayer
350
287D
  3
Global
350
288D
  0
DICTIONARY
  5
28C3
102
{ACAD_REACTORS
330
C
102
}
330
C
100
AcDbDictionary
281
     1
  3
Standard
350
28C4
  0
DICTIONARY
  5
1B
102
{ACAD_REACTORS
330
C
102
}
330
C
100
AcDbDictionary
281
     1
  3
STANDARD
350
1C
  0
DICTIONARY
  5
75F
102
{ACAD_REACTORS
330
C
102
}
330
C
100
AcDbDictionary
281
     1
  0
ACDBDICTIONARYWDFLT
  5
75C
102
{ACAD_REACTORS
330
C
102
}
330
C
100
AcDbDictionary
281
     1
  3
Normal
350
75D
100
AcDbDictionaryWithDefault
340
75D
  0
DICTIONARY
  5
28B1
102
{ACAD_REACTORS
330
C
102
}
330
C
100
AcDbDictionary
281
     1
  3
A0
350
28B2
  3
A1
350
28B3
  3
A2
350
28B4
  3
A3
350
28B5
  3
A4
350
28B6
  3
A5
350
28B7
  3
A6
350
28B8
  3
A7
350
28B9
  3
A8
350
28BA
  3
A9
350
28BB
  3
B0
350
28BC
  3
B1
350
28BD
  3
B2
350
28BE
  3
B3
350
28BF
  3
B4
350
28C0
  3
B5
350
28C1
  3
B6
350
28C2
  0
DICTIONARY
  5
28C5
102
{ACAD_REACTORS
330
C
102
}
330
C
100
AcDbDictionary
281
     1
  3
Imperial24
350
5946
  3
Metric50
350
28C6
  0
DICTIONARY
  5
28AF
102
{ACAD_REACTORS
330
C
102
}
330
C
100
AcDbDictionary
281
     1
  3
Standard
350
28B0
  3
部材表
350
4D28
  0
DICTIONARY
  5
2895
102
{ACAD_REACTORS
330
C
102
}
330
C
100
AcDbDictionary
281
     1
  3
2dWireframe
350
289B
  3
Basic
350
289A
  3
Brighten
350
28A1
  3
ColorChange
350
28A5
  3
Conceptual
350
289E
  3
Dim
350
28A0
  3
EdgeColorOff
350
28AD
  3
Facepattern
350
28A4
  3
Flat
350
2896
  3
FlatWithEdges
350
2897
  3
Gouraud
350
2898
  3
GouraudWithEdges
350
2899
  3
Hidden
350
289D
  3
JitterOff
350
28AB
  3
Linepattern
350
28A3
  3
OverhangOff
350
28AC
  3
Realistic
350
289F
  3
Shaded
350
28AA
  3
Shaded with edges
350
28A9
  3
Shades of Gray
350
28A6
  3
Sketchy
350
28A7
  3
Thicken
350
28A2
  3
Wireframe
350
289C
  3
X-Ray
350
28A8
  0
XRECORD
  5
2413
102
{ACAD_REACTORS
330
C
102
}
330
C
100
AcDbXrecord
280
     1
 90
   990106
  3
OPEN
 60
     0
 61
     0
 62
     1
 63
     3
 64
     1
 65
     0
 66
     0
 67
     3
 68
     1
 69
     0
 70
     0
 71
     0
 72
     0
 40
0.0
170
     2
  0
XRECORD
  5
46CA
102
{ACAD_REACTORS
330
C
102
}
330
C
100
AcDbXrecord
280
     1
 90
   990106
  3
OPEN
 60
     0
 61
     0
 62
     4
 63
     4
 64
     1
 65
     0
 66
     1
 67
     3
 68
     0
 69
     0
 70
     0
 71
     0
 72
     0
 40
0.0
170
     0
340
4BF4
  0
XRECORD
  5
6E8B
102
{ACAD_REACTORS
330
C
102
}
330
C
100
AcDbXrecord
280
     1
 90
        1
330
28B0
330
28C6
330
28C8
330
4D28
330
5946
330
5947
330
6E7E
  0
DICTIONARY
  5
33
102
{ACAD_REACTORS
330
C
102
}
330
C
100
AcDbDictionary
281
     1
  3
CANNOSCALE
350
28E2
  3
CMLEADERSTYLE
350
28DE
  3
CTABLESTYLE
350
28DD
  3
CVIEWDETAILSTYLE
350
28DF
  3
CVIEWSECTIONSTYLE
350
28E0
  3
DIMADEC
350
34
  3
DIMASSOC
350
23F7
  3
INDEXCTL
350
2B02
  3
LAYEREVAL
350
28E4
  3
LAYERNOTIFY
350
28E5
  3
LIGHTINGUNITS
350
28E3
  3
MSLTSCALE
350
28E1
  3
SORTENTS
350
1383
  0
DICTIONARY
  5
23
102
{ACAD_REACTORS
330
C
102
}
330
C
100
AcDbDictionary
281
     1
  0
DICTIONARY
  5
28D2
102
{ACAD_REACTORS
330
28D1
102
}
330
28D1
100
AcDbDictionary
281
     1
  0
XRECORD
  5
2AA6
102
{ACAD_REACTORS
330
2AA5
102
}
330
2AA5
100
AcDbXrecord
280
     1
290
     1
  0
XRECORD
  5
2B0A
102
{ACAD_REACTORS
330
2B09
102
}
330
2B09
100
AcDbXrecord
280
     1
290
     1
  0
XRECORD
  5
2AA7
102
{ACAD_REACTORS
330
294B
102
}
330
294B
100
AcDbXrecord
280
     1
290
     1
  0
XRECORD
  5
2AA8
102
{ACAD_REACTORS
330
294D
102
}
330
294D
100
AcDbXrecord
280
     1
290
     1
  0
XRECORD
  5
2AA9
102
{ACAD_REACTORS
330
294F
102
}
330
294F
100
AcDbXrecord
280
     1
290
     1
  0
XRECORD
  5
2AAA
102
{ACAD_REACTORS
330
2951
102
}
330
2951
100
AcDbXrecord
280
     1
290
     1
  0
XRECORD
  5
2AAB
102
{ACAD_REACTORS
330
2953
102
}
330
2953
100
AcDbXrecord
280
     1
290
     1
  0
XRECORD
  5
2AAC
102
{ACAD_REACTORS
330
2955
102
}
330
2955
100
AcDbXrecord
280
     1
290
     1
  0
XRECORD
  5
2AAD
102
{ACAD_REACTORS
330
2957
102
}
330
2957
100
AcDbXrecord
280
     1
290
     1
  0
XRECORD
  5
2AAE
102
{ACAD_REACTORS
330
2959
102
}
330
2959
100
AcDbXrecord
280
     1
290
     1
  0
XRECORD
  5
2AAF
102
{ACAD_REACTORS
330
295B
102
}
330
295B
100
AcDbXrecord
280
     1
290
     1
  0
XRECORD
  5
2AB0
102
{ACAD_REACTORS
330
295D
102
}
330
295D
100
AcDbXrecord
280
     1
290
     1
  0
XRECORD
  5
2AB1
102
{ACAD_REACTORS
330
295F
102
}
330
295F
100
AcDbXrecord
280
     1
290
     1
  0
XRECORD
  5
2AB2
102
{ACAD_REACTORS
330
2961
102
}
330
2961
100
AcDbXrecord
280
     1
290
     1
  0
SORTENTSTABLE
  5
2C49
102
{ACAD_REACTORS
330
2C42
102
}
330
2C42
100
AcDbSortentsTable
330
18
331
51C0
  5
40BC
331
51CF
  5
53F0
331
51BF
  5
53E4
331
51CE
  5
53EF
331
51BE
  5
53E3
331
51CD
  5
53EE
331
51BD
  5
53E2
331
51CC
  5
53ED
331
51BC
  5
53E1
331
51CB
  5
53EC
331
51BB
  5
53E0
331
51CA
  5
53EB
331
51BA
  5
53DF
331
51C9
  5
40BF
331
5395
  5
54D4
331
51C8
  5
53EA
331
51D7
  5
53F6
331
51C7
  5
53E9
331
51C6
  5
53E8
331
51D5
  5
53F4
331
51C5
  5
53E7
331
51D4
  5
53F3
331
51C4
  5
53E6
331
51D3
  5
53F2
331
51C3
  5
53E5
331
51D2
  5
40C1
331
51C2
  5
40BE
331
51D1
  5
40C0
331
51C1
  5
40BD
331
51D0
  5
53F1
  0
ACDBDETAILVIEWSTYLE
  5
5947
102
{ACAD_XDICTIONARY
360
6C4D
102
}
102
{ACAD_REACTORS
330
28C7
102
}
330
28C7
100
AcDbModelDocViewStyle
 70
     0
  3
Imperial24
290
     0
100
AcDbDetailViewStyle
 70
     0
 71
     0
 90
        3
 71
     1
340
F
 62
   256
 40
0.24
340
0
 62
   256
 40
0.24
300

 40
0.36
280
     3
 71
     2
340
14
 90
       25
 62
   256
 71
     3
340
F
 62
   256
 40
0.24
 90
        1
 40
0.75
 90
        1
300
%<\AcVar ViewType \f "%tc1">% %<\AcVar ViewDetailId>%\PSCALE %<\AcVar ViewScale \f "%sn">%
 71
     4
340
14
 90
       25
 62
   256
340
14
 90
       25
 62
   256
280
     0
  0
ACDBDETAILVIEWSTYLE
  5
28C8
102
{ACAD_XDICTIONARY
360
6C43
102
}
102
{ACAD_REACTORS
330
28C7
102
}
330
28C7
100
AcDbModelDocViewStyle
 70
     0
  3
Metric50
290
     0
100
AcDbDetailViewStyle
 70
     0
 71
     0
 90
        3
 71
     1
340
F
 62
   256
 40
5.0
340
0
 62
   256
 40
5.0
300

 40
0.0
280
     1
 71
     2
340
14
 90
       25
 62
   256
 71
     3
340
F
 62
   256
 40
5.0
 90
        0
 40
15.0
 90
        1
300
%<\AcVar ViewDetailId>% (%<\AcVar ViewScale \f "%sn">%)
 71
     4
340
14
 90
       25
 62
   256
340
14
 90
       25
 62
   256
280
     0
  0
GROUP
  5
4993
102
{ACAD_REACTORS
330
D
102
}
330
D
100
AcDbGroup
300

 70
     1
 71
     1
  0
GROUP
  5
4A6D
102
{ACAD_REACTORS
330
D
102
}
330
D
100
AcDbGroup
300

 70
     1
 71
     1
  0
GROUP
  5
4BE1
102
{ACAD_REACTORS
330
D
102
}
330
D
100
AcDbGroup
300

 70
     1
 71
     1
  0
GROUP
  5
593A
102
{ACAD_REACTORS
330
D
102
}
330
D
100
AcDbGroup
300

 70
     1
 71
     1
  0
LAYOUT
  5
760
102
{ACAD_XDICTIONARY
360
2AC4
102
}
102
{ACAD_REACTORS
330
75E
102
}
330
75E
100
AcDbPlotSettings
  1

  2
CubePDF
  4
A3
  6

 40
3.174999952316283
 41
3.174999952316283
 42
3.17498779296875
 43
3.17498779296875
 44
297.0318298339844
 45
420.1583251953125
 46
2.712217372661938
 47
2.801713723227521
 48
-1351.36508001101
 49
570.4799978608429
140
-943.1850800110099
141
855.7199978608428
142
1.0
143
8.0
 70
 11940
 72
     1
 73
     1
 74
     1
  7
TAGAI1.CTB
 75
     0
147
0.1267184610770047
 76
     0
 77
     2
 78
   300
148
0.0995962946290092
149
0.069598821794898
100
AcDbLayout
  1
Model
 70
     1
 71
     0
 10
0.0
 20
0.0
 11
12.0
 21
9.0
 12
0.0
 22
0.0
 32
0.0
 14
0.0
 24
0.0
 34
0.0
 15
0.0
 25
0.0
 35
0.0
146
0.0
 13
0.0
 23
0.0
 33
0.0
 16
1.0
 26
0.0
 36
0.0
 17
0.0
 27
1.0
 37
0.0
 76
     0
330
18
331
287A
1001
ACAD_PSEXT
1000
CubePDF
1000
CubePDF
1000
CubePDF:
1000

1070
     0
  0
LAYOUT
  5
761
102
{ACAD_REACTORS
330
75E
102
}
330
75E
100
AcDbPlotSettings
  1

  2
Canon LASER SHOT LBP-850
  4

  6

 40
0.0
 41
0.0
 42
0.0
 43
0.0
 44
0.0
 45
0.0
 46
0.0
 47
0.0
 48
0.0
 49
0.0
140
0.0
141
0.0
142
1.0
143
1.0
 70
   688
 72
     0
 73
     0
 74
     5
  7
tagai1.ctb
 75
    16
147
1.0
 76
     0
 77
     2
 78
   300
148
0.0
149
0.0
100
AcDbLayout
  1
ﾚｲｱｳﾄ1
 70
     1
 71
     1
 10
0.0
 20
0.0
 11
420.0
 21
297.0
 12
0.0
 22
0.0
 32
0.0
 14
1.000000000000000E+20
 24
1.000000000000000E+20
 34
1.000000000000000E+20
 15
-1.000000000000000E+20
 25
-1.000000000000000E+20
 35
-1.000000000000000E+20
146
0.0
 13
0.0
 23
0.0
 33
0.0
 16
1.0
 26
0.0
 36
0.0
 17
0.0
 27
1.0
 37
0.0
 76
     0
330
15
  0
MATERIAL
  5
2885
102
{ACAD_XDICTIONARY
360
2886
102
}
102
{ACAD_REACTORS
330
287C
102
}
330
287C
100
AcDbMaterial
  1
ByBlock
 72
     0
 43
0.0208333333333333
 43
0.0
 43
0.0
 43
0.0
 43
0.0
 43
0.0208333333333333
 43
0.0
 43
0.0
 43
0.0
 43
0.0
 43
1.0
 43
0.0
 43
0.0
 43
0.0
 43
0.0
 43
1.0
 77
     0
 47
0.0208333333333333
 47
0.0
 47
0.0
 47
0.0
 47
0.0
 47
0.0208333333333333
 47
0.0
 47
0.0
 47
0.0
 47
0.0
 47
1.0
 47
0.0
 47
0.0
 47
0.0
 47
0.0
 47
1.0
171
     0
 49
0.0208333333333333
 49
0.0
 49
0.0
 49
0.0
 49
0.0
 49
0.0208333333333333
 49
0.0
 49
0.0
 49
0.0
 49
0.0
 49
1.0
 49
0.0
 49
0.0
 49
0.0
 49
0.0
 49
1.0
175
     0
142
0.0208333333333333
142
0.0
142
0.0
142
0.0
142
0.0
142
0.0208333333333333
142
0.0
142
0.0
142
0.0
142
0.0
142
1.0
142
0.0
142
0.0
142
0.0
142
0.0
142
1.0
179
     0
144
0.0208333333333333
144
0.0
144
0.0
144
0.0
144
0.0
144
0.0208333333333333
144
0.0
144
0.0
144
0.0
144
0.0
144
1.0
144
0.0
144
0.0
144
0.0
144
0.0
144
1.0
147
0.0208333333333333
147
0.0
147
0.0
147
0.0
147
0.0
147
0.0208333333333333
147
0.0
147
0.0
147
0.0
147
0.0
147
1.0
147
0.0
147
0.0
147
0.0
147
0.0
147
1.0
  0
MATERIAL
  5
287D
102
{ACAD_XDICTIONARY
360
287E
102
}
102
{ACAD_REACTORS
330
287C
102
}
330
287C
100
AcDbMaterial
  1
ByLayer
 72
     0
 43
0.0208333333333333
 43
0.0
 43
0.0
 43
0.0
 43
0.0
 43
0.0208333333333333
 43
0.0
 43
0.0
 43
0.0
 43
0.0
 43
1.0
 43
0.0
 43
0.0
 43
0.0
 43
0.0
 43
1.0
 77
     0
 47
0.0208333333333333
 47
0.0
 47
0.0
 47
0.0
 47
0.0
 47
0.0208333333333333
 47
0.0
 47
0.0
 47
0.0
 47
0.0
 47
1.0
 47
0.0
 47
0.0
 47
0.0
 47
0.0
 47
1.0
171
     0
 49
0.0208333333333333
 49
0.0
 49
0.0
 49
0.0
 49
0.0
 49
0.0208333333333333
 49
0.0
 49
0.0
 49
0.0
 49
0.0
 49
1.0
 49
0.0
 49
0.0
 49
0.0
 49
0.0
 49
1.0
175
     0
142
0.0208333333333333
142
0.0
142
0.0
142
0.0
142
0.0
142
0.0208333333333333
142
0.0
142
0.0
142
0.0
142
0.0
142
1.0
142
0.0
142
0.0
142
0.0
142
0.0
142
1.0
179
     0
144
0.0208333333333333
144
0.0
144
0.0
144
0.0
144
0.0
144
0.0208333333333333
144
0.0
144
0.0
144
0.0
144
0.0
144
1.0
144
0.0
144
0.0
144
0.0
144
0.0
144
1.0
147
0.0208333333333333
147
0.0
147
0.0
147
0.0
147
0.0
147
0.0208333333333333
147
0.0
147
0.0
147
0.0
147
0.0
147
1.0
147
0.0
147
0.0
147
0.0
147
0.0
147
1.0
  0
MATERIAL
  5
288D
102
{ACAD_XDICTIONARY
360
288E
102
}
102
{ACAD_REACTORS
330
287C
102
}
330
287C
100
AcDbMaterial
  1
Global
 72
     0
 43
0.0208333333333333
 43
0.0
 43
0.0
 43
0.0
 43
0.0
 43
0.0208333333333333
 43
0.0
 43
0.0
 43
0.0
 43
0.0
 43
1.0
 43
0.0
 43
0.0
 43
0.0
 43
0.0
 43
1.0
 77
     0
 47
0.0208333333333333
 47
0.0
 47
0.0
 47
0.0
 47
0.0
 47
0.0208333333333333
 47
0.0
 47
0.0
 47
0.0
 47
0.0
 47
1.0
 47
0.0
 47
0.0
 47
0.0
 47
0.0
 47
1.0
171
     0
 49
0.0208333333333333
 49
0.0
 49
0.0
 49
0.0
 49
0.0
 49
0.0208333333333333
 49
0.0
 49
0.0
 49
0.0
 49
0.0
 49
1.0
 49
0.0
 49
0.0
 49
0.0
 49
0.0
 49
1.0
175
     0
142
0.0208333333333333
142
0.0
142
0.0
142
0.0
142
0.0
142
0.0208333333333333
142
0.0
142
0.0
142
0.0
142
0.0
142
1.0
142
0.0
142
0.0
142
0.0
142
0.0
142
1.0
179
     0
144
0.0208333333333333
144
0.0
144
0.0
144
0.0
144
0.0
144
0.0208333333333333
144
0.0
144
0.0
144
0.0
144
0.0
144
1.0
144
0.0
144
0.0
144
0.0
144
0.0
144
1.0
147
0.0208333333333333
147
0.0
147
0.0
147
0.0
147
0.0
147
0.0208333333333333
147
0.0
147
0.0
147
0.0
147
0.0
147
1.0
147
0.0
147
0.0
147
0.0
147
0.0
147
1.0
  0
MLEADERSTYLE
  5
28C4
102
{ACAD_REACTORS
330
28C3
102
}
330
28C3
100
AcDbMLeaderStyle
179
     2
170
     2
171
     1
172
     0
 90
        0
 40
0.0
 41
0.0
173
     1
 91
-1073741824
340
12
 92
       -2
290
     1
 42
1.0
291
     1
 43
0.36
  3
Standard
341
36
 44
2.5
300

342
F
174
     5
178
     5
175
     1
176
     0
 93
-1023410174
 45
6.0
292
     0
297
     0
 46
4.0
 94
-1056964608
 47
1.0
 49
1.0
140
1.0
293
     1
141
0.0
294
     1
177
     0
142
1.0
295
     0
296
     0
143
3.75
271
     0
272
     9
273
     9
298
     1
  0
MLINESTYLE
  5
1C
102
{ACAD_REACTORS
330
1B
102
}
330
1B
100
AcDbMlineStyle
  2
STANDARD
 70
     0
  3

 62
   256
 51
90.0
 52
90.0
 71
     2
 49
0.5
 62
   256
  6
BYLAYER
 49
-0.5
 62
   256
  6
BYLAYER
  0
ACDBPLACEHOLDER
  5
75D
102
{ACAD_REACTORS
330
75C
102
}
330
75C
  0
SCALE
  5
28B2
102
{ACAD_REACTORS
330
28B1
102
}
330
28B1
100
AcDbScale
 70
     0
300
1:1
140
1.0
141
1.0
290
     1
  0
SCALE
  5
28B3
102
{ACAD_REACTORS
330
28B1
102
}
330
28B1
100
AcDbScale
 70
     0
300
1:2
140
1.0
141
2.0
290
     0
  0
SCALE
  5
28B4
102
{ACAD_REACTORS
330
28B1
102
}
330
28B1
100
AcDbScale
 70
     0
300
1:4
140
1.0
141
4.0
290
     0
  0
SCALE
  5
28B5
102
{ACAD_REACTORS
330
28B1
102
}
330
28B1
100
AcDbScale
 70
     0
300
1:5
140
1.0
141
5.0
290
     0
  0
SCALE
  5
28B6
102
{ACAD_REACTORS
330
28B1
102
}
330
28B1
100
AcDbScale
 70
     0
300
1:8
140
1.0
141
8.0
290
     0
  0
SCALE
  5
28B7
102
{ACAD_REACTORS
330
28B1
102
}
330
28B1
100
AcDbScale
 70
     0
300
1:10
140
1.0
141
10.0
290
     0
  0
SCALE
  5
28B8
102
{ACAD_REACTORS
330
28B1
102
}
330
28B1
100
AcDbScale
 70
     0
300
1:16
140
1.0
141
16.0
290
     0
  0
SCALE
  5
28B9
102
{ACAD_REACTORS
330
28B1
102
}
330
28B1
100
AcDbScale
 70
     0
300
1:20
140
1.0
141
20.0
290
     0
  0
SCALE
  5
28BA
102
{ACAD_REACTORS
330
28B1
102
}
330
28B1
100
AcDbScale
 70
     0
300
1:30
140
1.0
141
30.0
290
     0
  0
SCALE
  5
28BB
102
{ACAD_REACTORS
330
28B1
102
}
330
28B1
100
AcDbScale
 70
     0
300
1:40
140
1.0
141
40.0
290
     0
  0
SCALE
  5
28BC
102
{ACAD_REACTORS
330
28B1
102
}
330
28B1
100
AcDbScale
 70
     0
300
1:50
140
1.0
141
50.0
290
     0
  0
SCALE
  5
28BD
102
{ACAD_REACTORS
330
28B1
102
}
330
28B1
100
AcDbScale
 70
     0
300
1:100
140
1.0
141
100.0
290
     0
  0
SCALE
  5
28BE
102
{ACAD_REACTORS
330
28B1
102
}
330
28B1
100
AcDbScale
 70
     0
300
2:1
140
2.0
141
1.0
290
     0
  0
SCALE
  5
28BF
102
{ACAD_REACTORS
330
28B1
102
}
330
28B1
100
AcDbScale
 70
     0
300
4:1
140
4.0
141
1.0
290
     0
  0
SCALE
  5
28C0
102
{ACAD_REACTORS
330
28B1
102
}
330
28B1
100
AcDbScale
 70
     0
300
8:1
140
8.0
141
1.0
290
     0
  0
SCALE
  5
28C1
102
{ACAD_REACTORS
330
28B1
102
}
330
28B1
100
AcDbScale
 70
     0
300
10:1
140
10.0
141
1.0
290
     0
  0
SCALE
  5
28C2
102
{ACAD_REACTORS
330
28B1
102
}
330
28B1
100
AcDbScale
 70
     0
300
100:1
140
100.0
141
1.0
290
     0
  0
ACDBSECTIONVIEWSTYLE
  5
5946
102
{ACAD_XDICTIONARY
360
6C4B
102
}
102
{ACAD_REACTORS
330
28C5
102
}
330
28C5
100
AcDbModelDocViewStyle
 70
     0
  3
Imperial24
290
     0
100
AcDbSectionViewStyle
 70
     0
 71
     0
 90
       78
 71
     1
340
F
 62
   256
 40
0.24
340
0
340
0
 62
   256
 40
0.24
300
I, O, Q, S, X, Z
 40
0.48
 90
        3
 40
0.18
 90
        1
 71
     2
340
14
 90
       25
 62
   256
340
14
 90
       50
 62
   256
 40
0.24
 40
0.0
 40
0.24
 71
     3
340
F
 62
   256
 40
0.24
 90
        1
 40
0.75
 90
        1
300
%<\AcVar ViewType \f "%tc1">% %<\AcVar ViewSectionStartId>%-%<\AcVar ViewSectionEndId>%\PSCALE %<\AcVar ViewScale \f "%sn">%
 71
     4
 62
   256
 62
   257
300
ANSI31
 40
1.0
 90
        0
290
     0
290
     0
 90
        6
 40
0.0
 40
1.570796326794896
 40
0.2617993877991494
 40
1.308996938995747
 40
-0.2617993877991494
 40
1.832595714594045
  0
ACDBSECTIONVIEWSTYLE
  5
28C6
102
{ACAD_XDICTIONARY
360
6C41
102
}
102
{ACAD_REACTORS
330
28C5
102
}
330
28C5
100
AcDbModelDocViewStyle
 70
     0
  3
Metric50
290
     0
100
AcDbSectionViewStyle
 70
     0
 71
     0
 90
      102
 71
     1
340
F
 62
   256
 40
5.0
340
0
340
0
 62
   256
 40
5.0
300
I, O, Q, S, X, Z
 40
10.0
 90
        0
 40
2.5
 90
        0
 71
     2
340
14
 90
       25
 62
   256
340
14
 90
       50
 62
   256
 40
5.0
 40
2.5
 40
5.0
 71
     3
340
F
 62
   256
 40
5.0
 90
        0
 40
15.0
 90
        1
300
%<\AcVar ViewSectionStartId>%-%<\AcVar ViewSectionEndId>% (%<\AcVar ViewScale \f "%sn">%)
 71
     4
 62
   256
 62
   257
300
ANSI31
 40
1.0
 90
        0
290
     0
290
     0
 90
        6
 40
0.0
 40
1.570796326794896
 40
0.2617993877991494
 40
1.308996938995747
 40
-0.2617993877991494
 40
1.832595714594045
  0
TABLESTYLE
  5
28B0
102
{ACAD_XDICTIONARY
360
2AB3
102
}
102
{ACAD_REACTORS
330
28AF
102
}
330
28AF
100
AcDbTableStyle
280
     0
  3
Standard
 70
     0
 71
     0
 40
1.5
 41
1.5
280
     0
281
     0
  7
STANDARD
140
4.5
170
     2
 62
     0
 63
     7
283
     0
 90
      512
 91
        0
  1

274
    -2
284
     1
 64
     0
275
    -2
285
     1
 65
     0
276
    -2
286
     1
 66
     0
277
    -2
287
     1
 67
     0
278
    -2
288
     1
 68
     0
279
    -2
289
     1
 69
     0
  7
STANDARD
140
6.0
170
     5
 62
     0
 63
     7
283
     0
 90
      512
 91
        0
  1

274
    -2
284
     1
 64
     0
275
    -2
285
     1
 65
     0
276
    -2
286
     1
 66
     0
277
    -2
287
     1
 67
     0
278
    -2
288
     1
 68
     0
279
    -2
289
     1
 69
     0
  7
STANDARD
140
4.5
170
     5
 62
     0
 63
     7
283
     0
 90
      512
 91
        0
  1

274
    -2
284
     1
 64
     0
275
    -2
285
     1
 65
     0
276
    -2
286
     1
 66
     0
277
    -2
287
     1
 67
     0
278
    -2
288
     1
 68
     0
279
    -2
289
     1
 69
     0
  0
TABLESTYLE
  5
4D28
102
{ACAD_XDICTIONARY
360
4D29
102
}
102
{ACAD_REACTORS
330
28AF
102
}
330
28AF
100
AcDbTableStyle
280
     0
  3
Standard
 70
     0
 71
     0
 40
0.5
 41
0.5
280
     0
281
     0
  7
STANDARD
140
4.5
170
     5
 62
     7
 63
     7
283
     0
 90
        4
 91
        0
  1

274
    -2
284
     1
 64
     0
275
    -2
285
     1
 65
     0
276
    -2
286
     1
 66
     0
277
    -2
287
     1
 67
     0
278
    -2
288
     1
 68
     0
279
    -2
289
     1
 69
     0
  7
STANDARD
140
6.0
170
     5
 62
     0
 63
     7
283
     0
 90
      512
 91
        0
  1

274
    -2
284
     1
 64
     0
275
    -2
285
     1
 65
     0
276
    -2
286
     1
 66
     0
277
    -2
287
     1
 67
     0
278
    -2
288
     1
 68
     0
279
    -2
289
     1
 69
     0
  7
STANDARD
140
4.5
170
     5
 62
     0
 63
     7
283
     0
 90
      512
 91
        0
  1

274
    -2
284
     1
 64
     0
275
    -2
285
     1
 65
     0
276
    -2
286
     1
 66
     0
277
    -2
287
     1
 67
     0
278
    -2
288
     1
 68
     0
279
    -2
289
     1
 69
     0
  0
VISUALSTYLE
  5
289B
102
{ACAD_REACTORS
330
2895
102
}
330
2895
100
AcDbVisualStyle
  2
2dWireframe
 70
     4
177
     3
291
     0
 70
    58
 90
        0
176
     1
 90
        2
176
     1
 90
        0
176
     1
 90
        0
176
     1
 40
0.6
176
     1
 40
30.0
176
     1
 62
     7
176
     1
 90
        1
176
     1
 90
        4
176
     1
 62
     7
176
     1
 62
   257
176
     1
 90
        1
176
     1
 90
        1
176
     1
 40
1.0
176
     1
 90
        0
176
     1
 62
   257
176
     1
 40
1.0
176
     1
 90
        1
176
     1
 90
        6
176
     1
 90
        2
176
     1
 62
     7
176
     1
 90
        5
176
     1
 90
        0
176
     1
 90
        0
176
     1
290
     0
176
     1
 90
        1
176
     1
 40
0.0
176
     1
 90
        0
176
     1
290
     1
176
     1
290
     1
176
     1
290
     0
176
     1
290
     0
176
     1
290
     0
176
     1
290
     0
176
     1
290
     0
176
     1
290
     0
176
     1
290
     0
176
     1
 90
       50
176
     1
 40
0.0
176
     1
 40
1.0
176
     1
 90
        0
176
     1
 62
    18
176
     1
 90
       50
176
     1
 90
        3
176
     1
 62
     5
420
      255
176
     1
290
     0
176
     1
 90
       50
176
     1
 90
       50
176
     1
 90
       50
176
     1
290
     0
176
     1
 90
       50
176
     1
 62
   256
176
     0
 40
1.0
176
     0
 90
        2
176
     1
  1
strokes_ogs.tif
176
     1
290
     0
176
     1
 40
1.0
176
     1
 40
1.0
176
     1
  0
VISUALSTYLE
  5
289A
102
{ACAD_REACTORS
330
2895
102
}
330
2895
100
AcDbVisualStyle
  2
Basic
 70
     7
177
     3
291
     1
 70
    58
 90
        1
176
     1
 90
        0
176
     1
 90
        1
176
     1
 90
        0
176
     1
 40
0.6
176
     1
 40
30.0
176
     1
 62
     7
176
     1
 90
        0
176
     1
 90
        4
176
     1
 62
     7
176
     1
 62
   257
176
     1
 90
        1
176
     1
 90
        1
176
     1
 40
1.0
176
     1
 90
        8
176
     1
 62
     7
176
     1
 40
1.0
176
     1
 90
        1
176
     1
 90
        6
176
     1
 90
        2
176
     1
 62
     7
176
     1
 90
        5
176
     1
 90
        0
176
     1
 90
        0
176
     1
290
     0
176
     1
 90
        1
176
     1
 40
0.0
176
     1
 90
        0
176
     1
290
     0
176
     1
290
     1
176
     1
290
     1
176
     1
290
     0
176
     1
290
     0
176
     1
290
     0
176
     1
290
     0
176
     1
290
     0
176
     1
290
     0
176
     1
 90
       50
176
     1
 40
0.0
176
     1
 40
1.0
176
     1
 90
        0
176
     1
 62
    18
176
     1
 90
       50
176
     1
 90
        3
176
     1
 62
     5
420
      255
176
     1
290
     0
176
     1
 90
       50
176
     1
 90
       50
176
     1
 90
       50
176
     1
290
     0
176
     1
 90
       50
176
     1
 62
   256
176
     0
 40
1.0
176
     0
 90
        2
176
     1
  1
strokes_ogs.tif
176
     1
290
     0
176
     1
 40
1.0
176
     1
 40
1.0
176
     1
  0
VISUALSTYLE
  5
28A1
102
{ACAD_REACTORS
330
2895
102
}
330
2895
100
AcDbVisualStyle
  2
Brighten
 70
    12
177
     3
291
     1
 70
    58
 90
        2
176
     1
 90
        2
176
     1
 90
        0
176
     1
 90
        0
176
     1
 40
0.6
176
     1
 40
30.0
176
     1
 62
     7
176
     1
 90
        1
176
     1
 90
        4
176
     1
 62
     7
176
     1
 62
   257
176
     1
 90
        1
176
     1
 90
        1
176
     1
 40
1.0
176
     1
 90
        8
176
     1
 62
     7
176
     1
 40
1.0
176
     1
 90
        1
176
     1
 90
        6
176
     1
 90
        2
176
     1
 62
     7
176
     1
 90
        5
176
     1
 90
        0
176
     1
 90
        0
176
     1
290
     0
176
     1
 90
        1
176
     1
 40
50.0
176
     1
 90
        0
176
     1
290
     0
176
     1
290
     1
176
     1
290
     1
176
     1
290
     0
176
     1
290
     0
176
     1
290
     0
176
     1
290
     0
176
     1
290
     0
176
     1
290
     0
176
     1
 90
       50
176
     1
 40
0.0
176
     1
 40
1.0
176
     1
 90
        0
176
     1
 62
    18
176
     1
 90
       50
176
     1
 90
        3
176
     1
 62
     5
420
      255
176
     1
290
     0
176
     1
 90
       50
176
     1
 90
       50
176
     1
 90
       50
176
     1
290
     0
176
     1
 90
       50
176
     1
 62
   256
176
     0
 40
1.0
176
     0
 90
        2
176
     1
  1
strokes_ogs.tif
176
     1
290
     0
176
     1
 40
1.0
176
     1
 40
1.0
176
     1
  0
VISUALSTYLE
  5
28A5
102
{ACAD_REACTORS
330
2895
102
}
330
2895
100
AcDbVisualStyle
  2
ColorChange
 70
    16
177
     3
291
     1
 70
    58
 90
        2
176
     1
 90
        2
176
     1
 90
        3
176
     1
 90
        0
176
     1
 40
0.6
176
     1
 40
30.0
176
     1
 62
     8
176
     1
 90
        1
176
     1
 90
        4
176
     1
 62
     7
176
     1
 62
   257
176
     1
 90
        1
176
     1
 90
        1
176
     1
 40
1.0
176
     1
 90
        8
176
     1
 62
     8
176
     1
 40
1.0
176
     1
 90
        1
176
     1
 90
        6
176
     1
 90
        2
176
     1
 62
     7
176
     1
 90
        5
176
     1
 90
        0
176
     1
 90
        0
176
     1
290
     0
176
     1
 90
        1
176
     1
 40
0.0
176
     1
 90
        0
176
     1
290
     0
176
     1
290
     1
176
     1
290
     1
176
     1
290
     0
176
     1
290
     0
176
     1
290
     0
176
     1
290
     0
176
     1
290
     0
176
     1
290
     0
176
     1
 90
       50
176
     1
 40
0.0
176
     1
 40
1.0
176
     1
 90
        0
176
     1
 62
    18
176
     1
 90
       50
176
     1
 90
        3
176
     1
 62
     5
420
      255
176
     1
290
     0
176
     1
 90
       50
176
     1
 90
       50
176
     1
 90
       50
176
     1
290
     0
176
     1
 90
       50
176
     1
 62
   256
176
     0
 40
1.0
176
     0
 90
        2
176
     1
  1
strokes_ogs.tif
176
     1
290
     0
176
     1
 40
1.0
176
     1
 40
1.0
176
     1
  0
VISUALSTYLE
  5
289E
102
{ACAD_REACTORS
330
2895
102
}
330
2895
100
AcDbVisualStyle
  2
Conceptual
 70
     9
177
     3
291
     0
 70
    58
 90
        3
176
     1
 90
        2
176
     1
 90
        0
176
     1
 90
        0
176
     1
 40
0.6
176
     1
 40
30.0
176
     1
 62
     7
176
     1
 90
        2
176
     1
 90
        2
176
     1
 62
     7
176
     1
 62
   257
176
     1
 90
        1
176
     1
 90
        1
176
     1
 40
179.0
176
     1
 90
        8
176
     1
 62
     7
176
     1
 40
1.0
176
     1
 90
        1
176
     1
 90
        6
176
     1
 90
        2
176
     1
 62
     7
176
     1
 90
        3
176
     1
 90
        0
176
     1
 90
        0
176
     1
290
     0
176
     1
 90
        1
176
     1
 40
0.0
176
     1
 90
        0
176
     1
290
     0
176
     1
290
     1
176
     1
290
     1
176
     1
290
     0
176
     1
290
     0
176
     1
290
     0
176
     1
290
     0
176
     1
290
     0
176
     1
290
     0
176
     1
 90
       50
176
     1
 40
0.0
176
     1
 40
1.0
176
     1
 90
        0
176
     1
 62
    18
176
     1
 90
       50
176
     1
 90
        3
176
     1
 62
     5
420
      255
176
     1
290
     0
176
     1
 90
       50
176
     1
 90
       50
176
     1
 90
       50
176
     1
290
     0
176
     1
 90
       50
176
     1
 62
   256
176
     0
 40
1.0
176
     0
 90
        2
176
     1
  1
strokes_ogs.tif
176
     1
290
     0
176
     1
 40
1.0
176
     1
 40
1.0
176
     1
  0
VISUALSTYLE
  5
28A0
102
{ACAD_REACTORS
330
2895
102
}
330
2895
100
AcDbVisualStyle
  2
Dim
 70
    11
177
     3
291
     1
 70
    58
 90
        2
176
     1
 90
        2
176
     1
 90
        0
176
     1
 90
        0
176
     1
 40
0.6
176
     1
 40
30.0
176
     1
 62
     7
176
     1
 90
        1
176
     1
 90
        4
176
     1
 62
     7
176
     1
 62
   257
176
     1
 90
        1
176
     1
 90
        1
176
     1
 40
1.0
176
     1
 90
        8
176
     1
 62
     7
176
     1
 40
1.0
176
     1
 90
        1
176
     1
 90
        6
176
     1
 90
        2
176
     1
 62
     7
176
     1
 90
        5
176
     1
 90
        0
176
     1
 90
        0
176
     1
290
     0
176
     1
 90
        1
176
     1
 40
-50.0
176
     1
 90
        0
176
     1
290
     0
176
     1
290
     1
176
     1
290
     1
176
     1
290
     0
176
     1
290
     0
176
     1
290
     0
176
     1
290
     0
176
     1
290
     0
176
     1
290
     0
176
     1
 90
       50
176
     1
 40
0.0
176
     1
 40
1.0
176
     1
 90
        0
176
     1
 62
    18
176
     1
 90
       50
176
     1
 90
        3
176
     1
 62
     5
420
      255
176
     1
290
     0
176
     1
 90
       50
176
     1
 90
       50
176
     1
 90
       50
176
     1
290
     0
176
     1
 90
       50
176
     1
 62
   256
176
     0
 40
1.0
176
     0
 90
        2
176
     1
  1
strokes_ogs.tif
176
     1
290
     0
176
     1
 40
1.0
176
     1
 40
1.0
176
     1
  0
VISUALSTYLE
  5
28AD
102
{ACAD_REACTORS
330
2895
102
}
330
2895
100
AcDbVisualStyle
  2
EdgeColorOff
 70
    22
177
     3
291
     1
 70
    58
 90
        2
176
     0
 90
        2
176
     0
 90
        0
176
     0
 90
        0
176
     0
 40
0.6
176
     0
 40
30.0
176
     0
 62
     7
176
     0
 90
        1
176
     0
 90
        4
176
     0
 62
     7
176
     0
 62
   257
176
     0
 90
        1
176
     0
 90
        1
176
     0
 40
1.0
176
     0
 90
        8
176
     2
 62
     7
176
     0
 40
1.0
176
     0
 90
        1
176
     0
 90
        6
176
     0
 90
        2
176
     0
 62
     7
176
     0
 90
        5
176
     0
 90
        0
176
     0
 90
        0
176
     0
290
     0
176
     0
 90
        1
176
     0
 40
0.0
176
     0
 90
        0
176
     0
290
     0
176
     0
290
     1
176
     0
290
     1
176
     0
290
     0
176
     0
290
     0
176
     0
290
     0
176
     0
290
     0
176
     0
290
     0
176
     0
290
     0
176
     0
 90
       50
176
     0
 40
0.0
176
     0
 40
1.0
176
     0
 90
        0
176
     0
 62
    18
176
     0
 90
       50
176
     0
 90
        3
176
     0
 62
     5
420
      255
176
     0
290
     0
176
     0
 90
       50
176
     0
 90
       50
176
     0
 90
       50
176
     0
290
     0
176
     0
 90
       50
176
     0
 62
   256
176
     0
 40
1.0
176
     0
 90
        2
176
     0
  1
strokes_ogs.tif
176
     0
290
     0
176
     0
 40
1.0
176
     0
 40
1.0
176
     0
  0
VISUALSTYLE
  5
28A4
102
{ACAD_REACTORS
330
2895
102
}
330
2895
100
AcDbVisualStyle
  2
Facepattern
 70
    15
177
     3
291
     1
 70
    58
 90
        2
176
     1
 90
        2
176
     1
 90
        0
176
     1
 90
        0
176
     1
 40
0.6
176
     1
 40
30.0
176
     1
 62
     7
176
     1
 90
        1
176
     1
 90
        4
176
     1
 62
     7
176
     1
 62
   257
176
     1
 90
        1
176
     1
 90
        1
176
     1
 40
1.0
176
     1
 90
        8
176
     1
 62
     7
176
     1
 40
1.0
176
     1
 90
        1
176
     1
 90
        6
176
     1
 90
        2
176
     1
 62
     7
176
     1
 90
        5
176
     1
 90
        0
176
     1
 90
        0
176
     1
290
     0
176
     1
 90
        1
176
     1
 40
0.0
176
     1
 90
        0
176
     1
290
     0
176
     1
290
     1
176
     1
290
     1
176
     1
290
     0
176
     1
290
     0
176
     1
290
     0
176
     1
290
     0
176
     1
290
     0
176
     1
290
     0
176
     1
 90
       50
176
     1
 40
0.0
176
     1
 40
1.0
176
     1
 90
        0
176
     1
 62
    18
176
     1
 90
       50
176
     1
 90
        3
176
     1
 62
     5
420
      255
176
     1
290
     0
176
     1
 90
       50
176
     1
 90
       50
176
     1
 90
       50
176
     1
290
     0
176
     1
 90
       50
176
     1
 62
   256
176
     0
 40
1.0
176
     0
 90
        2
176
     1
  1
strokes_ogs.tif
176
     1
290
     0
176
     1
 40
1.0
176
     1
 40
1.0
176
     1
  0
VISUALSTYLE
  5
2896
102
{ACAD_REACTORS
330
2895
102
}
330
2895
100
AcDbVisualStyle
  2
Flat
 70
     0
177
     3
291
     1
 70
    58
 90
        2
176
     1
 90
        1
176
     1
 90
        1
176
     1
 90
        2
176
     1
 40
0.6
176
     1
 40
30.0
176
     1
 62
     7
176
     1
 90
        0
176
     1
 90
        0
176
     1
 62
     7
176
     1
 62
   257
176
     1
 90
        1
176
     1
 90
        1
176
     1
 40
1.0
176
     1
 90
        8
176
     1
 62
     7
176
     1
 40
1.0
176
     1
 90
        1
176
     1
 90
        6
176
     1
 90
        2
176
     1
 62
     7
176
     1
 90
        5
176
     1
 90
        0
176
     1
 90
        0
176
     1
290
     0
176
     1
 90
       13
176
     1
 40
0.0
176
     1
 90
        0
176
     1
290
     0
176
     1
290
     1
176
     1
290
     1
176
     1
290
     0
176
     1
290
     0
176
     1
290
     0
176
     1
290
     0
176
     1
290
     0
176
     1
290
     0
176
     1
 90
       50
176
     1
 40
0.0
176
     1
 40
1.0
176
     1
 90
        0
176
     1
 62
    18
176
     1
 90
       50
176
     1
 90
        3
176
     1
 62
     5
420
      255
176
     1
290
     0
176
     1
 90
       50
176
     1
 90
       50
176
     1
 90
       50
176
     1
290
     0
176
     1
 90
       50
176
     1
 62
   256
176
     0
 40
1.0
176
     0
 90
        2
176
     1
  1
strokes_ogs.tif
176
     1
290
     0
176
     1
 40
1.0
176
     1
 40
1.0
176
     1
  0
VISUALSTYLE
  5
2897
102
{ACAD_REACTORS
330
2895
102
}
330
2895
100
AcDbVisualStyle
  2
FlatWithEdges
 70
     1
177
     3
291
     1
 70
    58
 90
        2
176
     1
 90
        1
176
     1
 90
        1
176
     1
 90
        2
176
     1
 40
0.6
176
     1
 40
30.0
176
     1
 62
     7
176
     1
 90
        1
176
     1
 90
        0
176
     1
 62
     7
176
     1
 62
   257
176
     1
 90
        1
176
     1
 90
        1
176
     1
 40
1.0
176
     1
 90
        0
176
     1
 62
   257
176
     1
 40
1.0
176
     1
 90
        1
176
     1
 90
        6
176
     1
 90
        2
176
     1
 62
     7
176
     1
 90
        5
176
     1
 90
        0
176
     1
 90
        0
176
     1
290
     0
176
     1
 90
       13
176
     1
 40
0.0
176
     1
 90
        0
176
     1
290
     0
176
     1
290
     1
176
     1
290
     1
176
     1
290
     0
176
     1
290
     0
176
     1
290
     0
176
     1
290
     0
176
     1
290
     0
176
     1
290
     0
176
     1
 90
       50
176
     1
 40
0.0
176
     1
 40
1.0
176
     1
 90
        0
176
     1
 62
    18
176
     1
 90
       50
176
     1
 90
        3
176
     1
 62
     5
420
      255
176
     1
290
     0
176
     1
 90
       50
176
     1
 90
       50
176
     1
 90
       50
176
     1
290
     0
176
     1
 90
       50
176
     1
 62
   256
176
     0
 40
1.0
176
     0
 90
        2
176
     1
  1
strokes_ogs.tif
176
     1
290
     0
176
     1
 40
1.0
176
     1
 40
1.0
176
     1
  0
VISUALSTYLE
  5
2898
102
{ACAD_REACTORS
330
2895
102
}
330
2895
100
AcDbVisualStyle
  2
Gouraud
 70
     2
177
     3
291
     1
 70
    58
 90
        2
176
     1
 90
        2
176
     1
 90
        1
176
     1
 90
        2
176
     1
 40
0.6
176
     1
 40
30.0
176
     1
 62
     7
176
     1
 90
        0
176
     1
 90
        0
176
     1
 62
     7
176
     1
 62
   257
176
     1
 90
        1
176
     1
 90
        1
176
     1
 40
1.0
176
     1
 90
        0
176
     1
 62
     7
176
     1
 40
1.0
176
     1
 90
        1
176
     1
 90
        6
176
     1
 90
        2
176
     1
 62
     7
176
     1
 90
        5
176
     1
 90
        0
176
     1
 90
        0
176
     1
290
     0
176
     1
 90
       13
176
     1
 40
0.0
176
     1
 90
        0
176
     1
290
     0
176
     1
290
     1
176
     1
290
     1
176
     1
290
     0
176
     1
290
     0
176
     1
290
     0
176
     1
290
     0
176
     1
290
     0
176
     1
290
     0
176
     1
 90
       50
176
     1
 40
0.0
176
     1
 40
1.0
176
     1
 90
        0
176
     1
 62
    18
176
     1
 90
       50
176
     1
 90
        3
176
     1
 62
     5
420
      255
176
     1
290
     0
176
     1
 90
       50
176
     1
 90
       50
176
     1
 90
       50
176
     1
290
     0
176
     1
 90
       50
176
     1
 62
   256
176
     0
 40
1.0
176
     0
 90
        2
176
     1
  1
strokes_ogs.tif
176
     1
290
     0
176
     1
 40
1.0
176
     1
 40
1.0
176
     1
  0
VISUALSTYLE
  5
2899
102
{ACAD_REACTORS
330
2895
102
}
330
2895
100
AcDbVisualStyle
  2
GouraudWithEdges
 70
     3
177
     3
291
     1
 70
    58
 90
        2
176
     1
 90
        2
176
     1
 90
        1
176
     1
 90
        2
176
     1
 40
0.6
176
     1
 40
30.0
176
     1
 62
     7
176
     1
 90
        1
176
     1
 90
        0
176
     1
 62
     7
176
     1
 62
   257
176
     1
 90
        1
176
     1
 90
        1
176
     1
 40
1.0
176
     1
 90
        0
176
     1
 62
   257
176
     1
 40
1.0
176
     1
 90
        1
176
     1
 90
        6
176
     1
 90
        2
176
     1
 62
     7
176
     1
 90
        5
176
     1
 90
        0
176
     1
 90
        0
176
     1
290
     0
176
     1
 90
       13
176
     1
 40
0.0
176
     1
 90
        0
176
     1
290
     0
176
     1
290
     1
176
     1
290
     1
176
     1
290
     0
176
     1
290
     0
176
     1
290
     0
176
     1
290
     0
176
     1
290
     0
176
     1
290
     0
176
     1
 90
       50
176
     1
 40
0.0
176
     1
 40
1.0
176
     1
 90
        0
176
     1
 62
    18
176
     1
 90
       50
176
     1
 90
        3
176
     1
 62
     5
420
      255
176
     1
290
     0
176
     1
 90
       50
176
     1
 90
       50
176
     1
 90
       50
176
     1
290
     0
176
     1
 90
       50
176
     1
 62
   256
176
     0
 40
1.0
176
     0
 90
        2
176
     1
  1
strokes_ogs.tif
176
     1
290
     0
176
     1
 40
1.0
176
     1
 40
1.0
176
     1
  0
VISUALSTYLE
  5
289D
102
{ACAD_REACTORS
330
2895
102
}
330
2895
100
AcDbVisualStyle
  2
Hidden
 70
     6
177
     3
291
     0
 70
    58
 90
        1
176
     1
 90
        2
176
     1
 90
        2
176
     1
 90
        0
176
     1
 40
0.6
176
     1
 40
30.0
176
     1
 62
     7
176
     1
 90
        2
176
     1
 90
        2
176
     1
 62
     7
176
     1
 62
   257
176
     1
 90
        2
176
     1
 90
        1
176
     1
 40
40.0
176
     1
 90
        0
176
     1
 62
   257
176
     1
 40
1.0
176
     1
 90
        1
176
     1
 90
        6
176
     1
 90
        2
176
     1
 62
     7
176
     1
 90
        3
176
     1
 90
        0
176
     1
 90
        0
176
     1
290
     0
176
     1
 90
        1
176
     1
 40
0.0
176
     1
 90
        0
176
     1
290
     0
176
     1
290
     1
176
     1
290
     1
176
     1
290
     0
176
     1
290
     0
176
     1
290
     0
176
     1
290
     0
176
     1
290
     0
176
     1
290
     0
176
     1
 90
       50
176
     1
 40
0.0
176
     1
 40
1.0
176
     1
 90
        0
176
     1
 62
    18
176
     1
 90
       50
176
     1
 90
        3
176
     1
 62
     5
420
      255
176
     1
290
     0
176
     1
 90
       50
176
     1
 90
       50
176
     1
 90
       50
176
     1
290
     0
176
     1
 90
       50
176
     1
 62
   256
176
     0
 40
1.0
176
     0
 90
        2
176
     1
  1
strokes_ogs.tif
176
     1
290
     0
176
     1
 40
1.0
176
     1
 40
1.0
176
     1
  0
VISUALSTYLE
  5
28AB
102
{ACAD_REACTORS
330
2895
102
}
330
2895
100
AcDbVisualStyle
  2
JitterOff
 70
    20
177
     3
291
     1
 70
    58
 90
        2
176
     0
 90
        2
176
     0
 90
        0
176
     0
 90
        0
176
     0
 40
0.6
176
     0
 40
30.0
176
     0
 62
     7
176
     0
 90
        1
176
     0
 90
        4
176
     0
 62
     7
176
     0
 62
   257
176
     0
 90
        1
176
     0
 90
        1
176
     0
 40
1.0
176
     0
 90
       10
176
     2
 62
     7
176
     0
 40
1.0
176
     0
 90
        1
176
     0
 90
        6
176
     0
 90
        2
176
     0
 62
     7
176
     0
 90
        5
176
     0
 90
        0
176
     0
 90
        0
176
     0
290
     0
176
     0
 90
        1
176
     0
 40
0.0
176
     0
 90
        0
176
     0
290
     0
176
     0
290
     1
176
     0
290
     1
176
     0
290
     0
176
     0
290
     0
176
     0
290
     0
176
     0
290
     0
176
     0
290
     0
176
     0
290
     0
176
     0
 90
       50
176
     0
 40
0.0
176
     0
 40
1.0
176
     0
 90
        0
176
     0
 62
    18
176
     0
 90
       50
176
     0
 90
        3
176
     0
 62
     5
420
      255
176
     0
290
     0
176
     0
 90
       50
176
     0
 90
       50
176
     0
 90
       50
176
     0
290
     0
176
     0
 90
       50
176
     0
 62
   256
176
     0
 40
1.0
176
     0
 90
        2
176
     0
  1
strokes_ogs.tif
176
     0
290
     0
176
     0
 40
1.0
176
     0
 40
1.0
176
     0
  0
VISUALSTYLE
  5
28A3
102
{ACAD_REACTORS
330
2895
102
}
330
2895
100
AcDbVisualStyle
  2
Linepattern
 70
    14
177
     3
291
     1
 70
    58
 90
        2
176
     1
 90
        2
176
     1
 90
        0
176
     1
 90
        0
176
     1
 40
0.6
176
     1
 40
30.0
176
     1
 62
     7
176
     1
 90
        1
176
     1
 90
        4
176
     1
 62
     7
176
     1
 62
   257
176
     1
 90
        7
176
     1
 90
        7
176
     1
 40
1.0
176
     1
 90
        8
176
     1
 62
     7
176
     1
 40
1.0
176
     1
 90
        1
176
     1
 90
        6
176
     1
 90
        2
176
     1
 62
     7
176
     1
 90
        5
176
     1
 90
        0
176
     1
 90
        0
176
     1
290
     0
176
     1
 90
        1
176
     1
 40
0.0
176
     1
 90
        0
176
     1
290
     0
176
     1
290
     1
176
     1
290
     1
176
     1
290
     0
176
     1
290
     0
176
     1
290
     0
176
     1
290
     0
176
     1
290
     0
176
     1
290
     0
176
     1
 90
       50
176
     1
 40
0.0
176
     1
 40
1.0
176
     1
 90
        0
176
     1
 62
    18
176
     1
 90
       50
176
     1
 90
        3
176
     1
 62
     5
420
      255
176
     1
290
     0
176
     1
 90
       50
176
     1
 90
       50
176
     1
 90
       50
176
     1
290
     0
176
     1
 90
       50
176
     1
 62
   256
176
     0
 40
1.0
176
     0
 90
        2
176
     1
  1
strokes_ogs.tif
176
     1
290
     0
176
     1
 40
1.0
176
     1
 40
1.0
176
     1
  0
VISUALSTYLE
  5
28AC
102
{ACAD_REACTORS
330
2895
102
}
330
2895
100
AcDbVisualStyle
  2
OverhangOff
 70
    21
177
     3
291
     1
 70
    58
 90
        2
176
     0
 90
        2
176
     0
 90
        0
176
     0
 90
        0
176
     0
 40
0.6
176
     0
 40
30.0
176
     0
 62
     7
176
     0
 90
        1
176
     0
 90
        4
176
     0
 62
     7
176
     0
 62
   257
176
     0
 90
        1
176
     0
 90
        1
176
     0
 40
1.0
176
     0
 90
        9
176
     2
 62
     7
176
     0
 40
1.0
176
     0
 90
        1
176
     0
 90
        6
176
     0
 90
        2
176
     0
 62
     7
176
     0
 90
        5
176
     0
 90
        0
176
     0
 90
        0
176
     0
290
     0
176
     0
 90
        1
176
     0
 40
0.0
176
     0
 90
        0
176
     0
290
     0
176
     0
290
     1
176
     0
290
     1
176
     0
290
     0
176
     0
290
     0
176
     0
290
     0
176
     0
290
     0
176
     0
290
     0
176
     0
290
     0
176
     0
 90
       50
176
     0
 40
0.0
176
     0
 40
1.0
176
     0
 90
        0
176
     0
 62
    18
176
     0
 90
       50
176
     0
 90
        3
176
     0
 62
     5
420
      255
176
     0
290
     0
176
     0
 90
       50
176
     0
 90
       50
176
     0
 90
       50
176
     0
290
     0
176
     0
 90
       50
176
     0
 62
   256
176
     0
 40
1.0
176
     0
 90
        2
176
     0
  1
strokes_ogs.tif
176
     0
290
     0
176
     0
 40
1.0
176
     0
 40
1.0
176
     0
  0
VISUALSTYLE
  5
289F
102
{ACAD_REACTORS
330
2895
102
}
330
2895
100
AcDbVisualStyle
  2
Realistic
 70
     8
177
     3
291
     0
 70
    58
 90
        2
176
     1
 90
        2
176
     1
 90
        0
176
     1
 90
        2
176
     1
 40
0.6
176
     1
 40
30.0
176
     1
 62
     7
176
     1
 90
        0
176
     1
 90
        0
176
     1
 62
     7
176
     1
 62
   257
176
     1
 90
        1
176
     1
 90
        1
176
     1
 40
1.0
176
     1
 90
        8
176
     1
 62
   257
176
     1
 40
1.0
176
     1
 90
        1
176
     1
 90
        6
176
     1
 90
        2
176
     1
 62
     7
176
     1
 90
        3
176
     1
 90
        0
176
     1
 90
        0
176
     1
290
     0
176
     1
 90
       13
176
     1
 40
0.0
176
     1
 90
        0
176
     1
290
     0
176
     1
290
     1
176
     1
290
     1
176
     1
290
     0
176
     1
290
     0
176
     1
290
     0
176
     1
290
     0
176
     1
290
     0
176
     1
290
     0
176
     1
 90
       50
176
     1
 40
0.0
176
     1
 40
1.0
176
     1
 90
        0
176
     1
 62
    18
176
     1
 90
       50
176
     1
 90
        3
176
     1
 62
     5
420
      255
176
     1
290
     0
176
     1
 90
       50
176
     1
 90
       50
176
     1
 90
       50
176
     1
290
     0
176
     1
 90
       50
176
     1
 62
   256
176
     0
 40
1.0
176
     0
 90
        2
176
     1
  1
strokes_ogs.tif
176
     1
290
     0
176
     1
 40
1.0
176
     1
 40
1.0
176
     1
  0
VISUALSTYLE
  5
28AA
102
{ACAD_REACTORS
330
2895
102
}
330
2895
100
AcDbVisualStyle
  2
Shaded
 70
    27
177
     3
291
     0
 70
    58
 90
        2
176
     1
 90
        2
176
     1
 90
        1
176
     1
 90
        2
176
     1
 40
0.6
176
     1
 40
30.0
176
     1
 62
     7
176
     1
 90
        0
176
     1
 90
        4
176
     1
 62
     7
176
     1
 62
   257
176
     1
 90
        1
176
     1
 90
        1
176
     1
 40
1.0
176
     1
 90
        8
176
     1
 62
   257
176
     1
 40
1.0
176
     1
 90
        1
176
     1
 90
        6
176
     1
 90
        2
176
     1
 62
     8
176
     1
 90
        3
176
     1
 90
        0
176
     1
 90
        0
176
     1
290
     0
176
     1
 90
        5
176
     1
 40
0.0
176
     1
 90
        0
176
     1
290
     0
176
     1
290
     1
176
     1
290
     1
176
     1
290
     0
176
     1
290
     0
176
     1
290
     0
176
     1
290
     0
176
     1
290
     0
176
     1
290
     0
176
     1
 90
       50
176
     1
 40
0.0
176
     1
 40
1.0
176
     1
 90
        0
176
     1
 62
    18
176
     1
 90
       50
176
     1
 90
        3
176
     1
 62
     5
420
      255
176
     1
290
     0
176
     1
 90
       50
176
     1
 90
       50
176
     1
 90
       50
176
     1
290
     0
176
     1
 90
       50
176
     1
 62
   256
176
     0
 40
1.0
176
     0
 90
        2
176
     1
  1
strokes_ogs.tif
176
     1
290
     0
176
     1
 40
1.0
176
     1
 40
1.0
176
     1
  0
VISUALSTYLE
  5
28A9
102
{ACAD_REACTORS
330
2895
102
}
330
2895
100
AcDbVisualStyle
  2
Shaded with edges
 70
    26
177
     3
291
     0
 70
    58
 90
        2
176
     1
 90
        2
176
     1
 90
        1
176
     1
 90
        2
176
     1
 40
0.6
176
     1
 40
30.0
176
     1
 62
     7
176
     1
 90
        1
176
     1
 90
       10
176
     1
 62
     7
176
     1
 62
   257
176
     1
 90
        2
176
     1
 90
        1
176
     1
 40
1.0
176
     1
 90
        8
176
     1
 62
   257
176
     1
 40
1.0
176
     1
 90
        1
176
     1
 90
        6
176
     1
 90
        2
176
     1
 62
     7
176
     1
 90
        3
176
     1
 90
        0
176
     1
 90
        0
176
     1
290
     0
176
     1
 90
        5
176
     1
 40
0.0
176
     1
 90
        0
176
     1
290
     0
176
     1
290
     1
176
     1
290
     1
176
     1
290
     0
176
     1
290
     0
176
     1
290
     0
176
     1
290
     0
176
     1
290
     0
176
     1
290
     0
176
     1
 90
       50
176
     1
 40
0.0
176
     1
 40
1.0
176
     1
 90
        0
176
     1
 62
    18
176
     1
 90
       50
176
     1
 90
        3
176
     1
 62
     5
420
      255
176
     1
290
     0
176
     1
 90
       50
176
     1
 90
       50
176
     1
 90
       50
176
     1
290
     0
176
     1
 90
       50
176
     1
 62
   256
176
     0
 40
1.0
176
     0
 90
        2
176
     1
  1
strokes_ogs.tif
176
     1
290
     0
176
     1
 40
1.0
176
     1
 40
1.0
176
     1
  0
VISUALSTYLE
  5
28A6
102
{ACAD_REACTORS
330
2895
102
}
330
2895
100
AcDbVisualStyle
  2
Shades of Gray
 70
    23
177
     3
291
     0
 70
    58
 90
        2
176
     1
 90
        2
176
     1
 90
        3
176
     1
 90
        0
176
     1
 40
0.6
176
     1
 40
30.0
176
     1
 62
     7
176
     1
 90
        2
176
     1
 90
        2
176
     1
 62
     7
176
     1
 62
     7
176
     1
 90
        1
176
     1
 90
        1
176
     1
 40
40.0
176
     1
 90
        8
176
     1
 62
     7
176
     1
 40
1.0
176
     1
 90
        1
176
     1
 90
        6
176
     1
 90
        2
176
     1
 62
     7
176
     1
 90
        3
176
     1
 90
        0
176
     1
 90
        0
176
     1
290
     0
176
     1
 90
        1
176
     1
 40
0.0
176
     1
 90
        0
176
     1
290
     0
176
     1
290
     1
176
     1
290
     1
176
     1
290
     0
176
     1
290
     0
176
     1
290
     0
176
     1
290
     0
176
     1
290
     0
176
     1
290
     0
176
     1
 90
       50
176
     1
 40
0.0
176
     1
 40
1.0
176
     1
 90
        0
176
     1
 62
    18
176
     1
 90
       50
176
     1
 90
        3
176
     1
 62
     5
420
      255
176
     1
290
     0
176
     1
 90
       50
176
     1
 90
       50
176
     1
 90
       50
176
     1
290
     0
176
     1
 90
       50
176
     1
 62
   256
176
     0
 40
1.0
176
     0
 90
        2
176
     1
  1
strokes_ogs.tif
176
     1
290
     0
176
     1
 40
1.0
176
     1
 40
1.0
176
     1
  0
VISUALSTYLE
  5
28A7
102
{ACAD_REACTORS
330
2895
102
}
330
2895
100
AcDbVisualStyle
  2
Sketchy
 70
    24
177
     3
291
     0
 70
    58
 90
        1
176
     1
 90
        2
176
     1
 90
        2
176
     1
 90
        0
176
     1
 40
0.6
176
     1
 40
30.0
176
     1
 62
     7
176
     1
 90
        2
176
     1
 90
        2
176
     1
 62
     7
176
     1
 62
     7
176
     1
 90
        1
176
     1
 90
        1
176
     1
 40
40.0
176
     1
 90
       11
176
     1
 62
     7
176
     1
 40
1.0
176
     1
 90
        1
176
     1
 90
        6
176
     1
 90
        2
176
     1
 62
     7
176
     1
 90
        6
176
     1
 90
        0
176
     1
 90
        0
176
     1
290
     0
176
     1
 90
        1
176
     1
 40
0.0
176
     1
 90
        0
176
     1
290
     0
176
     1
290
     1
176
     1
290
     1
176
     1
290
     0
176
     1
290
     0
176
     1
290
     0
176
     1
290
     0
176
     1
290
     0
176
     1
290
     0
176
     1
 90
       50
176
     1
 40
0.0
176
     1
 40
1.0
176
     1
 90
        0
176
     1
 62
    18
176
     1
 90
       50
176
     1
 90
        3
176
     1
 62
     5
420
      255
176
     1
290
     0
176
     1
 90
       50
176
     1
 90
       50
176
     1
 90
       50
176
     1
290
     0
176
     1
 90
       50
176
     1
 62
   256
176
     0
 40
1.0
176
     0
 90
        2
176
     1
  1
strokes_ogs.tif
176
     1
290
     0
176
     1
 40
1.0
176
     1
 40
1.0
176
     1
  0
VISUALSTYLE
  5
28A2
102
{ACAD_REACTORS
330
2895
102
}
330
2895
100
AcDbVisualStyle
  2
Thicken
 70
    13
177
     3
291
     1
 70
    58
 90
        2
176
     1
 90
        2
176
     1
 90
        0
176
     1
 90
        0
176
     1
 40
0.6
176
     1
 40
30.0
176
     1
 62
     7
176
     1
 90
        1
176
     1
 90
        4
176
     1
 62
     7
176
     1
 62
   257
176
     1
 90
        1
176
     1
 90
        1
176
     1
 40
1.0
176
     1
 90
       12
176
     1
 62
     7
176
     1
 40
1.0
176
     1
 90
        1
176
     1
 90
        6
176
     1
 90
        2
176
     1
 62
     7
176
     1
 90
        5
176
     1
 90
        0
176
     1
 90
        0
176
     1
290
     0
176
     1
 90
        1
176
     1
 40
0.0
176
     1
 90
        0
176
     1
290
     0
176
     1
290
     1
176
     1
290
     1
176
     1
290
     0
176
     1
290
     0
176
     1
290
     0
176
     1
290
     0
176
     1
290
     0
176
     1
290
     0
176
     1
 90
       50
176
     1
 40
0.0
176
     1
 40
1.0
176
     1
 90
        0
176
     1
 62
    18
176
     1
 90
       50
176
     1
 90
        3
176
     1
 62
     5
420
      255
176
     1
290
     0
176
     1
 90
       50
176
     1
 90
       50
176
     1
 90
       50
176
     1
290
     0
176
     1
 90
       50
176
     1
 62
   256
176
     0
 40
1.0
176
     0
 90
        2
176
     1
  1
strokes_ogs.tif
176
     1
290
     0
176
     1
 40
1.0
176
     1
 40
1.0
176
     1
  0
VISUALSTYLE
  5
289C
102
{ACAD_REACTORS
330
2895
102
}
330
2895
100
AcDbVisualStyle
  2
Wireframe
 70
     5
177
     3
291
     0
 70
    58
 90
        0
176
     1
 90
        2
176
     1
 90
        0
176
     1
 90
        0
176
     1
 40
0.6
176
     1
 40
30.0
176
     1
 62
     7
176
     1
 90
        1
176
     1
 90
        4
176
     1
 62
     7
176
     1
 62
   257
176
     1
 90
        1
176
     1
 90
        1
176
     1
 40
1.0
176
     1
 90
        0
176
     1
 62
   257
176
     1
 40
1.0
176
     1
 90
        1
176
     1
 90
        6
176
     1
 90
        2
176
     1
 62
     7
176
     1
 90
        3
176
     1
 90
        0
176
     1
 90
        0
176
     1
290
     0
176
     1
 90
        1
176
     1
 40
0.0
176
     1
 90
        0
176
     1
290
     0
176
     1
290
     1
176
     1
290
     1
176
     1
290
     0
176
     1
290
     0
176
     1
290
     0
176
     1
290
     0
176
     1
290
     0
176
     1
290
     0
176
     1
 90
       50
176
     1
 40
0.0
176
     1
 40
1.0
176
     1
 90
        0
176
     1
 62
    18
176
     1
 90
       50
176
     1
 90
        3
176
     1
 62
     5
420
      255
176
     1
290
     0
176
     1
 90
       50
176
     1
 90
       50
176
     1
 90
       50
176
     1
290
     0
176
     1
 90
       50
176
     1
 62
   256
176
     0
 40
1.0
176
     0
 90
        2
176
     1
  1
strokes_ogs.tif
176
     1
290
     0
176
     1
 40
1.0
176
     1
 40
1.0
176
     1
  0
VISUALSTYLE
  5
28A8
102
{ACAD_REACTORS
330
2895
102
}
330
2895
100
AcDbVisualStyle
  2
X-Ray
 70
    25
177
     3
291
     0
 70
    58
 90
        2
176
     1
 90
        2
176
     1
 90
        1
176
     1
 90
        1
176
     1
 40
0.5
176
     1
 40
30.0
176
     1
 62
     7
176
     1
 90
        1
176
     1
 90
        0
176
     1
 62
     7
176
     1
 62
   257
176
     1
 90
        1
176
     1
 90
        1
176
     1
 40
1.0
176
     1
 90
        8
176
     1
 62
     7
176
     1
 40
1.0
176
     1
 90
        1
176
     1
 90
        6
176
     1
 90
        2
176
     1
 62
     7
176
     1
 90
        3
176
     1
 90
        0
176
     1
 90
        0
176
     1
290
     0
176
     1
 90
       13
176
     1
 40
0.0
176
     1
 90
        0
176
     1
290
     0
176
     1
290
     1
176
     1
290
     1
176
     1
290
     0
176
     1
290
     0
176
     1
290
     0
176
     1
290
     0
176
     1
290
     0
176
     1
290
     0
176
     1
 90
       50
176
     1
 40
0.0
176
     1
 40
1.0
176
     1
 90
        0
176
     1
 62
    18
176
     1
 90
       50
176
     1
 90
        3
176
     1
 62
     5
420
      255
176
     1
290
     0
176
     1
 90
       50
176
     1
 90
       50
176
     1
 90
       50
176
     1
290
     0
176
     1
 90
       50
176
     1
 62
   256
176
     0
 40
1.0
176
     0
 90
        2
176
     1
  1
strokes_ogs.tif
176
     1
290
     0
176
     1
 40
1.0
176
     1
 40
1.0
176
     1
  0
DICTIONARYVAR
  5
28E2
102
{ACAD_REACTORS
330
33
102
}
330
33
100
DictionaryVariables
280
     0
  1
1:1
  0
DICTIONARYVAR
  5
28DE
102
{ACAD_REACTORS
330
33
102
}
330
33
100
DictionaryVariables
280
     0
  1
STANDARD
  0
DICTIONARYVAR
  5
28DD
102
{ACAD_REACTORS
330
33
102
}
330
33
100
DictionaryVariables
280
     0
  1
STANDARD
  0
DICTIONARYVAR
  5
28DF
102
{ACAD_REACTORS
330
33
102
}
330
33
100
DictionaryVariables
280
     0
  1
Metric50
  0
DICTIONARYVAR
  5
28E0
102
{ACAD_REACTORS
330
33
102
}
330
33
100
DictionaryVariables
280
     0
  1
Metric50
  0
DICTIONARYVAR
  5
34
102
{ACAD_REACTORS
330
33
102
}
330
33
100
DictionaryVariables
280
     0
  1
0
  0
DICTIONARYVAR
  5
23F7
102
{ACAD_REACTORS
330
33
102
}
330
33
100
DictionaryVariables
280
     0
  1
1
  0
DICTIONARYVAR
  5
2B02
102
{ACAD_REACTORS
330
33
102
}
330
33
100
DictionaryVariables
280
     0
  1
0
  0
DICTIONARYVAR
  5
28E4
102
{ACAD_REACTORS
330
33
102
}
330
33
100
DictionaryVariables
280
     0
  1
1
  0
DICTIONARYVAR
  5
28E5
102
{ACAD_REACTORS
330
33
102
}
330
33
100
DictionaryVariables
280
     0
  1
15
  0
DICTIONARYVAR
  5
28E3
102
{ACAD_REACTORS
330
33
102
}
330
33
100
DictionaryVariables
280
     0
  1
0
  0
DICTIONARYVAR
  5
28E1
102
{ACAD_REACTORS
330
33
102
}
330
33
100
DictionaryVariables
280
     0
  1
0
  0
DICTIONARYVAR
  5
1383
102
{ACAD_REACTORS
330
33
102
}
330
33
100
DictionaryVariables
280
     0
  1
127
  0
DICTIONARY
  5
6C4D
330
5947
100
AcDbDictionary
280
     1
281
     1
  3
ACAD_XREC_ROUNDTRIP
360
6E8A
  0
DICTIONARY
  5
6C43
330
28C8
100
AcDbDictionary
280
     1
281
     1
  3
ACAD_XREC_ROUNDTRIP
360
6E87
  0
DICTIONARY
  5
2AC4
330
760
100
AcDbDictionary
280
     1
281
     1
  0
DICTIONARY
  5
2886
330
2885
100
AcDbDictionary
280
     1
281
     1
  3
BUMPTILE
360
2888
  3
DIFFUSETILE
360
2887
  3
OPACITYTILE
360
288B
  3
REFLECTIONTILE
360
288A
  3
REFRACTIONTILE
360
288C
  3
SPECULARTILE
360
2889
  0
DICTIONARY
  5
287E
330
287D
100
AcDbDictionary
280
     1
281
     1
  3
BUMPTILE
360
2880
  3
DIFFUSETILE
360
287F
  3
OPACITYTILE
360
2883
  3
REFLECTIONTILE
360
2882
  3
REFRACTIONTILE
360
2884
  3
SPECULARTILE
360
2881
  0
DICTIONARY
  5
288E
330
288D
100
AcDbDictionary
280
     1
281
     1
  3
BUMPTILE
360
2890
  3
DIFFUSETILE
360
288F
  3
OPACITYTILE
360
2893
  3
REFLECTIONTILE
360
2892
  3
REFRACTIONTILE
360
2894
  3
SPECULARTILE
360
2891
  0
DICTIONARY
  5
6C4B
330
5946
100
AcDbDictionary
280
     1
281
     1
  3
ACAD_XREC_ROUNDTRIP
360
6E89
  0
DICTIONARY
  5
6C41
330
28C6
100
AcDbDictionary
280
     1
281
     1
  3
ACAD_XREC_ROUNDTRIP
360
6E86
  0
DICTIONARY
  5
2AB3
330
28B0
100
AcDbDictionary
280
     1
281
     1
  3
ACAD_ROUNDTRIP_2008_TABLESTYLE_CELLSTYLEMAP
360
6E85
  0
DICTIONARY
  5
4D29
330
4D28
100
AcDbDictionary
280
     1
281
     1
  3
ACAD_ROUNDTRIP_2008_TABLESTYLE_CELLSTYLEMAP
360
6E88
  0
XRECORD
  5
6E8A
102
{ACAD_REACTORS
330
6C4D
102
}
330
6C4D
100
AcDbXrecord
280
     1
102
DISPLAYNAME
  1
Imperial24
102
FLAGS
 90
        0
  0
XRECORD
  5
6E87
102
{ACAD_REACTORS
330
6C43
102
}
330
6C43
100
AcDbXrecord
280
     1
102
DISPLAYNAME
  1
Metric50
102
FLAGS
 90
        0
  0
XRECORD
  5
2888
102
{ACAD_REACTORS
330
2886
102
}
330
2886
100
AcDbXrecord
280
     1
270
     1
271
     1
  0
XRECORD
  5
2887
102
{ACAD_REACTORS
330
2886
102
}
330
2886
100
AcDbXrecord
280
     1
270
     1
271
     1
  0
XRECORD
  5
288B
102
{ACAD_REACTORS
330
2886
102
}
330
2886
100
AcDbXrecord
280
     1
270
     1
271
     1
  0
XRECORD
  5
288A
102
{ACAD_REACTORS
330
2886
102
}
330
2886
100
AcDbXrecord
280
     1
270
     1
271
     1
  0
XRECORD
  5
288C
102
{ACAD_REACTORS
330
2886
102
}
330
2886
100
AcDbXrecord
280
     1
270
     1
271
     1
  0
XRECORD
  5
2889
102
{ACAD_REACTORS
330
2886
102
}
330
2886
100
AcDbXrecord
280
     1
270
     1
271
     1
  0
XRECORD
  5
2880
102
{ACAD_REACTORS
330
287E
102
}
330
287E
100
AcDbXrecord
280
     1
270
     1
271
     1
  0
XRECORD
  5
287F
102
{ACAD_REACTORS
330
287E
102
}
330
287E
100
AcDbXrecord
280
     1
270
     1
271
     1
  0
XRECORD
  5
2883
102
{ACAD_REACTORS
330
287E
102
}
330
287E
100
AcDbXrecord
280
     1
270
     1
271
     1
  0
XRECORD
  5
2882
102
{ACAD_REACTORS
330
287E
102
}
330
287E
100
AcDbXrecord
280
     1
270
     1
271
     1
  0
XRECORD
  5
2884
102
{ACAD_REACTORS
330
287E
102
}
330
287E
100
AcDbXrecord
280
     1
270
     1
271
     1
  0
XRECORD
  5
2881
102
{ACAD_REACTORS
330
287E
102
}
330
287E
100
AcDbXrecord
280
     1
270
     1
271
     1
  0
XRECORD
  5
2890
102
{ACAD_REACTORS
330
288E
102
}
330
288E
100
AcDbXrecord
280
     1
270
     1
271
     1
  0
XRECORD
  5
288F
102
{ACAD_REACTORS
330
288E
102
}
330
288E
100
AcDbXrecord
280
     1
270
     1
271
     1
  0
XRECORD
  5
2893
102
{ACAD_REACTORS
330
288E
102
}
330
288E
100
AcDbXrecord
280
     1
270
     1
271
     1
  0
XRECORD
  5
2892
102
{ACAD_REACTORS
330
288E
102
}
330
288E
100
AcDbXrecord
280
     1
270
     1
271
     1
  0
XRECORD
  5
2894
102
{ACAD_REACTORS
330
288E
102
}
330
288E
100
AcDbXrecord
280
     1
270
     1
271
     1
  0
XRECORD
  5
2891
102
{ACAD_REACTORS
330
288E
102
}
330
288E
100
AcDbXrecord
280
     1
270
     1
271
     1
  0
XRECORD
  5
6E89
102
{ACAD_REACTORS
330
6C4B
102
}
330
6C4B
100
AcDbXrecord
280
     1
102
DISPLAYNAME
  1
Imperial24
102
FLAGS
 90
        0
  0
XRECORD
  5
6E86
102
{ACAD_REACTORS
330
6C41
102
}
330
6C41
100
AcDbXrecord
280
     1
102
DISPLAYNAME
  1
Metric50
102
FLAGS
 90
        0
  0
CELLSTYLEMAP
  5
6E85
102
{ACAD_REACTORS
330
2AB3
102
}
330
2AB3
100
AcDbCellStyleMap
 90
        3
300
CELLSTYLE
  1
TABLEFORMAT_BEGIN
 90
        5
170
     1
 91
        0
 92
    32768
 62
   257
 93
        1
300
CONTENTFORMAT
  1
CONTENTFORMAT_BEGIN
 90
        0
 91
        0
 92
      512
 93
        0
300

 40
0.0
140
1.0
 94
        5
 62
     0
340
F
144
6.0
309
CONTENTFORMAT_END
171
     1
301
MARGIN
  1
CELLMARGIN_BEGIN
 40
1.5
 40
1.5
 40
1.5
 40
1.5
 40
0.18
 40
0.18
309
CELLMARGIN_END
 94
        6
 95
        1
302
GRIDFORMAT
  1
GRIDFORMAT_BEGIN
 90
        0
 91
        1
 62
     0
 92
       -2
340
0
 93
        0
 40
1.125
309
GRIDFORMAT_END
 95
        2
302
GRIDFORMAT
  1
GRIDFORMAT_BEGIN
 90
        0
 91
        1
 62
     0
 92
       -2
340
0
 93
        0
 40
1.125
309
GRIDFORMAT_END
 95
        4
302
GRIDFORMAT
  1
GRIDFORMAT_BEGIN
 90
        0
 91
        1
 62
     0
 92
       -2
340
0
 93
        0
 40
1.125
309
GRIDFORMAT_END
 95
        8
302
GRIDFORMAT
  1
GRIDFORMAT_BEGIN
 90
        0
 91
        1
 62
     0
 92
       -2
340
0
 93
        0
 40
1.125
309
GRIDFORMAT_END
 95
       16
302
GRIDFORMAT
  1
GRIDFORMAT_BEGIN
 90
        0
 91
        1
 62
     0
 92
       -2
340
0
 93
        0
 40
1.125
309
GRIDFORMAT_END
 95
       32
302
GRIDFORMAT
  1
GRIDFORMAT_BEGIN
 90
        0
 91
        1
 62
     0
 92
       -2
340
0
 93
        0
 40
1.125
309
GRIDFORMAT_END
309
TABLEFORMAT_END
  1
CELLSTYLE_BEGIN
 90
        1
 91
        1
300
_TITLE
309
CELLSTYLE_END
300
CELLSTYLE
  1
TABLEFORMAT_BEGIN
 90
        5
170
     1
 91
        0
 92
        0
 62
   257
 93
        1
300
CONTENTFORMAT
  1
CONTENTFORMAT_BEGIN
 90
        0
 91
        0
 92
      512
 93
        0
300

 40
0.0
140
1.0
 94
        5
 62
     0
340
F
144
4.5
309
CONTENTFORMAT_END
171
     1
301
MARGIN
  1
CELLMARGIN_BEGIN
 40
1.5
 40
1.5
 40
1.5
 40
1.5
 40
0.18
 40
0.18
309
CELLMARGIN_END
 94
        6
 95
        1
302
GRIDFORMAT
  1
GRIDFORMAT_BEGIN
 90
        0
 91
        1
 62
     0
 92
       -2
340
0
 93
        0
 40
1.125
309
GRIDFORMAT_END
 95
        2
302
GRIDFORMAT
  1
GRIDFORMAT_BEGIN
 90
        0
 91
        1
 62
     0
 92
       -2
340
0
 93
        0
 40
1.125
309
GRIDFORMAT_END
 95
        4
302
GRIDFORMAT
  1
GRIDFORMAT_BEGIN
 90
        0
 91
        1
 62
     0
 92
       -2
340
0
 93
        0
 40
1.125
309
GRIDFORMAT_END
 95
        8
302
GRIDFORMAT
  1
GRIDFORMAT_BEGIN
 90
        0
 91
        1
 62
     0
 92
       -2
340
0
 93
        0
 40
1.125
309
GRIDFORMAT_END
 95
       16
302
GRIDFORMAT
  1
GRIDFORMAT_BEGIN
 90
        0
 91
        1
 62
     0
 92
       -2
340
0
 93
        0
 40
1.125
309
GRIDFORMAT_END
 95
       32
302
GRIDFORMAT
  1
GRIDFORMAT_BEGIN
 90
        0
 91
        1
 62
     0
 92
       -2
340
0
 93
        0
 40
1.125
309
GRIDFORMAT_END
309
TABLEFORMAT_END
  1
CELLSTYLE_BEGIN
 90
        2
 91
        1
300
_HEADER
309
CELLSTYLE_END
300
CELLSTYLE
  1
TABLEFORMAT_BEGIN
 90
        5
170
     1
 91
        0
 92
        0
 62
   257
 93
        1
300
CONTENTFORMAT
  1
CONTENTFORMAT_BEGIN
 90
        0
 91
        0
 92
      512
 93
        0
300

 40
0.0
140
1.0
 94
        2
 62
     0
340
F
144
4.5
309
CONTENTFORMAT_END
171
     1
301
MARGIN
  1
CELLMARGIN_BEGIN
 40
1.5
 40
1.5
 40
1.5
 40
1.5
 40
0.18
 40
0.18
309
CELLMARGIN_END
 94
        6
 95
        1
302
GRIDFORMAT
  1
GRIDFORMAT_BEGIN
 90
        0
 91
        1
 62
     0
 92
       -2
340
0
 93
        0
 40
1.125
309
GRIDFORMAT_END
 95
        2
302
GRIDFORMAT
  1
GRIDFORMAT_BEGIN
 90
        0
 91
        1
 62
     0
 92
       -2
340
0
 93
        0
 40
1.125
309
GRIDFORMAT_END
 95
        4
302
GRIDFORMAT
  1
GRIDFORMAT_BEGIN
 90
        0
 91
        1
 62
     0
 92
       -2
340
0
 93
        0
 40
1.125
309
GRIDFORMAT_END
 95
        8
302
GRIDFORMAT
  1
GRIDFORMAT_BEGIN
 90
        0
 91
        1
 62
     0
 92
       -2
340
0
 93
        0
 40
1.125
309
GRIDFORMAT_END
 95
       16
302
GRIDFORMAT
  1
GRIDFORMAT_BEGIN
 90
        0
 91
        1
 62
     0
 92
       -2
340
0
 93
        0
 40
1.125
309
GRIDFORMAT_END
 95
       32
302
GRIDFORMAT
  1
GRIDFORMAT_BEGIN
 90
        0
 91
        1
 62
     0
 92
       -2
340
0
 93
        0
 40
1.125
309
GRIDFORMAT_END
309
TABLEFORMAT_END
  1
CELLSTYLE_BEGIN
 90
        3
 91
        2
300
_DATA
309
CELLSTYLE_END
  0
CELLSTYLEMAP
  5
6E88
102
{ACAD_REACTORS
330
4D29
102
}
330
4D29
100
AcDbCellStyleMap
 90
        4
300
CELLSTYLE
  1
TABLEFORMAT_BEGIN
 90
        5
170
     1
 91
        0
 92
    32768
 62
   257
 93
        1
300
CONTENTFORMAT
  1
CONTENTFORMAT_BEGIN
 90
        0
 91
        0
 92
      512
 93
        0
300

 40
0.0
140
1.0
 94
        5
 62
     0
340
F
144
6.0
309
CONTENTFORMAT_END
171
     1
301
MARGIN
  1
CELLMARGIN_BEGIN
 40
1.5
 40
1.5
 40
1.5
 40
1.5
 40
0.18
 40
0.18
309
CELLMARGIN_END
 94
        6
 95
        1
302
GRIDFORMAT
  1
GRIDFORMAT_BEGIN
 90
        0
 91
        1
 62
     0
 92
       -2
340
0
 93
        0
 40
1.125
309
GRIDFORMAT_END
 95
        2
302
GRIDFORMAT
  1
GRIDFORMAT_BEGIN
 90
        0
 91
        1
 62
     0
 92
       -2
340
0
 93
        0
 40
1.125
309
GRIDFORMAT_END
 95
        4
302
GRIDFORMAT
  1
GRIDFORMAT_BEGIN
 90
        0
 91
        1
 62
     0
 92
       -2
340
0
 93
        0
 40
1.125
309
GRIDFORMAT_END
 95
        8
302
GRIDFORMAT
  1
GRIDFORMAT_BEGIN
 90
        0
 91
        1
 62
     0
 92
       -2
340
0
 93
        0
 40
1.125
309
GRIDFORMAT_END
 95
       16
302
GRIDFORMAT
  1
GRIDFORMAT_BEGIN
 90
        0
 91
        1
 62
     0
 92
       -2
340
0
 93
        0
 40
1.125
309
GRIDFORMAT_END
 95
       32
302
GRIDFORMAT
  1
GRIDFORMAT_BEGIN
 90
        0
 91
        1
 62
     0
 92
       -2
340
0
 93
        0
 40
1.125
309
GRIDFORMAT_END
309
TABLEFORMAT_END
  1
CELLSTYLE_BEGIN
 90
        1
 91
        1
300
_TITLE
309
CELLSTYLE_END
300
CELLSTYLE
  1
TABLEFORMAT_BEGIN
 90
        5
170
     1
 91
        0
 92
        0
 62
   257
 93
        1
300
CONTENTFORMAT
  1
CONTENTFORMAT_BEGIN
 90
        0
 91
        0
 92
      512
 93
        0
300

 40
0.0
140
1.0
 94
        5
 62
     0
340
F
144
4.5
309
CONTENTFORMAT_END
171
     1
301
MARGIN
  1
CELLMARGIN_BEGIN
 40
1.5
 40
1.5
 40
1.5
 40
1.5
 40
0.18
 40
0.18
309
CELLMARGIN_END
 94
        6
 95
        1
302
GRIDFORMAT
  1
GRIDFORMAT_BEGIN
 90
        0
 91
        1
 62
     0
 92
       -2
340
0
 93
        0
 40
1.125
309
GRIDFORMAT_END
 95
        2
302
GRIDFORMAT
  1
GRIDFORMAT_BEGIN
 90
        0
 91
        1
 62
     0
 92
       -2
340
0
 93
        0
 40
1.125
309
GRIDFORMAT_END
 95
        4
302
GRIDFORMAT
  1
GRIDFORMAT_BEGIN
 90
        0
 91
        1
 62
     0
 92
       -2
340
0
 93
        0
 40
1.125
309
GRIDFORMAT_END
 95
        8
302
GRIDFORMAT
  1
GRIDFORMAT_BEGIN
 90
        0
 91
        1
 62
     0
 92
       -2
340
0
 93
        0
 40
1.125
309
GRIDFORMAT_END
 95
       16
302
GRIDFORMAT
  1
GRIDFORMAT_BEGIN
 90
        0
 91
        1
 62
     0
 92
       -2
340
0
 93
        0
 40
1.125
309
GRIDFORMAT_END
 95
       32
302
GRIDFORMAT
  1
GRIDFORMAT_BEGIN
 90
        0
 91
        1
 62
     0
 92
       -2
340
0
 93
        0
 40
1.125
309
GRIDFORMAT_END
309
TABLEFORMAT_END
  1
CELLSTYLE_BEGIN
 90
        2
 91
        1
300
_HEADER
309
CELLSTYLE_END
300
CELLSTYLE
  1
TABLEFORMAT_BEGIN
 90
        5
170
     1
 91
        0
 92
        0
 62
   257
 93
        1
300
CONTENTFORMAT
  1
CONTENTFORMAT_BEGIN
 90
        0
 91
        0
 92
        4
 93
        0
300

 40
0.0
140
1.0
 94
        5
 62
     7
340
F
144
4.5
309
CONTENTFORMAT_END
171
     1
301
MARGIN
  1
CELLMARGIN_BEGIN
 40
0.5
 40
0.5
 40
1.5
 40
1.5
 40
0.18
 40
0.18
309
CELLMARGIN_END
 94
        6
 95
        1
302
GRIDFORMAT
  1
GRIDFORMAT_BEGIN
 90
        0
 91
        1
 62
     0
 92
       -2
340
0
 93
        0
 40
1.125
309
GRIDFORMAT_END
 95
        2
302
GRIDFORMAT
  1
GRIDFORMAT_BEGIN
 90
        0
 91
        1
 62
     0
 92
       -2
340
0
 93
        0
 40
1.125
309
GRIDFORMAT_END
 95
        4
302
GRIDFORMAT
  1
GRIDFORMAT_BEGIN
 90
        0
 91
        1
 62
     0
 92
       -2
340
0
 93
        0
 40
1.125
309
GRIDFORMAT_END
 95
        8
302
GRIDFORMAT
  1
GRIDFORMAT_BEGIN
 90
        0
 91
        1
 62
     0
 92
       -2
340
0
 93
        0
 40
1.125
309
GRIDFORMAT_END
 95
       16
302
GRIDFORMAT
  1
GRIDFORMAT_BEGIN
 90
        0
 91
        1
 62
     0
 92
       -2
340
0
 93
        0
 40
1.125
309
GRIDFORMAT_END
 95
       32
302
GRIDFORMAT
  1
GRIDFORMAT_BEGIN
 90
        0
 91
        1
 62
     0
 92
       -2
340
0
 93
        0
 40
1.125
309
GRIDFORMAT_END
309
TABLEFORMAT_END
  1
CELLSTYLE_BEGIN
 90
        3
 91
        2
300
_DATA
309
CELLSTYLE_END
300
CELLSTYLE
  1
TABLEFORMAT_BEGIN
 90
        5
170
     1
 91
        0
 92
    32768
 62
   257
 93
        1
300
CONTENTFORMAT
  1
CONTENTFORMAT_BEGIN
 90
        0
 91
        0
 92
        4
 93
        0
300

 40
0.0
140
1.0
 94
        5
 62
     0
340
4D26
144
6.0
309
CONTENTFORMAT_END
171
     1
301
MARGIN
  1
CELLMARGIN_BEGIN
 40
0.0
 40
0.0
 40
1.5
 40
1.5
 40
4.5
 40
4.5
309
CELLMARGIN_END
 94
        6
 95
        1
302
GRIDFORMAT
  1
GRIDFORMAT_BEGIN
 90
        0
 91
        1
 62
     0
 92
       -2
340
0
 93
        0
 40
1.125
309
GRIDFORMAT_END
 95
        2
302
GRIDFORMAT
  1
GRIDFORMAT_BEGIN
 90
        0
 91
        1
 62
     0
 92
       -2
340
0
 93
        0
 40
1.125
309
GRIDFORMAT_END
 95
        4
302
GRIDFORMAT
  1
GRIDFORMAT_BEGIN
 90
        0
 91
        1
 62
     0
 92
       -2
340
0
 93
        0
 40
1.125
309
GRIDFORMAT_END
 95
        8
302
GRIDFORMAT
  1
GRIDFORMAT_BEGIN
 90
        0
 91
        1
 62
     0
 92
       -2
340
0
 93
        0
 40
1.125
309
GRIDFORMAT_END
 95
       16
302
GRIDFORMAT
  1
GRIDFORMAT_BEGIN
 90
        0
 91
        1
 62
     0
 92
       -2
340
0
 93
        0
 40
1.125
309
GRIDFORMAT_END
 95
       32
302
GRIDFORMAT
  1
GRIDFORMAT_BEGIN
 90
        0
 91
        1
 62
     0
 92
       -2
340
0
 93
        0
 40
1.125
309
GRIDFORMAT_END
309
TABLEFORMAT_END
  1
CELLSTYLE_BEGIN
 90
      101
 91
        2
300
文字
309
CELLSTYLE_END
  0
ENDSEC
  0
SECTION
  2
ACDSDATA
 70
     2
 71
     6
  0
ACDSSCHEMA
 90
        0
  1
AcDb_Thumbnail_Schema
  2
AcDbDs::ID
280
    10
 91
        8
  2
Thumbnail_Data
280
    15
 91
        0
101
ACDSRECORD
 95
        0
 90
        1
  2
AcDbDs::TreatedAsObjectData
280
     1
291
     1
101
ACDSRECORD
 95
        0
 90
        2
  2
AcDbDs::Legacy
280
     1
291
     1
101
ACDSRECORD
  1
AcDbDs::ID
 90
        3
  2
AcDs:Indexable
280
     1
291
     1
101
ACDSRECORD
  1
AcDbDs::ID
 90
        4
  2
AcDbDs::HandleAttribute
280
     7
282
     1
  0
ACDSSCHEMA
 90
        1
  1
AcDbDs::TreatedAsObjectDataSchema
  2
AcDbDs::TreatedAsObjectData
280
     1
 91
        0
  0
ACDSSCHEMA
 90
        2
  1
AcDbDs::LegacySchema
  2
AcDbDs::Legacy
280
     1
 91
        0
  0
ACDSSCHEMA
 90
        3
  1
AcDbDs::IndexedPropertySchema
  2
AcDs:Indexable
280
     1
 91
        0
  0
ACDSSCHEMA
 90
        4
  1
AcDbDs::HandleAttributeSchema
  2
AcDbDs::HandleAttribute
280
     7
 91
        1
284
     1
  0
ACDSRECORD
 90
        0
  2
AcDbDs::ID
280
    10
320
760
  2
Thumbnail_Data
280
    15
 94
     1078
310
89504E470D0A1A0A0000000D494844520000010000000062080300000088E7FDB100000300504C5445000000000000C8C8C80000000000000000000000000000000000000000000000000000330000660000990000CC0000FF0033000033330033660033990033CC0033FF0066000066330066660066990066CC0066FF0099
310
000099330099660099990099CC0099FF00CC0000CC3300CC6600CC9900CCCC00CCFF00FF0000FF3300FF6600FF9900FFCC00FFFF3300003300333300663300993300CC3300FF3333003333333333663333993333CC3333FF3366003366333366663366993366CC3366FF3399003399333399663399993399CC3399FF33CC00
310
33CC3333CC6633CC9933CCCC33CCFF33FF0033FF3333FF6633FF9933FFCC33FFFF6600006600336600666600996600CC6600FF6633006633336633666633996633CC6633FF6666006666336666666666996666CC6666FF6699006699336699666699996699CC6699FF66CC0066CC3366CC6666CC9966CCCC66CCFF66FF0066
310
FF3366FF6666FF9966FFCC66FFFF9900009900339900669900999900CC9900FF9933009933339933669933999933CC9933FF9966009966339966669966999966CC9966FF9999009999339999669999999999CC9999FF99CC0099CC3399CC6699CC9999CCCC99CCFF99FF0099FF3399FF6699FF9999FFCC99FFFFCC0000CC00
310
33CC0066CC0099CC00CCCC00FFCC3300CC3333CC3366CC3399CC33CCCC33FFCC6600CC6633CC6666CC6699CC66CCCC66FFCC9900CC9933CC9966CC9999CC99CCCC99FFCCCC00CCCC33CCCC66CCCC99CCCCCCCCCCFFCCFF00CCFF33CCFF66CCFF99CCFFCCCCFFFFFF0000FF0033FF0066FF0099FF00CCFF00FFFF3300FF3333
310
FF3366FF3399FF33CCFF33FFFF6600FF6633FF6666FF6699FF66CCFF66FFFF9900FF9933FF9966FF9999FF99CCFF99FFFFCC00FFCC33FFCC66FFCC99FFCCCCFFCCFFFFFF00FFFF33FFFF66FFFF99FFFFCCFFFFFF0000000D0D0D1A1A1A2828283535354343435050505D5D5D6B6B6B787878868686939393A1A1A1AEAEAEBB
310
BBBBC9C9C9D6D6D6E4E4E4F1F1F1FFFFFF00000000000000000000000000000000000000000000000000000000000008F1915C000000F14944415478DAEDDCC10A83300C00D07CD8FEFF8F7A1F53A47513C77649495F10527B91BCC61C1B21FE8DC744910330D159E47DB5A5473640F6E10300000000000000000000000000
310
000000000000000000000000000000000000000000000000000000000000000000000000000000000000000000000000000000000000000000000000000000000000000000000000000000B20096BF50F1A7724B76C0CB604F71A463EF5CF8FED637EA016CA9DD03B48A001FA98D15AF3C04637BAA0FC133C43790A12BCA74
310
405CD6389E735F8C93A0D02F70D1EA7DAB3CC0CD3088F721D8A61A82AB5FAD3D472401AC7EBD7E8D780214E177EF186821C70000000049454E44AE426082
  0
ENDSEC
  0
EOF
