  0
SECTION
  2
HEADER
  9
$ACADVER
  1
AC1027
  9
$ACADMAINTVER
 70
    55
  9
$DWGCODEPAGE
  3
ANSI_932
  9
$LASTSAVEDBY
  1
User
  9
$REQUIREDVERSIONS
160
                 0
  9
$INSBASE
 10
0.0000094929055194
 20
-0.0000021391570044
 30
0.0
  9
$EXTMIN
 10
2191.37523937014
 20
393.4677004684463
 30
-0.000000000000013
  9
$EXTMAX
 10
2958.850623427708
 20
1358.392555319025
 30
0.0000000000298965
  9
$LIMMIN
 10
0.0000094929055194
 20
0.0
  9
$LIMMAX
 10
408.1800094929055
 20
285.2399978608428
  9
$ORTHOMODE
 70
     0
  9
$REGENMODE
 70
     1
  9
$FILLMODE
 70
     1
  9
$QTEXTMODE
 70
     0
  9
$MIRRTEXT
 70
     0
  9
$LTSCALE
 40
10.0
  9
$ATTMODE
 70
     1
  9
$TEXTSIZE
 40
3.0
  9
$TRACEWID
 40
1.0
  9
$TEXTSTYLE
  7
STANDARD
  9
$CLAYER
  8
1：主線
  9
$CELTYPE
  6
BYLAYER
  9
$CECOLOR
 62
   256
  9
$CELTSCALE
 40
1.0
  9
$DISPSILH
 70
     0
  9
$DIMSCALE
 40
4.0
  9
$DIMASZ
 40
2.5
  9
$DIMEXO
 40
1.25
  9
$DIMDLI
 40
7.0
  9
$DIMRND
 40
0.0
  9
$DIMDLE
 40
0.0
  9
$DIMEXE
 40
1.25
  9
$DIMTP
 40
0.0
  9
$DIMTM
 40
0.0
  9
$DIMTXT
 40
3.0
  9
$DIMCEN
 40
3.0
  9
$DIMTSZ
 40
0.0
  9
$DIMTOL
 70
     0
  9
$DIMLIM
 70
     0
  9
$DIMTIH
 70
     0
  9
$DIMTOH
 70
     0
  9
$DIMSE1
 70
     0
  9
$DIMSE2
 70
     0
  9
$DIMTAD
 70
     3
  9
$DIMZIN
 70
     8
  9
$DIMBLK
  1

  9
$DIMASO
 70
     1
  9
$DIMSHO
 70
     1
  9
$DIMPOST
  1

  9
$DIMAPOST
  1

  9
$DIMALT
 70
     0
  9
$DIMALTD
 70
     2
  9
$DIMALTF
 40
25.4
  9
$DIMLFAC
 40
1.0
  9
$DIMTOFL
 70
     1
  9
$DIMTVP
 40
0.0
  9
$DIMTIX
 70
     0
  9
$DIMSOXD
 70
     0
  9
$DIMSAH
 70
     1
  9
$DIMBLK1
  1
OPEN
  9
$DIMBLK2
  1
OPEN
  9
$DIMSTYLE
  2
STANDARD
  9
$DIMCLRD
 70
     1
  9
$DIMCLRE
 70
     1
  9
$DIMCLRT
 70
     2
  9
$DIMTFAC
 40
1.0
  9
$DIMGAP
 40
1.0
  9
$DIMJUST
 70
     0
  9
$DIMSD1
 70
     0
  9
$DIMSD2
 70
     0
  9
$DIMTOLJ
 70
     1
  9
$DIMTZIN
 70
     0
  9
$DIMALTZ
 70
     0
  9
$DIMALTTZ
 70
     0
  9
$DIMUPT
 70
     0
  9
$DIMDEC
 70
     1
  9
$DIMTDEC
 70
     1
  9
$DIMALTU
 70
     2
  9
$DIMALTTD
 70
     2
  9
$DIMTXSTY
  7
STANDARD
  9
$DIMAUNIT
 70
     0
  9
$DIMADEC
 70
     2
  9
$DIMALTRND
 40
0.0
  9
$DIMAZIN
 70
     2
  9
$DIMDSEP
 70
    46
  9
$DIMATFIT
 70
     3
  9
$DIMFRAC
 70
     0
  9
$DIMLDRBLK
  1
OPEN
  9
$DIMLUNIT
 70
     2
  9
$DIMLWD
 70
    -2
  9
$DIMLWE
 70
    -2
  9
$DIMTMOVE
 70
     0
  9
$DIMFXL
 40
1.0
  9
$DIMFXLON
 70
     0
  9
$DIMJOGANG
 40
0.7853981633974483
  9
$DIMTFILL
 70
     0
  9
$DIMTFILLCLR
 70
     0
  9
$DIMARCSYM
 70
     0
  9
$DIMLTYPE
  6

  9
$DIMLTEX1
  6

  9
$DIMLTEX2
  6

  9
$DIMTXTDIRECTION
 70
     0
  9
$LUNITS
 70
     2
  9
$LUPREC
 70
     4
  9
$SKETCHINC
 40
1.0
  9
$FILLETRAD
 40
10.0
  9
$AUNITS
 70
     0
  9
$AUPREC
 70
     0
  9
$MENU
  1
acad
  9
$ELEVATION
 40
0.0
  9
$PELEVATION
 40
0.0
  9
$THICKNESS
 40
0.0
  9
$LIMCHECK
 70
     0
  9
$CHAMFERA
 40
10.0
  9
$CHAMFERB
 40
10.0
  9
$CHAMFERC
 40
20.0
  9
$CHAMFERD
 40
0.0
  9
$SKPOLY
 70
     0
  9
$TDCREATE
 40
2455971.778741852
  9
$TDUCREATE
 40
2455971.403741852
  9
$TDUPDATE
 40
2459248.795738912
  9
$TDUUPDATE
 40
2459248.420738912
  9
$TDINDWG
 40
0.4541102546
  9
$TDUSRTIMER
 40
0.4541101389
  9
$USRTIMER
 70
     1
  9
$ANGBASE
 50
0.0
  9
$ANGDIR
 70
     0
  9
$PDMODE
 70
     0
  9
$PDSIZE
 40
0.0
  9
$PLINEWID
 40
0.0
  9
$SPLFRAME
 70
     0
  9
$SPLINETYPE
 70
     6
  9
$SPLINESEGS
 70
     8
  9
$HANDSEED
  5
DAEE
  9
$SURFTAB1
 70
     6
  9
$SURFTAB2
 70
     6
  9
$SURFTYPE
 70
     6
  9
$SURFU
 70
     6
  9
$SURFV
 70
     6
  9
$UCSBASE
  2

  9
$UCSNAME
  2

  9
$UCSORG
 10
0.0
 20
0.0
 30
0.0
  9
$UCSXDIR
 10
1.0
 20
0.0
 30
0.0
  9
$UCSYDIR
 10
0.0
 20
1.0
 30
0.0
  9
$UCSORTHOREF
  2

  9
$UCSORTHOVIEW
 70
     0
  9
$UCSORGTOP
 10
0.0
 20
0.0
 30
0.0
  9
$UCSORGBOTTOM
 10
0.0
 20
0.0
 30
0.0
  9
$UCSORGLEFT
 10
0.0
 20
0.0
 30
0.0
  9
$UCSORGRIGHT
 10
0.0
 20
0.0
 30
0.0
  9
$UCSORGFRONT
 10
0.0
 20
0.0
 30
0.0
  9
$UCSORGBACK
 10
0.0
 20
0.0
 30
0.0
  9
$PUCSBASE
  2

  9
$PUCSNAME
  2

  9
$PUCSORG
 10
0.0
 20
0.0
 30
0.0
  9
$PUCSXDIR
 10
1.0
 20
0.0
 30
0.0
  9
$PUCSYDIR
 10
0.0
 20
1.0
 30
0.0
  9
$PUCSORTHOREF
  2

  9
$PUCSORTHOVIEW
 70
     0
  9
$PUCSORGTOP
 10
0.0
 20
0.0
 30
0.0
  9
$PUCSORGBOTTOM
 10
0.0
 20
0.0
 30
0.0
  9
$PUCSORGLEFT
 10
0.0
 20
0.0
 30
0.0
  9
$PUCSORGRIGHT
 10
0.0
 20
0.0
 30
0.0
  9
$PUCSORGFRONT
 10
0.0
 20
0.0
 30
0.0
  9
$PUCSORGBACK
 10
0.0
 20
0.0
 30
0.0
  9
$USERI1
 70
     0
  9
$USERI2
 70
     0
  9
$USERI3
 70
     0
  9
$USERI4
 70
     0
  9
$USERI5
 70
     0
  9
$USERR1
 40
0.0
  9
$USERR2
 40
0.0
  9
$USERR3
 40
0.0
  9
$USERR4
 40
0.0
  9
$USERR5
 40
0.0
  9
$WORLDVIEW
 70
     1
  9
$SHADEDGE
 70
     3
  9
$SHADEDIF
 70
    70
  9
$TILEMODE
 70
     1
  9
$MAXACTVP
 70
    48
  9
$PINSBASE
 10
0.0
 20
0.0
 30
0.0
  9
$PLIMCHECK
 70
     0
  9
$PEXTMIN
 10
1.000000000000000E+20
 20
1.000000000000000E+20
 30
1.000000000000000E+20
  9
$PEXTMAX
 10
-1.000000000000000E+20
 20
-1.000000000000000E+20
 30
-1.000000000000000E+20
  9
$PLIMMIN
 10
0.0
 20
0.0
  9
$PLIMMAX
 10
420.0
 20
297.0
  9
$UNITMODE
 70
     0
  9
$VISRETAIN
 70
     1
  9
$PLINEGEN
 70
     0
  9
$PSLTSCALE
 70
     1
  9
$TREEDEPTH
 70
  3020
  9
$CMLSTYLE
  2
STANDARD
  9
$CMLJUST
 70
     0
  9
$CMLSCALE
 40
20.0
  9
$PROXYGRAPHICS
 70
     1
  9
$MEASUREMENT
 70
     1
  9
$CELWEIGHT
370
    -1
  9
$ENDCAPS
280
     0
  9
$JOINSTYLE
280
     0
  9
$LWDISPLAY
290
     0
  9
$INSUNITS
 70
     0
  9
$HYPERLINKBASE
  1

  9
$STYLESHEET
  1
TAGAI1.CTB
  9
$XEDIT
290
     1
  9
$CEPSNTYPE
380
     0
  9
$PSTYLEMODE
290
     1
  9
$FINGERPRINTGUID
  2
{8B4E85C4-259A-11D8-AF91-00C04F101805}
  9
$VERSIONGUID
  2
{E9E716BE-F332-4FA4-8604-85A070204183}
  9
$EXTNAMES
290
     1
  9
$PSVPSCALE
 40
0.0
  9
$OLESTARTUP
290
     0
  9
$SORTENTS
280
    96
  9
$INDEXCTL
280
     0
  9
$HIDETEXT
280
     0
  9
$XCLIPFRAME
280
     2
  9
$HALOGAP
280
     0
  9
$OBSCOLOR
 70
   257
  9
$OBSLTYPE
280
     0
  9
$INTERSECTIONDISPLAY
280
     0
  9
$INTERSECTIONCOLOR
 70
   257
  9
$DIMASSOC
280
     1
  9
$PROJECTNAME
  1

  9
$CAMERADISPLAY
290
     0
  9
$LENSLENGTH
 40
50.0
  9
$CAMERAHEIGHT
 40
0.0
  9
$STEPSPERSEC
 40
2.0
  9
$STEPSIZE
 40
6.0
  9
$3DDWFPREC
 40
2.0
  9
$PSOLWIDTH
 40
0.25
  9
$PSOLHEIGHT
 40
4.0
  9
$LOFTANG1
 40
1.570796326794896
  9
$LOFTANG2
 40
1.570796326794896
  9
$LOFTMAG1
 40
0.0
  9
$LOFTMAG2
 40
0.0
  9
$LOFTPARAM
 70
     7
  9
$LOFTNORMALS
280
     1
  9
$LATITUDE
 40
37.795
  9
$LONGITUDE
 40
-122.394
  9
$NORTHDIRECTION
 40
0.0
  9
$TIMEZONE
 70
 -8000
  9
$LIGHTGLYPHDISPLAY
280
     1
  9
$TILEMODELIGHTSYNCH
280
     1
  9
$CMATERIAL
347
57AE
  9
$SOLIDHIST
280
     0
  9
$SHOWHIST
280
     1
  9
$DWFFRAME
280
     2
  9
$DGNFRAME
280
     0
  9
$REALWORLDSCALE
290
     1
  9
$INTERFERECOLOR
 62
     1
  9
$INTERFEREOBJVS
345
57D0
  9
$INTERFEREVPVS
346
57CD
  9
$CSHADOW
280
     0
  9
$SHADOWPLANELOCATION
 40
0.0
  0
ENDSEC
  0
SECTION
  2
CLASSES
  0
CLASS
  1
DICTIONARYVAR
  2
AcDbDictionaryVar
  3
ObjectDBX Classes
 90
        0
 91
       13
280
     0
281
     0
  0
CLASS
  1
ACDBDICTIONARYWDFLT
  2
AcDbDictionaryWithDefault
  3
ObjectDBX Classes
 90
        0
 91
        1
280
     0
281
     0
  0
CLASS
  1
PLOTSETTINGS
  2
AcDbPlotSettings
  3
ObjectDBX Classes
 90
        0
 91
        6
280
     0
281
     0
  0
CLASS
  1
MATERIAL
  2
AcDbMaterial
  3
ObjectDBX Classes
 90
     1153
 91
        3
280
     0
281
     0
  0
CLASS
  1
VISUALSTYLE
  2
AcDbVisualStyle
  3
ObjectDBX Classes
 90
     4095
 91
       24
280
     0
281
     0
  0
CLASS
  1
TABLESTYLE
  2
AcDbTableStyle
  3
ObjectDBX Classes
 90
     4095
 91
        1
280
     0
281
     0
  0
CLASS
  1
SCALE
  2
AcDbScale
  3
ObjectDBX Classes
 90
     1153
 91
       17
280
     0
281
     0
  0
CLASS
  1
MLEADERSTYLE
  2
AcDbMLeaderStyle
  3
ACDB_MLEADERSTYLE_CLASS
 90
     4095
 91
        1
280
     0
281
     0
  0
CLASS
  1
ACDBSECTIONVIEWSTYLE
  2
AcDbSectionViewStyle
  3
ObjectDBX Classes
 90
     1025
 91
        2
280
     0
281
     0
  0
CLASS
  1
ACDBDETAILVIEWSTYLE
  2
AcDbDetailViewStyle
  3
ObjectDBX Classes
 90
     1025
 91
        2
280
     0
281
     0
  0
CLASS
  1
CELLSTYLEMAP
  2
AcDbCellStyleMap
  3
ObjectDBX Classes
 90
     1152
 91
       44
280
     0
281
     0
  0
CLASS
  1
SORTENTSTABLE
  2
AcDbSortentsTable
  3
ObjectDBX Classes
 90
        0
 91
       21
280
     0
281
     0
  0
CLASS
  1
LARGE_RADIAL_DIMENSION
  2
AcDbRadialDimensionLarge
  3
ObjectDBX Classes
 90
     1025
 91
        0
280
     0
281
     1
  0
ENDSEC
  0
SECTION
  2
TABLES
  0
TABLE
  2
VPORT
  5
8
102
{ACAD_XDICTIONARY
360
5826
102
}
330
0
100
AcDbSymbolTable
 70
     1
  0
VPORT
  5
57AB
330
8
100
AcDbSymbolTableRecord
100
AcDbViewportTableRecord
  2
*Active
 70
     0
 10
0.0
 20
0.0
 11
1.0
 21
1.0
 12
2575.112931398924
 22
875.9301278937355
 13
0.0
 23
0.0
 14
10.0
 24
10.0
 15
10.0
 25
10.0
 16
0.0
 26
0.0
 36
1.0
 17
0.0
 27
0.0
 37
0.0
 40
972.1890319259905
 41
1.865577889447236
 42
50.0
 43
0.0
 44
0.0
 50
0.0
 51
0.0
 71
     0
 72
   100
 73
     1
 74
     1
 75
     0
 76
     0
 77
     0
 78
     0
281
     0
 65
     1
110
0.0
120
0.0
130
0.0
111
1.0
121
0.0
131
0.0
112
0.0
122
1.0
132
0.0
 79
     0
146
0.0
348
57CC
 60
     3
 61
     5
292
     1
282
     1
141
0.0
142
0.0
 63
   250
421
  3355443
1001
ACAD_NAV_VCDISPLAY
1070
     3
  0
ENDTAB
  0
TABLE
  2
LTYPE
  5
5
330
0
100
AcDbSymbolTable
 70
     5
  0
LTYPE
  5
12
330
5
100
AcDbSymbolTableRecord
100
AcDbLinetypeTableRecord
  2
BYBLOCK
 70
     0
  3

 72
    65
 73
     0
 40
0.0
  0
LTYPE
  5
13
330
5
100
AcDbSymbolTableRecord
100
AcDbLinetypeTableRecord
  2
BYLAYER
 70
     0
  3

 72
    65
 73
     0
 40
0.0
  0
LTYPE
  5
14
330
5
100
AcDbSymbolTableRecord
100
AcDbLinetypeTableRecord
  2
CONTINUOUS
 70
     0
  3
Solid line
 72
    65
 73
     0
 40
0.0
  0
ENDTAB
  0
TABLE
  2
LAYER
  5
2
102
{ACAD_XDICTIONARY
360
2886
102
}
330
0
100
AcDbSymbolTable
 70
    16
  0
LAYER
  5
E
102
{ACAD_XDICTIONARY
360
5800
102
}
330
2
100
AcDbSymbolTableRecord
100
AcDbLayerTableRecord
  2
0
 70
     0
 62
     7
  6
CONTINUOUS
370
    -3
390
75D
347
57BE
348
0
  0
LAYER
  5
32B
330
2
100
AcDbSymbolTableRecord
100
AcDbLayerTableRecord
  2
DEFPOINTS
 70
     0
 62
     7
  6
CONTINUOUS
290
     0
370
    -3
390
75D
347
57BE
348
0
  0
LAYER
  5
32C
102
{ACAD_XDICTIONARY
360
5804
102
}
330
2
100
AcDbSymbolTableRecord
100
AcDbLayerTableRecord
  2
OBJECT1
 70
     0
 62
     7
  6
CONTINUOUS
370
    -3
390
75D
347
57BE
348
0
  0
LAYER
  5
D0AE
102
{ACAD_XDICTIONARY
360
D0AF
102
}
330
2
100
AcDbSymbolTableRecord
100
AcDbLayerTableRecord
  2
1：主線
 70
     0
 62
     7
  6
CONTINUOUS
370
    -3
390
75D
347
57BE
348
0
  0
LAYER
  5
D0DD
102
{ACAD_XDICTIONARY
360
D0DE
102
}
330
2
100
AcDbSymbolTableRecord
100
AcDbLayerTableRecord
  2
7：文字
 70
     0
 62
     2
  6
CONTINUOUS
370
    -3
390
75D
347
57BE
348
0
  0
LAYER
  5
D108
102
{ACAD_XDICTIONARY
360
D109
102
}
330
2
100
AcDbSymbolTableRecord
100
AcDbLayerTableRecord
  2
2：副線
 70
     0
 62
     5
  6
CONTINUOUS
370
    -3
390
75D
347
57BE
348
0
  0
ENDTAB
  0
TABLE
  2
STYLE
  5
3
330
0
100
AcDbSymbolTable
 70
     4
  0
STYLE
  5
F
330
3
100
AcDbSymbolTableRecord
100
AcDbTextStyleTableRecord
  2
STANDARD
 70
     0
 40
0.0
 41
1.0
 50
0.0
 71
     0
 42
3.0
  3
isocp.shx
  4
bigfont.shx
  0
ENDTAB
  0
TABLE
  2
VIEW
  5
6
330
0
100
AcDbSymbolTable
 70
    24
  0
ENDTAB
  0
TABLE
  2
UCS
  5
7
330
0
100
AcDbSymbolTable
 70
     0
  0
ENDTAB
  0
TABLE
  2
APPID
  5
9
330
0
100
AcDbSymbolTable
 70
    20
  0
APPID
  5
10
330
9
100
AcDbSymbolTableRecord
100
AcDbRegAppTableRecord
  2
ACAD
 70
     0
  0
APPID
  5
24
330
9
100
AcDbSymbolTableRecord
100
AcDbRegAppTableRecord
  2
CONTENTTABDATA
 70
     0
  0
APPID
  5
25
330
9
100
AcDbSymbolTableRecord
100
AcDbRegAppTableRecord
  2
CONTENTCURRENTTAB
 70
     0
  0
APPID
  5
469D
330
9
100
AcDbSymbolTableRecord
100
AcDbRegAppTableRecord
  2
GENIUS_GENODEF_13
 70
     0
  0
APPID
  5
469E
330
9
100
AcDbSymbolTableRecord
100
AcDbRegAppTableRecord
  2
GENIUS_GENOBJ-N-REC_13
 70
     0
  0
APPID
  5
469F
330
9
100
AcDbSymbolTableRecord
100
AcDbRegAppTableRecord
  2
GENIUS_GENREC_14
 70
     0
  0
APPID
  5
5820
330
9
100
AcDbSymbolTableRecord
100
AcDbRegAppTableRecord
  2
ACAD_PSEXT
 70
     0
  0
APPID
  5
5821
330
9
100
AcDbSymbolTableRecord
100
AcDbRegAppTableRecord
  2
ACAD_NAV_VCDISPLAY
 70
     0
  0
APPID
  5
5870
330
9
100
AcDbSymbolTableRecord
100
AcDbRegAppTableRecord
  2
ACAD_MLEADERVER
 70
     0
  0
APPID
  5
58E3
330
9
100
AcDbSymbolTableRecord
100
AcDbRegAppTableRecord
  2
ACAD_EXEMPT_FROM_CAD_STANDARDS
 70
     0
  0
APPID
  5
60EC
330
9
100
AcDbSymbolTableRecord
100
AcDbRegAppTableRecord
  2
ACAD_DSTYLE_DIMBREAK
 70
     0
  0
APPID
  5
60ED
330
9
100
AcDbSymbolTableRecord
100
AcDbRegAppTableRecord
  2
ACAD_DSTYLE_DIMJAG
 70
     0
  0
APPID
  5
60EE
330
9
100
AcDbSymbolTableRecord
100
AcDbRegAppTableRecord
  2
ACAD_DSTYLE_DIMTALN
 70
     0
  0
APPID
  5
6C6A
330
9
100
AcDbSymbolTableRecord
100
AcDbRegAppTableRecord
  2
AcadAnnoMonitorAlertIconDisabled
 70
     0
  0
APPID
  5
6E52
330
9
100
AcDbSymbolTableRecord
100
AcDbRegAppTableRecord
  2
ACAD_DSTYLE_DIMRADIAL_EXTENSION
 70
     0
  0
APPID
  5
7970
330
9
100
AcDbSymbolTableRecord
100
AcDbRegAppTableRecord
  2
AcAecLayerStandard
 70
     0
  0
APPID
  5
7971
330
9
100
AcDbSymbolTableRecord
100
AcDbRegAppTableRecord
  2
AcCmTransparency
 70
     0
  0
APPID
  5
7972
330
9
100
AcDbSymbolTableRecord
100
AcDbRegAppTableRecord
  2
GradientColor1ACI
 70
     0
  0
APPID
  5
7973
330
9
100
AcDbSymbolTableRecord
100
AcDbRegAppTableRecord
  2
GradientColor2ACI
 70
     0
  0
APPID
  5
9B48
330
9
100
AcDbSymbolTableRecord
100
AcDbRegAppTableRecord
  2
AcDbDynamicBlockGUID
 70
     0
  0
ENDTAB
  0
TABLE
  2
DIMSTYLE
  5
A
330
0
100
AcDbSymbolTable
 70
     7
100
AcDbDimStyleTable
 71
     1
340
1D
  0
DIMSTYLE
105
1D
330
A
100
AcDbSymbolTableRecord
100
AcDbDimStyleTableRecord
  2
STANDARD
 70
     0
 41
2.5
 42
1.25
 43
7.0
 44
1.25
 73
     0
 74
     0
 77
     3
 78
     8
 79
     2
140
3.0
141
3.0
147
1.0
172
     1
173
     1
176
     1
177
     1
178
     2
179
     2
271
     2
272
     2
289
     0
340
F
341
36
343
36
344
36
  0
DIMSTYLE
105
D1A2
330
A
100
AcDbSymbolTableRecord
100
AcDbDimStyleTableRecord
  2
×1
 70
     0
 41
2.0
 42
1.6
 43
6.0
 44
0.8
 73
     0
 74
     0
 77
     3
 78
     8
 79
     2
 90
     1
140
7.0
141
3.0
147
1.0
172
     1
173
     1
176
     1
177
     1
178
     2
179
     2
271
     2
272
     2
340
F
341
36
343
36
344
36
1001
ACAD_DSTYLE_DIMJAG
1070
   388
1040
1.5
1001
ACAD_DSTYLE_DIMTALN
1070
   392
1070
     0
  0
ENDTAB
  0
TABLE
  2
BLOCK_RECORD
  5
1
330
0
100
AcDbSymbolTable
 70
    41
  0
BLOCK_RECORD
  5
18
102
{ACAD_XDICTIONARY
360
5B07
102
}
330
1
100
AcDbSymbolTableRecord
100
AcDbBlockTableRecord
  2
*MODEL_SPACE
340
760
 70
     0
280
     1
281
     0
  0
BLOCK_RECORD
  5
15
330
1
100
AcDbSymbolTableRecord
100
AcDbBlockTableRecord
  2
*PAPER_SPACE
340
761
 70
     0
280
     1
281
     0
  0
BLOCK_RECORD
  5
36
330
1
100
AcDbSymbolTableRecord
100
AcDbBlockTableRecord
  2
_OPEN
340
0
 70
     0
280
     1
281
     0
  0
ENDTAB
  0
ENDSEC
  0
SECTION
  2
BLOCKS
  0
BLOCK
  5
19
330
18
100
AcDbEntity
  8
0
100
AcDbBlockBegin
  2
*MODEL_SPACE
 70
     0
 10
0.0
 20
0.0
 30
0.0
  3
*MODEL_SPACE
  1

  0
ENDBLK
  5
1A
330
18
100
AcDbEntity
  8
0
100
AcDbBlockEnd
  0
BLOCK
  5
16
330
15
100
AcDbEntity
 67
     1
  8
0
100
AcDbBlockBegin
  2
*PAPER_SPACE
 70
     0
 10
0.0
 20
0.0
 30
0.0
  3
*PAPER_SPACE
  1

  0
ENDBLK
  5
17
330
15
100
AcDbEntity
 67
     1
  8
0
100
AcDbBlockEnd
  0
BLOCK
  5
3A
330
36
100
AcDbEntity
  8
0
 48
0.3
100
AcDbBlockBegin
  2
_OPEN
 70
     0
 10
0.0
 20
0.0
 30
0.0
  3
_OPEN
  1

  0
LINE
  5
37
330
36
100
AcDbEntity
  8
0
  6
ByBlock
 62
     0
 48
0.3
100
AcDbLine
 10
-1.0
 20
0.1666666666666666
 30
0.0
 11
0.0
 21
0.0
 31
0.0
  0
LINE
  5
38
330
36
100
AcDbEntity
  8
0
  6
ByBlock
 62
     0
 48
0.3
100
AcDbLine
 10
0.0
 20
0.0
 30
0.0
 11
-1.0
 21
-0.1666666666666666
 31
0.0
  0
LINE
  5
39
330
36
100
AcDbEntity
  8
0
  6
ByBlock
 62
     0
 48
0.3
100
AcDbLine
 10
0.0
 20
0.0
 30
0.0
 11
-1.0
 21
0.0
 31
0.0
  0
ENDBLK
  5
3B
330
36
100
AcDbEntity
  8
0
 48
0.3
100
AcDbBlockEnd
  0
ENDSEC
  0
SECTION
  2
ENTITIES
  0
MTEXT
  5
7A27
330
18
100
AcDbEntity
  8
OBJECT1
 62
     2
100
AcDbMText
 10
-161.5789866452596
 20
242.342904486376
 30
0.0
 40
3.0
 41
0.0
 46
0.0
 71
     7
 72
     1
  1
　　　
 73
     1
 44
1.0
  0
MTEXT
  5
D0E7
330
18
100
AcDbEntity
  8
7：文字
 62
     7
 48
2.0
100
AcDbMText
 10
2194.868545819932
 20
434.9228423202216
 30
0.0
 40
30.0
 41
849.3346084697718
 46
0.0
 71
     1
 72
     5
  1
{\fMS PGothic|b0|i0|c128|p50;LP-2104A-38L+ALP-2104A（専用アーム）}
 73
     1
 44
1.0
1001
ACAD
1000
ACAD_MTEXT_COLUMN_INFO_BEGIN
1070
    75
1070
     2
1070
    79
1070
     0
1070
    76
1070
     1
1070
    78
1070
     0
1070
    48
1040
849.3346084697718
1070
    49
1040
15.0
1070
    50
1070
     1
1040
0.0
1000
ACAD_MTEXT_COLUMN_INFO_END
  0
LINE
  5
DA12
330
18
100
AcDbEntity
  8
1：主線
100
AcDbLine
 10
2693.537463656094
 20
1231.702341764655
 30
0.0000000000179412
 11
2693.537463656094
 21
1170.465014697576
 31
0.0000000000185629
210
0.7071067811865466
220
-0.4082482904638622
230
0.5773502691896276
  0
SPLINE
  5
DA13
330
18
100
AcDbEntity
  8
1：主線
100
AcDbSpline
210
-0.0000000000682533
220
-0.0000000001293032
230
1.0
 70
     8
 71
     3
 72
    11
 73
     7
 74
     0
 42
0.000000001
 43
0.0000000001
 40
-0.0088646311780537
 40
-0.0088646311780537
 40
-0.0088646311780537
 40
-0.0088646311780537
 40
0.0
 40
0.0
 40
0.0
 40
0.0593264163634442
 40
0.0593264163634442
 40
0.0593264163634442
 40
0.0593264163634442
 10
2691.032186499507
 20
1233.067836850844
 30
0.0000000000275335
 10
2691.136010245845
 20
1233.006686703837
 30
0.0000000000293987
 10
2691.240166548335
 20
1232.945951760192
 30
0.0000000000264677
 10
2691.34463722865
 20
1232.885635584777
 30
0.0000000000214051
 10
2692.043805750552
 20
1232.481970450457
 30
0.0000000000241585
 10
2692.775561733055
 20
1232.086376844374
 30
0.0000000000174971
 10
2693.537463656089
 20
1231.702341764655
 30
0.000000000022915
  0
LINE
  5
DA14
330
18
100
AcDbEntity
  8
1：主線
100
AcDbLine
 10
2714.4499565464
 20
1246.116101607314
 30
0.0000000000157208
 11
2714.4499565464
 21
1286.947149420045
 31
0.0000000000239808
210
0.7071067811865466
220
-0.4082482904638622
230
0.5773502691896276
  0
ELLIPSE
  5
DA15
330
18
100
AcDbEntity
  8
1：主線
100
AcDbEllipse
 10
2722.846244330503
 20
1311.681632623723
 30
0.0000000000206946
 11
44.54841805929603
 21
-0.6619166850873846
 31
-0.0000000000000124
210
-0.0000000000000003
220
-0.0000000000000001
230
-1.0
 40
0.5671876532381026
 41
1.751971878952677
 42
2.943562537343042
  0
LINE
  5
DA16
330
18
100
AcDbEntity
  8
1：主線
100
AcDbLine
 10
2336.048469471155
 20
1035.272724249242
 30
0.0000000000232703
 11
2714.4499565464
 21
1246.116101607314
 31
0.0000000000157208
210
0.7071067811865466
220
-0.4082482904638622
230
0.5773502691896276
  0
LINE
  5
DA17
330
18
100
AcDbEntity
  8
1：主線
100
AcDbLine
 10
2300.693130411838
 20
1055.685138772449
 30
0.0000000000145661
 11
2336.048469471155
 21
1035.272724249242
 31
0.0000000000232703
210
0.7071067811865466
220
-0.4082482904638622
230
0.5773502691896276
  0
LINE
  5
DA18
330
18
100
AcDbEntity
  8
1：主線
100
AcDbLine
 10
2425.861396232154
 20
1012.618305809545
 30
0.0000000000236255
 11
2425.861396232159
 21
1016.292540423721
 31
0.0000000000145661
210
0.7071067811865466
220
-0.4082482904638622
230
0.5773502691896276
  0
LINE
  5
DA19
330
18
100
AcDbEntity
  8
1：主線
100
AcDbLine
 10
2425.861396232159
 20
1016.292540423721
 30
0.0000000000145661
 11
2369.292853737233
 21
983.6326771866001
 31
0.0000000000257572
210
0.7071067811865466
220
-0.4082482904638622
230
0.5773502691896276
  0
LINE
  5
DA1A
330
18
100
AcDbEntity
  8
1：主線
100
AcDbLine
 10
2369.292853737233
 20
983.6326771866001
 30
0.0000000000257572
 11
2369.292853737233
 21
979.9584425724365
 31
0.0000000000177636
210
0.7071067811865466
220
-0.4082482904638622
230
0.5773502691896276
  0
LINE
  5
DA1B
330
18
100
AcDbEntity
  8
1：主線
100
AcDbLine
 10
2425.861396232154
 20
1012.618305809545
 30
0.0000000000236255
 11
2369.292853737233
 21
979.9584425724365
 31
0.0000000000177636
210
0.7071067811865466
220
-0.4082482904638622
230
0.5773502691896276
  0
LINE
  5
DA1C
330
18
100
AcDbEntity
  8
1：主線
100
AcDbLine
 10
2390.642853737234
 20
1036.625975413634
 30
0.0000000000212275
 11
2425.861396232159
 21
1016.292540423721
 31
0.0000000000145661
210
0.7071067811865466
220
-0.4082482904638622
230
0.5773502691896276
  0
LINE
  5
DA1D
330
18
100
AcDbEntity
  8
1：主線
100
AcDbLine
 10
2312.724311242312
 20
1016.292540423721
 30
0.0000000000142109
 11
2347.942853737238
 21
1036.625975413634
 31
0.0000000000172307
210
0.7071067811865466
220
-0.4082482904638622
230
0.5773502691896276
  0
LINE
  5
DA1E
330
18
100
AcDbEntity
  8
1：主線
100
AcDbLine
 10
2369.292853737233
 20
983.6326771866001
 30
0.0000000000257572
 11
2312.724311242312
 21
1016.292540423721
 31
0.0000000000142109
210
0.7071067811865466
220
-0.4082482904638622
230
0.5773502691896276
  0
LINE
  5
DA1F
330
18
100
AcDbEntity
  8
1：主線
100
AcDbLine
 10
2312.724311242307
 20
1012.618305809545
 30
0.0000000000232703
 11
2312.724311242312
 21
1016.292540423721
 31
0.0000000000142109
210
0.7071067811865466
220
-0.4082482904638622
230
0.5773502691896276
  0
LINE
  5
DA20
330
18
100
AcDbEntity
  8
1：主線
100
AcDbLine
 10
2369.292853737233
 20
979.9584425724365
 30
0.0000000000177636
 11
2312.724311242307
 21
1012.618305809545
 31
0.0000000000232703
210
0.7071067811865466
220
-0.4082482904638622
230
0.5773502691896276
  0
LINE
  5
DA21
330
18
100
AcDbEntity
  8
1：主線
100
AcDbLine
 10
2316.256199604561
 20
1065.075620305735
 30
0.0000000000188294
 11
2336.048469471155
 21
1035.272724249242
 31
0.0000000000232703
210
0.7071067811865466
220
-0.4082482904638622
230
0.5773502691896276
  0
LINE
  5
DA22
330
18
100
AcDbEntity
  8
1：主線
100
AcDbLine
 10
2714.4499565464
 20
1286.947149420045
 30
0.0000000000239808
 11
2316.256199604561
 21
1065.075620305735
 31
0.0000000000188294
210
0.7071067811865466
220
-0.4082482904638622
230
0.5773502691896276
  0
LINE
  5
DA23
330
18
100
AcDbEntity
  8
1：主線
100
AcDbLine
 10
2280.900860545228
 20
1085.48803482893
 30
0.0000000000159872
 11
2679.094617487079
 21
1307.359563943252
 31
0.0000000000152767
210
0.7071067811865466
220
-0.4082482904638622
230
0.5773502691896276
  0
LINE
  5
DA24
330
18
100
AcDbEntity
  8
1：主線
100
AcDbLine
 10
2316.256199604561
 20
1065.075620305735
 30
0.0000000000188294
 11
2280.900860545228
 21
1085.48803482893
 31
0.0000000000159872
210
0.7071067811865466
220
-0.4082482904638622
230
0.5773502691896276
  0
LINE
  5
DA25
330
18
100
AcDbEntity
  8
1：主線
100
AcDbLine
 10
2300.693130411838
 20
1055.685138772449
 30
0.0000000000145661
 11
2280.900860545228
 21
1085.48803482893
 31
0.0000000000159872
210
0.7071067811865466
220
-0.4082482904638622
230
0.5773502691896276
  0
LINE
  5
DA26
330
18
100
AcDbEntity
  8
1：主線
100
AcDbLine
 10
2668.465957572204
 20
1167.947206000966
 30
0.0000000000176748
 11
2664.223316885085
 21
1170.396695743754
 31
0.0000000000227374
210
0.7071067811865466
220
-0.4082482904638622
230
0.5773502691896276
  0
LINE
  5
DA27
330
18
100
AcDbEntity
  8
1：主線
100
AcDbLine
 10
2633.110618512877
 20
1188.359620524162
 30
0.0000000000145661
 11
2628.867977825752
 21
1190.809110266949
 31
0.0000000000196287
210
0.7071067811865466
220
-0.4082482904638622
230
0.5773502691896276
  0
LINE
  5
DA28
330
18
100
AcDbEntity
  8
1：主線
100
AcDbLine
 10
2678.296244330506
 20
1128.60171916897
 30
0.0000000000197176
 11
2678.2962443305
 21
1165.614233318527
 31
0.0000000000195399
210
0.7071067811865466
220
-0.4082482904638622
230
0.5773502691896276
  0
LINE
  5
DA29
330
18
100
AcDbEntity
  8
1：主線
100
AcDbLine
 10
2678.296244330506
 20
1306.914714495034
 30
0.0000000000211386
 11
2678.2962443305
 21
1332.725864400906
 31
0.0000000000234479
210
0.7071067811865466
220
-0.4082482904638622
230
0.5773502691896276
  0
LINE
  5
DA2A
330
18
100
AcDbEntity
  8
1：主線
100
AcDbLine
 10
2767.396244330502
 20
1128.60171916897
 30
0.000000000019984
 11
2767.396244330502
 21
1332.725864400906
 31
0.0000000000236255
210
0.7071067811865466
220
-0.4082482904638622
230
0.5773502691896276
  0
LINE
  5
DA2B
330
18
100
AcDbEntity
  8
1：主線
100
AcDbLine
 10
2347.942853737238
 20
1016.292540423721
 30
0.0000000000142109
 11
2347.942853737231
 21
1041.90021445717
 31
0.0000000000220268
210
0.7071067811865466
220
-0.4082482904638622
230
0.5773502691896276
  0
LINE
  5
DA2C
330
18
100
AcDbEntity
  8
1：主線
100
AcDbLine
 10
2390.642853737228
 20
1016.292540423709
 30
0.0000000000257572
 11
2390.642853737228
 21
1065.692436530018
 31
0.0000000000263789
210
0.7071067811865466
220
-0.4082482904638622
230
0.5773502691896276
  0
LINE
  5
DA2D
330
18
100
AcDbEntity
  8
1：主線
100
AcDbLine
 10
2280.904506088914
 20
712.555812318576
 30
0.000000000017808
 11
2259.691302653321
 21
724.8032610325004
 31
0.0000000000177192
210
0.7071067811865466
220
-0.4082482904638622
230
0.5773502691896276
  0
LINE
  5
DA2E
330
18
100
AcDbEntity
  8
1：主線
100
AcDbLine
 10
2280.904506088914
 20
712.555812318576
 30
0.000000000017808
 11
2287.975573900773
 21
716.6382952232175
 31
0.0000000000249134
210
0.7071067811865466
220
-0.4082482904638622
230
0.5773502691896276
  0
LINE
  5
DA2F
330
18
100
AcDbEntity
  8
1：主線
100
AcDbLine
 10
2287.975573900773
 20
716.6382952232175
 30
0.0000000000249134
 11
2266.762370465186
 21
728.8857439371418
 31
0.0000000000134559
210
0.7071067811865466
220
-0.4082482904638622
230
0.5773502691896276
  0
LINE
  5
DA30
330
18
100
AcDbEntity
  8
1：主線
100
AcDbLine
 10
2259.691302653321
 20
724.8032610325004
 30
0.0000000000177192
 11
2266.762370465186
 21
728.8857439371418
 31
0.0000000000134559
210
0.7071067811865466
220
-0.4082482904638622
230
0.5773502691896276
  0
LINE
  5
DA31
330
18
100
AcDbEntity
  8
1：主線
100
AcDbLine
 10
2280.904506088909
 20
704.390846509305
 30
0.0000000000250022
 11
2280.904506088914
 21
712.555812318576
 31
0.000000000017808
210
0.7071067811865466
220
-0.4082482904638622
230
0.5773502691896276
  0
LINE
  5
DA32
330
18
100
AcDbEntity
  8
1：主線
100
AcDbLine
 10
2280.904506088909
 20
704.390846509305
 30
0.0000000000250022
 11
2287.975573900779
 21
708.4733294139346
 31
0.000000000020739
210
0.7071067811865466
220
-0.4082482904638622
230
0.5773502691896276
  0
LINE
  5
DA33
330
18
100
AcDbEntity
  8
1：主線
100
AcDbLine
 10
2287.975573900779
 20
708.4733294139346
 30
0.000000000020739
 11
2287.975573900773
 21
716.6382952232175
 31
0.0000000000249134
210
0.7071067811865466
220
-0.4082482904638622
230
0.5773502691896276
  0
LINE
  5
DA34
330
18
100
AcDbEntity
  8
1：主線
100
AcDbLine
 10
2259.691302653321
 20
716.6382952232175
 30
0.0000000000184297
 11
2280.904506088909
 21
704.390846509305
 31
0.0000000000250022
210
0.7071067811865466
220
-0.4082482904638622
230
0.5773502691896276
  0
LINE
  5
DA35
330
18
100
AcDbEntity
  8
1：主線
100
AcDbLine
 10
2259.691302653316
 20
602.3287738933372
 30
0.0000000000212719
 11
2259.691302653321
 21
716.6382952232175
 31
0.0000000000184297
210
0.7071067811865466
220
-0.4082482904638622
230
0.5773502691896276
  0
LINE
  5
DA36
330
18
100
AcDbEntity
  8
1：主線
100
AcDbLine
 10
2259.691302653316
 20
602.3287738933372
 30
0.0000000000212719
 11
2266.762370465186
 21
606.4112567979787
 31
0.0000000000170086
210
0.7071067811865466
220
-0.4082482904638622
230
0.5773502691896276
  0
LINE
  5
DA37
330
18
100
AcDbEntity
  8
1：主線
100
AcDbLine
 10
2266.762370465186
 20
606.4112567979787
 30
0.0000000000170086
 11
2266.762370465186
 21
712.555812318576
 31
0.0000000000212719
210
0.7071067811865466
220
-0.4082482904638622
230
0.5773502691896276
  0
LINE
  5
DA38
330
18
100
AcDbEntity
  8
1：主線
100
AcDbLine
 10
2302.117709524519
 20
577.8338764654995
 30
0.0000000000174527
 11
2259.691302653316
 21
602.3287738933372
 31
0.0000000000212719
210
0.7071067811865466
220
-0.4082482904638622
230
0.5773502691896276
  0
LINE
  5
DA39
330
18
100
AcDbEntity
  8
1：主線
100
AcDbLine
 10
2302.117709524513
 20
585.9988422747824
 30
0.0000000000216271
 11
2266.762370465186
 21
606.4112567979787
 31
0.0000000000170086
210
0.7071067811865466
220
-0.4082482904638622
230
0.5773502691896276
  0
LINE
  5
DA3A
330
18
100
AcDbEntity
  8
1：主線
100
AcDbLine
 10
2302.117709524519
 20
741.1331926510434
 30
0.0000000000175415
 11
2302.117709524519
 21
577.8338764654995
 31
0.0000000000174527
210
0.7071067811865466
220
-0.4082482904638622
230
0.5773502691896276
  0
LINE
  5
DA3B
330
18
100
AcDbEntity
  8
1：主線
100
AcDbLine
 10
2259.691302653321
 20
765.6280900788811
 30
0.0000000000162981
 11
2302.117709524519
 21
741.1331926510434
 31
0.0000000000175415
210
0.7071067811865466
220
-0.4082482904638622
230
0.5773502691896276
  0
LINE
  5
DA3C
330
18
100
AcDbEntity
  8
1：主線
100
AcDbLine
 10
2259.691302653321
 20
724.8032610325004
 30
0.0000000000177192
 11
2259.691302653321
 21
765.6280900788811
 31
0.0000000000162981
210
0.7071067811865466
220
-0.4082482904638622
230
0.5773502691896276
  0
LINE
  5
DA3D
330
18
100
AcDbEntity
  8
1：主線
100
AcDbLine
 10
2266.762370465186
 20
728.8857439371418
 30
0.0000000000134559
 11
2266.762370465192
 21
761.5456071742396
 31
0.0000000000191402
210
0.7071067811865466
220
-0.4082482904638622
230
0.5773502691896276
  0
LINE
  5
DA3E
330
18
100
AcDbEntity
  8
1：主線
100
AcDbLine
 10
2252.620234841463
 20
802.3704362206313
 30
0.0000000000191402
 11
2252.620234841456
 21
777.8755387928054
 31
0.0000000000120348
210
0.7071067811865466
220
-0.4082482904638622
230
0.5773502691896276
  0
LINE
  5
DA3F
330
18
100
AcDbEntity
  8
1：主線
100
AcDbLine
 10
2252.620234841463
 20
802.3704362206313
 30
0.0000000000191402
 11
2259.691302653316
 21
806.4529191252727
 31
0.0000000000262457
210
0.7071067811865466
220
-0.4082482904638622
230
0.5773502691896276
  0
LINE
  5
DA40
330
18
100
AcDbEntity
  8
1：主線
100
AcDbLine
 10
2259.691302653321
 20
798.2879533159898
 30
0.0000000000219824
 11
2252.620234841463
 21
802.3704362206313
 31
0.0000000000191402
210
0.7071067811865466
220
-0.4082482904638622
230
0.5773502691896276
  0
LINE
  5
DA41
330
18
100
AcDbEntity
  8
1：主線
100
AcDbLine
 10
2259.691302653321
 20
798.2879533159898
 30
0.0000000000219824
 11
2266.762370465192
 21
802.3704362206313
 31
0.0000000000177192
210
0.7071067811865466
220
-0.4082482904638622
230
0.5773502691896276
  0
LINE
  5
DA42
330
18
100
AcDbEntity
  8
1：主線
100
AcDbLine
 10
2266.762370465192
 20
802.3704362206313
 30
0.0000000000177192
 11
2259.691302653316
 21
806.4529191252727
 31
0.0000000000262457
210
0.7071067811865466
220
-0.4082482904638622
230
0.5773502691896276
  0
LINE
  5
DA43
330
18
100
AcDbEntity
  8
1：主線
100
AcDbLine
 10
2259.691302653321
 20
773.7930558881521
 30
0.0000000000205613
 11
2259.691302653321
 21
798.2879533159898
 31
0.0000000000219824
210
0.7071067811865466
220
-0.4082482904638622
230
0.5773502691896276
  0
LINE
  5
DA44
330
18
100
AcDbEntity
  8
1：主線
100
AcDbLine
 10
2259.691302653321
 20
773.7930558881521
 30
0.0000000000205613
 11
2266.762370465192
 21
777.8755387927936
 31
0.0000000000162981
210
0.7071067811865466
220
-0.4082482904638622
230
0.5773502691896276
  0
LINE
  5
DA45
330
18
100
AcDbEntity
  8
1：主線
100
AcDbLine
 10
2266.762370465192
 20
777.8755387927936
 30
0.0000000000162981
 11
2266.762370465192
 21
802.3704362206313
 31
0.0000000000177192
210
0.7071067811865466
220
-0.4082482904638622
230
0.5773502691896276
  0
LINE
  5
DA46
330
18
100
AcDbEntity
  8
1：主線
100
AcDbLine
 10
2302.117709524513
 20
749.2981584603263
 30
0.0000000000218048
 11
2259.691302653321
 21
773.7930558881521
 31
0.0000000000205613
210
0.7071067811865466
220
-0.4082482904638622
230
0.5773502691896276
  0
LINE
  5
DA47
330
18
100
AcDbEntity
  8
1：主線
100
AcDbLine
 10
2302.117709524519
 20
757.4631242696091
 30
0.0000000000263345
 11
2266.762370465192
 21
777.8755387927936
 31
0.0000000000162981
210
0.7071067811865466
220
-0.4082482904638622
230
0.5773502691896276
  0
LINE
  5
DA48
330
18
100
AcDbEntity
  8
1：主線
100
AcDbLine
 10
2302.117709524519
 20
790.122987506707
 30
0.0000000000157652
 11
2302.117709524513
 21
749.2981584603263
 31
0.0000000000218048
210
0.7071067811865466
220
-0.4082482904638622
230
0.5773502691896276
  0
LINE
  5
DA49
330
18
100
AcDbEntity
  8
1：主線
100
AcDbLine
 10
2280.904506088914
 20
802.3704362206313
 30
0.0000000000264233
 11
2302.117709524519
 21
790.122987506707
 31
0.0000000000157652
210
0.7071067811865466
220
-0.4082482904638622
230
0.5773502691896276
  0
LINE
  5
DA4A
330
18
100
AcDbEntity
  8
1：主線
100
AcDbLine
 10
2280.904506088914
 20
810.5354020299023
 30
0.0000000000193179
 11
2280.904506088914
 21
802.3704362206313
 31
0.0000000000264233
210
0.7071067811865466
220
-0.4082482904638622
230
0.5773502691896276
  0
LINE
  5
DA4B
330
18
100
AcDbEntity
  8
1：主線
100
AcDbLine
 10
2280.904506088914
 20
810.5354020299023
 30
0.0000000000193179
 11
2287.975573900779
 21
814.6178849345437
 31
0.0000000000264233
210
0.7071067811865466
220
-0.4082482904638622
230
0.5773502691896276
  0
LINE
  5
DA4C
330
18
100
AcDbEntity
  8
1：主線
100
AcDbLine
 10
2302.117709524519
 20
798.287953315978
 30
0.0000000000200284
 11
2280.904506088914
 21
810.5354020299023
 31
0.0000000000193179
210
0.7071067811865466
220
-0.4082482904638622
230
0.5773502691896276
  0
LINE
  5
DA4D
330
18
100
AcDbEntity
  8
1：主線
100
AcDbLine
 10
2302.117709524513
 20
806.4529191252608
 30
0.0000000000298872
 11
2287.975573900779
 21
814.6178849345437
 31
0.0000000000264233
210
0.7071067811865466
220
-0.4082482904638622
230
0.5773502691896276
  0
LINE
  5
DA4E
330
18
100
AcDbEntity
  8
1：主線
100
AcDbLine
 10
2302.117709524519
 20
912.59747464587
 30
0.0000000000218048
 11
2302.117709524519
 21
798.287953315978
 31
0.0000000000200284
210
0.7071067811865466
220
-0.4082482904638622
230
0.5773502691896276
  0
LINE
  5
DA4F
330
18
100
AcDbEntity
  8
1：主線
100
AcDbLine
 10
2213.729361876197
 20
963.6285109538544
 30
0.0000000000219824
 11
2302.117709524519
 21
912.59747464587
 31
0.0000000000218048
210
0.7071067811865466
220
-0.4082482904638622
230
0.5773502691896276
  0
LINE
  5
DA50
330
18
100
AcDbEntity
  8
1：主線
100
AcDbLine
 10
2213.729361876191
 20
800.3291947683214
 30
0.0000000000263345
 11
2213.729361876197
 21
963.6285109538544
 31
0.0000000000219824
210
0.7071067811865466
220
-0.4082482904638622
230
0.5773502691896276
  0
LINE
  5
DA51
330
18
100
AcDbEntity
  8
1：主線
100
AcDbLine
 10
2213.729361876191
 20
800.3291947683214
 30
0.0000000000263345
 11
2220.800429688062
 21
804.411677672952
 31
0.0000000000221601
210
0.7071067811865466
220
-0.4082482904638622
230
0.5773502691896276
  0
LINE
  5
DA52
330
18
100
AcDbEntity
  8
1：主線
100
AcDbLine
 10
2220.800429688062
 20
804.411677672952
 30
0.0000000000221601
 11
2220.800429688055
 21
959.5460280492238
 31
0.0000000000248246
210
0.7071067811865466
220
-0.4082482904638622
230
0.5773502691896276
  0
LINE
  5
DA53
330
18
100
AcDbEntity
  8
1：主線
100
AcDbLine
 10
2252.620234841456
 20
777.8755387928054
 30
0.0000000000120348
 11
2213.729361876191
 21
800.3291947683214
 31
0.0000000000263345
210
0.7071067811865466
220
-0.4082482904638622
230
0.5773502691896276
  0
LINE
  5
DA54
330
18
100
AcDbEntity
  8
1：主線
100
AcDbLine
 10
2252.620234841456
 20
786.0405046020765
 30
0.0000000000162981
 11
2220.800429688062
 21
804.411677672952
 31
0.0000000000221601
210
0.7071067811865466
220
-0.4082482904638622
230
0.5773502691896276
  0
LINE
  5
DA55
330
18
100
AcDbEntity
  8
1：主線
100
AcDbLine
 10
2309.188777336378
 20
573.7513935608699
 30
0.0000000000256239
 11
2309.188777336378
 21
737.0507097464019
 31
0.0000000000193179
210
0.7071067811865466
220
-0.4082482904638622
230
0.5773502691896276
  0
LINE
  5
DA56
330
18
100
AcDbEntity
  8
1：主線
100
AcDbLine
 10
2309.188777336378
 20
573.7513935608699
 30
0.0000000000256239
 11
2316.259845148247
 21
577.8338764654995
 31
0.0000000000213607
210
0.7071067811865466
220
-0.4082482904638622
230
0.5773502691896276
  0
LINE
  5
DA57
330
18
100
AcDbEntity
  8
1：主線
100
AcDbLine
 10
2316.259845148247
 20
577.8338764654995
 30
0.0000000000213607
 11
2316.259845148247
 21
732.9682268417723
 31
0.0000000000221601
210
0.7071067811865466
220
-0.4082482904638622
230
0.5773502691896276
  0
LINE
  5
DA58
330
18
100
AcDbEntity
  8
1：主線
100
AcDbLine
 10
2348.079650301643
 20
551.2977375853529
 30
0.0000000000179856
 11
2309.188777336378
 21
573.7513935608699
 31
0.0000000000256239
210
0.7071067811865466
220
-0.4082482904638622
230
0.5773502691896276
  0
LINE
  5
DA59
330
18
100
AcDbEntity
  8
1：主線
100
AcDbLine
 10
2348.079650301637
 20
559.4627033946358
 30
0.0000000000222489
 11
2316.259845148247
 21
577.8338764654995
 31
0.0000000000213607
210
0.7071067811865466
220
-0.4082482904638622
230
0.5773502691896276
  0
LINE
  5
DA5A
330
18
100
AcDbEntity
  8
1：主線
100
AcDbLine
 10
2348.079650301637
 20
714.5970537708968
 30
0.00000000002367
 11
2348.079650301643
 21
551.2977375853529
 31
0.0000000000179856
210
0.7071067811865466
220
-0.4082482904638622
230
0.5773502691896276
  0
LINE
  5
DA5B
330
18
100
AcDbEntity
  8
1：主線
100
AcDbLine
 10
2309.188777336378
 20
737.0507097464019
 30
0.0000000000193179
 11
2348.079650301637
 21
714.5970537708968
 31
0.00000000002367
210
0.7071067811865466
220
-0.4082482904638622
230
0.5773502691896276
  0
LINE
  5
DA5C
330
18
100
AcDbEntity
  8
1：主線
100
AcDbLine
 10
2252.620234841451
 20
606.4112567979787
 30
0.0000000000297096
 11
2213.729361876191
 21
628.8649127734948
 31
0.0000000000186073
210
0.7071067811865466
220
-0.4082482904638622
230
0.5773502691896276
  0
LINE
  5
DA5D
330
18
100
AcDbEntity
  8
1：主線
100
AcDbLine
 10
2252.620234841451
 20
614.5762226072616
 30
0.000000000022693
 11
2220.800429688055
 21
632.9473956781362
 31
0.0000000000143441
210
0.7071067811865466
220
-0.4082482904638622
230
0.5773502691896276
  0
LINE
  5
DA5E
330
18
100
AcDbEntity
  8
1：主線
100
AcDbLine
 10
2213.729361876191
 20
628.8649127734948
 30
0.0000000000186073
 11
2220.800429688055
 21
632.9473956781362
 31
0.0000000000143441
210
0.7071067811865466
220
-0.4082482904638622
230
0.5773502691896276
  0
LINE
  5
DA5F
330
18
100
AcDbEntity
  8
1：主線
100
AcDbLine
 10
2252.620234841456
 20
720.720778127848
 30
0.0000000000283773
 11
2252.620234841451
 21
606.4112567979787
 31
0.0000000000297096
210
0.7071067811865466
220
-0.4082482904638622
230
0.5773502691896276
  0
LINE
  5
DA60
330
18
100
AcDbEntity
  8
1：主線
100
AcDbLine
 10
2213.729361876197
 20
743.1744341033759
 30
0.0000000000154987
 11
2252.620234841456
 21
720.720778127848
 31
0.0000000000283773
210
0.7071067811865466
220
-0.4082482904638622
230
0.5773502691896276
  0
LINE
  5
DA61
330
18
100
AcDbEntity
  8
1：主線
100
AcDbLine
 10
2213.729361876191
 20
628.8649127734948
 30
0.0000000000186073
 11
2213.729361876197
 21
743.1744341033759
 31
0.0000000000154987
210
0.7071067811865466
220
-0.4082482904638622
230
0.5773502691896276
  0
LINE
  5
DA62
330
18
100
AcDbEntity
  8
1：主線
100
AcDbLine
 10
2220.800429688055
 20
632.9473956781362
 30
0.0000000000143441
 11
2220.800429688055
 21
739.0919511987345
 31
0.0000000000183409
210
0.7071067811865466
220
-0.4082482904638622
230
0.5773502691896276
  0
LINE
  5
DA63
330
18
100
AcDbEntity
  8
1：主線
100
AcDbLine
 10
2348.079650301643
 20
722.7620195801687
 30
0.0000000000222489
 11
2309.188777336383
 21
745.2156755556848
 31
0.0000000000235811
210
0.7071067811865466
220
-0.4082482904638622
230
0.5773502691896276
  0
LINE
  5
DA64
330
18
100
AcDbEntity
  8
1：主線
100
AcDbLine
 10
2348.079650301643
 20
730.9269853894516
 30
0.0000000000208278
 11
2316.259845148242
 21
749.2981584603263
 31
0.0000000000193179
210
0.7071067811865466
220
-0.4082482904638622
230
0.5773502691896276
  0
LINE
  5
DA65
330
18
100
AcDbEntity
  8
1：主線
100
AcDbLine
 10
2309.188777336383
 20
745.2156755556848
 30
0.0000000000235811
 11
2316.259845148242
 21
749.2981584603263
 31
0.0000000000193179
210
0.7071067811865466
220
-0.4082482904638622
230
0.5773502691896276
  0
LINE
  5
DA66
330
18
100
AcDbEntity
  8
1：主線
100
AcDbLine
 10
2348.079650301637
 20
763.5868486265713
 30
0.0000000000266009
 11
2348.079650301643
 21
722.7620195801687
 31
0.0000000000222489
210
0.7071067811865466
220
-0.4082482904638622
230
0.5773502691896276
  0
LINE
  5
DA67
330
18
100
AcDbEntity
  8
1：主線
100
AcDbLine
 10
2309.188777336383
 20
786.0405046020765
 30
0.0000000000178968
 11
2348.079650301637
 21
763.5868486265713
 31
0.0000000000266009
210
0.7071067811865466
220
-0.4082482904638622
230
0.5773502691896276
  0
LINE
  5
DA68
330
18
100
AcDbEntity
  8
1：主線
100
AcDbLine
 10
2309.188777336383
 20
745.2156755556848
 30
0.0000000000235811
 11
2309.188777336383
 21
786.0405046020765
 31
0.0000000000178968
210
0.7071067811865466
220
-0.4082482904638622
230
0.5773502691896276
  0
LINE
  5
DA69
330
18
100
AcDbEntity
  8
1：主線
100
AcDbLine
 10
2316.259845148242
 20
749.2981584603263
 30
0.0000000000193179
 11
2316.259845148247
 21
781.958021697435
 31
0.0000000000261569
210
0.7071067811865466
220
-0.4082482904638622
230
0.5773502691896276
  0
LINE
  5
DA6A
330
18
100
AcDbEntity
  8
1：主線
100
AcDbLine
 10
2309.188777336378
 20
794.2054704113593
 30
0.0000000000278444
 11
2309.188777336383
 21
908.5149917412286
 31
0.0000000000247358
210
0.7071067811865466
220
-0.4082482904638622
230
0.5773502691896276
  0
LINE
  5
DA6B
330
18
100
AcDbEntity
  8
1：主線
100
AcDbLine
 10
2309.188777336378
 20
794.2054704113593
 30
0.0000000000278444
 11
2316.259845148247
 21
798.2879533159898
 31
0.0000000000235811
210
0.7071067811865466
220
-0.4082482904638622
230
0.5773502691896276
  0
LINE
  5
DA6C
330
18
100
AcDbEntity
  8
1：主線
100
AcDbLine
 10
2316.259845148247
 20
798.2879533159898
 30
0.0000000000235811
 11
2316.259845148247
 21
904.432508836599
 31
0.0000000000275779
210
0.7071067811865466
220
-0.4082482904638622
230
0.5773502691896276
  0
LINE
  5
DA6D
330
18
100
AcDbEntity
  8
1：主線
100
AcDbLine
 10
2348.079650301643
 20
771.7518144358432
 30
0.0000000000194955
 11
2309.188777336378
 21
794.2054704113593
 31
0.0000000000278444
210
0.7071067811865466
220
-0.4082482904638622
230
0.5773502691896276
  0
LINE
  5
DA6E
330
18
100
AcDbEntity
  8
1：主線
100
AcDbLine
 10
2348.079650301637
 20
779.9167802451143
 30
0.0000000000179856
 11
2316.259845148247
 21
798.2879533159898
 31
0.0000000000235811
210
0.7071067811865466
220
-0.4082482904638622
230
0.5773502691896276
  0
LINE
  5
DA6F
330
18
100
AcDbEntity
  8
1：主線
100
AcDbLine
 10
2348.079650301637
 20
886.0613357657125
 30
0.0000000000223377
 11
2348.079650301643
 21
771.7518144358432
 31
0.0000000000194955
210
0.7071067811865466
220
-0.4082482904638622
230
0.5773502691896276
  0
LINE
  5
DA70
330
18
100
AcDbEntity
  8
1：主線
100
AcDbLine
 10
2309.188777336383
 20
908.5149917412286
 30
0.0000000000247358
 11
2348.079650301637
 21
886.0613357657125
 31
0.0000000000223377
210
0.7071067811865466
220
-0.4082482904638622
230
0.5773502691896276
  0
LINE
  5
DA71
330
18
100
AcDbEntity
  8
1：主線
100
AcDbLine
 10
2252.620234841456
 20
728.8857439371309
 30
0.000000000014877
 11
2213.729361876191
 21
751.3393999126588
 31
0.0000000000196732
210
0.7071067811865466
220
-0.4082482904638622
230
0.5773502691896276
  0
LINE
  5
DA72
330
18
100
AcDbEntity
  8
1：主線
100
AcDbLine
 10
2252.620234841451
 20
737.0507097464019
 30
0.0000000000190514
 11
2220.800429688055
 21
755.4218828172884
 31
0.0000000000210942
210
0.7071067811865466
220
-0.4082482904638622
230
0.5773502691896276
  0
LINE
  5
DA73
330
18
100
AcDbEntity
  8
1：主線
100
AcDbLine
 10
2213.729361876191
 20
751.3393999126588
 30
0.0000000000196732
 11
2220.800429688055
 21
755.4218828172884
 31
0.0000000000210942
210
0.7071067811865466
220
-0.4082482904638622
230
0.5773502691896276
  0
LINE
  5
DA74
330
18
100
AcDbEntity
  8
1：主線
100
AcDbLine
 10
2252.620234841456
 20
769.7105729835225
 30
0.0000000000248246
 11
2252.620234841456
 21
728.8857439371309
 31
0.000000000014877
210
0.7071067811865466
220
-0.4082482904638622
230
0.5773502691896276
  0
LINE
  5
DA75
330
18
100
AcDbEntity
  8
1：主線
100
AcDbLine
 10
2213.729361876191
 20
792.1642289590386
 30
0.0000000000221601
 11
2252.620234841456
 21
769.7105729835225
 31
0.0000000000248246
210
0.7071067811865466
220
-0.4082482904638622
230
0.5773502691896276
  0
LINE
  5
DA76
330
18
100
AcDbEntity
  8
1：主線
100
AcDbLine
 10
2213.729361876191
 20
751.3393999126588
 30
0.0000000000196732
 11
2213.729361876191
 21
792.1642289590386
 31
0.0000000000221601
210
0.7071067811865466
220
-0.4082482904638622
230
0.5773502691896276
  0
LINE
  5
DA77
330
18
100
AcDbEntity
  8
1：主線
100
AcDbLine
 10
2220.800429688055
 20
755.4218828172884
 30
0.0000000000210942
 11
2220.800429688062
 21
788.0817460543972
 31
0.0000000000210942
210
0.7071067811865466
220
-0.4082482904638622
230
0.5773502691896276
  0
LINE
  5
DA78
330
18
100
AcDbEntity
  8
1：主線
100
AcDbLine
 10
2457.681201385553
 20
712.555812318576
 30
0.0000000000176303
 11
2436.46799794996
 21
700.3083636046745
 31
0.0000000000264233
210
0.7071067811865466
220
-0.4082482904638622
230
0.5773502691896276
  0
LINE
  5
DA79
330
18
100
AcDbEntity
  8
1：主線
100
AcDbLine
 10
2436.46799794996
 20
700.3083636046745
 30
0.0000000000264233
 11
2436.46799794996
 21
741.1331926510661
 31
0.0000000000192291
210
0.7071067811865466
220
-0.4082482904638622
230
0.5773502691896276
  0
LINE
  5
DA7A
330
18
100
AcDbEntity
  8
1：主線
100
AcDbLine
 10
2436.46799794996
 20
741.1331926510661
 30
0.0000000000192291
 11
2478.894404821152
 21
765.628090078892
 31
0.0000000000221601
210
0.7071067811865466
220
-0.4082482904638622
230
0.5773502691896276
  0
LINE
  5
DA7B
330
18
100
AcDbEntity
  8
1：主線
100
AcDbLine
 10
2478.894404821152
 20
765.628090078892
 30
0.0000000000221601
 11
2478.894404821146
 21
602.3287738933482
 31
0.0000000000282885
210
0.7071067811865466
220
-0.4082482904638622
230
0.5773502691896276
  0
LINE
  5
DA7C
330
18
100
AcDbEntity
  8
1：主線
100
AcDbLine
 10
2478.894404821146
 20
602.3287738933482
 30
0.0000000000282885
 11
2436.46799794996
 21
577.8338764655114
 31
0.0000000000253575
210
0.7071067811865466
220
-0.4082482904638622
230
0.5773502691896276
  0
LINE
  5
DA7D
330
18
100
AcDbEntity
  8
1：主線
100
AcDbLine
 10
2436.46799794996
 20
577.8338764655114
 30
0.0000000000253575
 11
2436.46799794996
 21
692.1433977953916
 31
0.0000000000221601
210
0.7071067811865466
220
-0.4082482904638622
230
0.5773502691896276
  0
LINE
  5
DA7E
330
18
100
AcDbEntity
  8
1：主線
100
AcDbLine
 10
2436.46799794996
 20
692.1433977953916
 30
0.0000000000221601
 11
2457.681201385553
 21
704.390846509305
 31
0.0000000000247358
210
0.7071067811865466
220
-0.4082482904638622
230
0.5773502691896276
  0
LINE
  5
DA7F
330
18
100
AcDbEntity
  8
1：主線
100
AcDbLine
 10
2457.681201385553
 20
704.390846509305
 30
0.0000000000247358
 11
2457.681201385553
 21
712.555812318576
 31
0.0000000000176303
210
0.7071067811865466
220
-0.4082482904638622
230
0.5773502691896276
  0
LINE
  5
DA80
330
18
100
AcDbEntity
  8
1：主線
100
AcDbLine
 10
2429.396930138101
 20
769.7105729835225
 30
0.0000000000177192
 11
2429.396930138095
 21
745.2156755556848
 31
0.0000000000162981
210
0.7071067811865466
220
-0.4082482904638622
230
0.5773502691896276
  0
LINE
  5
DA81
330
18
100
AcDbEntity
  8
1：主線
100
AcDbLine
 10
2429.396930138095
 20
745.2156755556848
 30
0.0000000000162981
 11
2390.506057172829
 21
722.7620195801796
 31
0.0000000000134559
210
0.7071067811865466
220
-0.4082482904638622
230
0.5773502691896276
  0
LINE
  5
DA82
330
18
100
AcDbEntity
  8
1：主線
100
AcDbLine
 10
2390.506057172829
 20
722.7620195801796
 30
0.0000000000134559
 11
2390.506057172829
 21
886.0613357657234
 31
0.0000000000204725
210
0.7071067811865466
220
-0.4082482904638622
230
0.5773502691896276
  0
LINE
  5
DA83
330
18
100
AcDbEntity
  8
1：主線
100
AcDbLine
 10
2390.506057172829
 20
886.0613357657234
 30
0.0000000000204725
 11
2478.894404821152
 21
937.0923720737078
 31
0.0000000000202949
210
0.7071067811865466
220
-0.4082482904638622
230
0.5773502691896276
  0
LINE
  5
DA84
330
18
100
AcDbEntity
  8
1：主線
100
AcDbLine
 10
2478.894404821152
 20
937.0923720737078
 30
0.0000000000202949
 11
2478.894404821157
 21
822.7828507438266
 31
0.0000000000194955
210
0.7071067811865466
220
-0.4082482904638622
230
0.5773502691896276
  0
LINE
  5
DA85
330
18
100
AcDbEntity
  8
1：主線
100
AcDbLine
 10
2478.894404821157
 20
822.7828507438266
 30
0.0000000000194955
 11
2457.681201385553
 21
810.5354020299142
 31
0.0000000000248246
210
0.7071067811865466
220
-0.4082482904638622
230
0.5773502691896276
  0
LINE
  5
DA86
330
18
100
AcDbEntity
  8
1：主線
100
AcDbLine
 10
2457.681201385553
 20
810.5354020299142
 30
0.0000000000248246
 11
2457.681201385553
 21
802.3704362206313
 31
0.0000000000205613
210
0.7071067811865466
220
-0.4082482904638622
230
0.5773502691896276
  0
LINE
  5
DA87
330
18
100
AcDbEntity
  8
1：主線
100
AcDbLine
 10
2457.681201385553
 20
802.3704362206313
 30
0.0000000000205613
 11
2478.894404821163
 21
814.6178849345437
 31
0.0000000000209166
210
0.7071067811865466
220
-0.4082482904638622
230
0.5773502691896276
  0
LINE
  5
DA88
330
18
100
AcDbEntity
  8
1：主線
100
AcDbLine
 10
2478.894404821163
 20
814.6178849345437
 30
0.0000000000209166
 11
2478.894404821152
 21
773.793055888164
 31
0.000000000020739
210
0.7071067811865466
220
-0.4082482904638622
230
0.5773502691896276
  0
LINE
  5
DA89
330
18
100
AcDbEntity
  8
1：主線
100
AcDbLine
 10
2478.894404821152
 20
773.793055888164
 30
0.000000000020739
 11
2436.46799794996
 21
749.2981584603263
 31
0.0000000000234923
210
0.7071067811865466
220
-0.4082482904638622
230
0.5773502691896276
  0
LINE
  5
DA8A
330
18
100
AcDbEntity
  8
1：主線
100
AcDbLine
 10
2436.46799794996
 20
749.2981584603263
 30
0.0000000000234923
 11
2436.467997949954
 21
773.793055888164
 31
0.0000000000248246
210
0.7071067811865466
220
-0.4082482904638622
230
0.5773502691896276
  0
LINE
  5
DA8B
330
18
100
AcDbEntity
  8
1：主線
100
AcDbLine
 10
2436.467997949954
 20
773.793055888164
 30
0.0000000000248246
 11
2429.396930138101
 21
769.7105729835225
 31
0.0000000000177192
210
0.7071067811865466
220
-0.4082482904638622
230
0.5773502691896276
  0
LINE
  5
DA8C
330
18
100
AcDbEntity
  8
1：主線
100
AcDbLine
 10
2485.965472633016
 20
606.4112567979896
 30
0.0000000000240252
 11
2485.965472633016
 21
769.7105729835225
 31
0.0000000000178968
210
0.7071067811865466
220
-0.4082482904638622
230
0.5773502691896276
  0
LINE
  5
DA8D
330
18
100
AcDbEntity
  8
1：主線
100
AcDbLine
 10
2485.965472633016
 20
769.7105729835225
 30
0.0000000000178968
 11
2524.856345598281
 21
792.1642289590504
 31
0.0000000000155875
210
0.7071067811865466
220
-0.4082482904638622
230
0.5773502691896276
  0
LINE
  5
DA8E
330
18
100
AcDbEntity
  8
1：主線
100
AcDbLine
 10
2524.856345598281
 20
792.1642289590504
 30
0.0000000000155875
 11
2524.856345598281
 21
628.8649127734948
 31
0.0000000000177192
210
0.7071067811865466
220
-0.4082482904638622
230
0.5773502691896276
  0
LINE
  5
DA8F
330
18
100
AcDbEntity
  8
1：主線
100
AcDbLine
 10
2524.856345598281
 20
628.8649127734948
 30
0.0000000000177192
 11
2485.965472633016
 21
606.4112567979896
 31
0.0000000000240252
210
0.7071067811865466
220
-0.4082482904638622
230
0.5773502691896276
  0
LINE
  5
DA90
330
18
100
AcDbEntity
  8
1：主線
100
AcDbLine
 10
2429.396930138095
 20
573.7513935608699
 30
0.0000000000181632
 11
2390.506057172824
 21
551.2977375853529
 31
0.000000000022693
210
0.7071067811865466
220
-0.4082482904638622
230
0.5773502691896276
  0
LINE
  5
DA91
330
18
100
AcDbEntity
  8
1：主線
100
AcDbLine
 10
2390.506057172824
 20
551.2977375853529
 30
0.000000000022693
 11
2390.506057172829
 21
665.607258915245
 31
0.0000000000252687
210
0.7071067811865466
220
-0.4082482904638622
230
0.5773502691896276
  0
LINE
  5
DA92
330
18
100
AcDbEntity
  8
1：主線
100
AcDbLine
 10
2390.506057172829
 20
665.607258915245
 30
0.0000000000252687
 11
2429.39693013809
 21
688.060914890762
 31
0.0000000000264233
210
0.7071067811865466
220
-0.4082482904638622
230
0.5773502691896276
  0
LINE
  5
DA93
330
18
100
AcDbEntity
  8
1：主線
100
AcDbLine
 10
2429.39693013809
 20
688.060914890762
 30
0.0000000000264233
 11
2429.396930138095
 21
573.7513935608699
 31
0.0000000000181632
210
0.7071067811865466
220
-0.4082482904638622
230
0.5773502691896276
  0
LINE
  5
DA94
330
18
100
AcDbEntity
  8
1：主線
100
AcDbLine
 10
2524.856345598281
 20
800.3291947683106
 30
0.0000000000159428
 11
2485.965472633022
 21
777.8755387928054
 31
0.0000000000164757
210
0.7071067811865466
220
-0.4082482904638622
230
0.5773502691896276
  0
LINE
  5
DA95
330
18
100
AcDbEntity
  8
1：主線
100
AcDbLine
 10
2485.965472633022
 20
777.8755387928054
 30
0.0000000000164757
 11
2485.965472633022
 21
818.700367839197
 31
0.0000000000206501
210
0.7071067811865466
220
-0.4082482904638622
230
0.5773502691896276
  0
LINE
  5
DA96
330
18
100
AcDbEntity
  8
1：主線
100
AcDbLine
 10
2485.965472633022
 20
818.700367839197
 30
0.0000000000206501
 11
2524.856345598281
 21
841.1540238147022
 31
0.0000000000182521
210
0.7071067811865466
220
-0.4082482904638622
230
0.5773502691896276
  0
LINE
  5
DA97
330
18
100
AcDbEntity
  8
1：主線
100
AcDbLine
 10
2524.856345598281
 20
841.1540238147022
 30
0.0000000000182521
 11
2524.856345598281
 21
800.3291947683106
 31
0.0000000000159428
210
0.7071067811865466
220
-0.4082482904638622
230
0.5773502691896276
  0
LINE
  5
DA98
330
18
100
AcDbEntity
  8
1：主線
100
AcDbLine
 10
2485.965472633016
 20
826.8653336484799
 30
0.0000000000192291
 11
2485.965472633022
 21
941.1748549783492
 31
0.0000000000161204
210
0.7071067811865466
220
-0.4082482904638622
230
0.5773502691896276
  0
LINE
  5
DA99
330
18
100
AcDbEntity
  8
1：主線
100
AcDbLine
 10
2524.856345598276
 20
963.6285109538652
 30
0.0000000000268674
 11
2524.856345598276
 21
849.3189896239851
 31
0.0000000000186073
210
0.7071067811865466
220
-0.4082482904638622
230
0.5773502691896276
  0
LINE
  5
DA9A
330
18
100
AcDbEntity
  8
1：主線
100
AcDbLine
 10
2524.856345598276
 20
849.3189896239851
 30
0.0000000000186073
 11
2485.965472633016
 21
826.8653336484799
 31
0.0000000000192291
210
0.7071067811865466
220
-0.4082482904638622
230
0.5773502691896276
  0
LINE
  5
DA9B
330
18
100
AcDbEntity
  8
1：主線
100
AcDbLine
 10
2429.396930138095
 20
696.225880700033
 30
0.0000000000193179
 11
2390.506057172824
 21
673.7722247245051
 31
0.0000000000238476
210
0.7071067811865466
220
-0.4082482904638622
230
0.5773502691896276
  0
LINE
  5
DA9C
330
18
100
AcDbEntity
  8
1：主線
100
AcDbLine
 10
2390.506057172824
 20
673.7722247245051
 30
0.0000000000238476
 11
2390.506057172824
 21
714.5970537709086
 31
0.0000000000262457
210
0.7071067811865466
220
-0.4082482904638622
230
0.5773502691896276
  0
LINE
  5
DA9D
330
18
100
AcDbEntity
  8
1：主線
100
AcDbLine
 10
2390.506057172824
 20
714.5970537709086
 30
0.0000000000262457
 11
2429.396930138095
 21
737.0507097464138
 31
0.0000000000234923
210
0.7071067811865466
220
-0.4082482904638622
230
0.5773502691896276
  0
LINE
  5
DA9E
330
18
100
AcDbEntity
  8
1：主線
100
AcDbLine
 10
2429.396930138095
 20
737.0507097464138
 30
0.0000000000234923
 11
2429.396930138095
 21
696.225880700033
 31
0.0000000000193179
210
0.7071067811865466
220
-0.4082482904638622
230
0.5773502691896276
  0
LINE
  5
DA9F
330
18
100
AcDbEntity
  8
1：主線
100
AcDbLine
 10
2369.292853737237
 20
502.3079427297012
 30
0.0000000000202949
 11
2546.069549033869
 21
604.3700153456689
 31
0.0000000000278444
210
0.7071067811865466
220
-0.4082482904638622
230
0.5773502691896276
  0
LINE
  5
DAA0
330
18
100
AcDbEntity
  8
1：主線
100
AcDbLine
 10
2546.069549033869
 20
604.3700153456689
 30
0.0000000000278444
 11
2546.069549033869
 21
1012.61830580954
 31
0.0000000000240252
210
0.7071067811865466
220
-0.4082482904638622
230
0.5773502691896276
  0
LINE
  5
DAA1
330
18
100
AcDbEntity
  8
1：主線
100
AcDbLine
 10
2546.069549033869
 20
1012.61830580954
 30
0.0000000000240252
 11
2369.292853737231
 21
910.556233193572
 31
0.0000000000278444
210
0.7071067811865466
220
-0.4082482904638622
230
0.5773502691896276
  0
LINE
  5
DAA2
330
18
100
AcDbEntity
  8
1：主線
100
AcDbLine
 10
2369.292853737237
 20
502.3079427297012
 30
0.0000000000202949
 11
2369.292853737231
 21
910.556233193572
 31
0.0000000000278444
210
0.7071067811865466
220
-0.4082482904638622
230
0.5773502691896276
  0
LINE
  5
DAA3
330
18
100
AcDbEntity
  8
1：主線
100
AcDbLine
 10
2291.385441892983
 20
1069.700513225355
 30
0.0000000000215882
 11
2192.516158440598
 21
1012.61830580954
 31
0.0000000000244693
210
0.7071067811865466
220
-0.4082482904638622
230
0.5773502691896276
  0
LINE
  5
DAA4
330
18
100
AcDbEntity
  8
1：主線
100
AcDbLine
 10
2192.516158440592
 20
604.3700153456689
 30
0.0000000000282885
 11
2192.516158440598
 21
1012.61830580954
 31
0.0000000000244693
210
0.7071067811865466
220
-0.4082482904638622
230
0.5773502691896276
  0
LINE
  5
DAA5
330
18
100
AcDbEntity
  8
1：主線
100
AcDbLine
 10
2369.292853737231
 20
910.556233193572
 30
0.0000000000278444
 11
2192.516158440598
 21
1012.61830580954
 31
0.0000000000244693
210
0.7071067811865466
220
-0.4082482904638622
230
0.5773502691896276
  0
LINE
  5
DAA6
330
18
100
AcDbEntity
  8
1：主線
100
AcDbLine
 10
2546.069549033869
 20
1012.61830580954
 30
0.0000000000240252
 11
2422.956696114618
 21
1083.697544583166
 31
0.0000000000207469
210
0.7071067811865466
220
-0.4082482904638622
230
0.5773502691896276
  0
LINE
  5
DAA7
330
18
100
AcDbEntity
  8
1：主線
100
AcDbLine
 10
2369.292853737237
 20
502.3079427297012
 30
0.0000000000202949
 11
2192.516158440592
 21
604.3700153456689
 31
0.0000000000282885
210
0.7071067811865466
220
-0.4082482904638622
230
0.5773502691896276
  0
LINE
  5
DAA8
330
18
100
AcDbEntity
  8
1：主線
100
AcDbLine
 10
2457.681201385553
 20
712.555812318576
 30
0.0000000000176303
 11
2450.610133573683
 21
716.6382952232175
 31
0.0000000000261569
210
0.7071067811865466
220
-0.4082482904638622
230
0.5773502691896276
  0
LINE
  5
DAA9
330
18
100
AcDbEntity
  8
1：主線
100
AcDbLine
 10
2450.610133573683
 20
716.6382952232175
 30
0.0000000000261569
 11
2436.46799794996
 21
708.4733294139464
 31
0.0000000000193179
210
0.7071067811865466
220
-0.4082482904638622
230
0.5773502691896276
  0
LINE
  5
DAAA
330
18
100
AcDbEntity
  8
1：主線
100
AcDbLine
 10
2478.894404821146
 20
602.3287738933482
 30
0.0000000000282885
 11
2471.823337009287
 21
606.4112567979787
 31
0.0000000000253575
210
0.7071067811865466
220
-0.4082482904638622
230
0.5773502691896276
  0
LINE
  5
DAAB
330
18
100
AcDbEntity
  8
1：主線
100
AcDbLine
 10
2471.823337009287
 20
606.4112567979787
 30
0.0000000000253575
 11
2436.46799794996
 21
585.9988422747824
 31
0.0000000000181632
210
0.7071067811865466
220
-0.4082482904638622
230
0.5773502691896276
  0
LINE
  5
DAAC
330
18
100
AcDbEntity
  8
1：主線
100
AcDbLine
 10
2471.823337009287
 20
761.5456071742506
 30
0.0000000000264233
 11
2471.823337009287
 21
606.4112567979787
 31
0.0000000000253575
210
0.7071067811865466
220
-0.4082482904638622
230
0.5773502691896276
  0
LINE
  5
DAAD
330
18
100
AcDbEntity
  8
1：主線
100
AcDbLine
 10
2429.396930138101
 20
769.7105729835225
 30
0.0000000000177192
 11
2422.325862326225
 21
773.7930558881749
 31
0.0000000000205613
210
0.7071067811865466
220
-0.4082482904638622
230
0.5773502691896276
  0
LINE
  5
DAAE
330
18
100
AcDbEntity
  8
1：主線
100
AcDbLine
 10
2422.325862326225
 20
773.7930558881749
 30
0.0000000000205613
 11
2422.325862326225
 21
749.2981584603381
 31
0.0000000000248246
210
0.7071067811865466
220
-0.4082482904638622
230
0.5773502691896276
  0
LINE
  5
DAAF
330
18
100
AcDbEntity
  8
1：主線
100
AcDbLine
 10
2429.396930138095
 20
745.2156755556848
 30
0.0000000000162981
 11
2422.325862326225
 21
749.2981584603381
 31
0.0000000000248246
210
0.7071067811865466
220
-0.4082482904638622
230
0.5773502691896276
  0
LINE
  5
DAB0
330
18
100
AcDbEntity
  8
1：主線
100
AcDbLine
 10
2436.467997949954
 20
773.793055888164
 30
0.0000000000248246
 11
2429.396930138095
 21
777.8755387928054
 31
0.0000000000162981
210
0.7071067811865466
220
-0.4082482904638622
230
0.5773502691896276
  0
LINE
  5
DAB1
330
18
100
AcDbEntity
  8
1：主線
100
AcDbLine
 10
2429.396930138095
 20
777.8755387928054
 30
0.0000000000162981
 11
2422.325862326225
 21
773.7930558881749
 31
0.0000000000205613
210
0.7071067811865466
220
-0.4082482904638622
230
0.5773502691896276
  0
LINE
  5
DAB2
330
18
100
AcDbEntity
  8
1：主線
100
AcDbLine
 10
2478.894404821152
 20
773.793055888164
 30
0.000000000020739
 11
2471.823337009287
 21
777.8755387928054
 31
0.0000000000178968
210
0.7071067811865466
220
-0.4082482904638622
230
0.5773502691896276
  0
LINE
  5
DAB3
330
18
100
AcDbEntity
  8
1：主線
100
AcDbLine
 10
2471.823337009287
 20
777.8755387928054
 30
0.0000000000178968
 11
2436.467997949965
 21
757.4631242696091
 31
0.0000000000163869
210
0.7071067811865466
220
-0.4082482904638622
230
0.5773502691896276
  0
LINE
  5
DAB4
330
18
100
AcDbEntity
  8
1：主線
100
AcDbLine
 10
2471.823337009287
 20
810.5354020299142
 30
0.0000000000291767
 11
2471.823337009287
 21
777.8755387928054
 31
0.0000000000178968
210
0.7071067811865466
220
-0.4082482904638622
230
0.5773502691896276
  0
LINE
  5
DAB5
330
18
100
AcDbEntity
  8
1：主線
100
AcDbLine
 10
2457.681201385553
 20
802.3704362206313
 30
0.0000000000205613
 11
2450.610133573694
 21
806.4529191252727
 31
0.0000000000177192
210
0.7071067811865466
220
-0.4082482904638622
230
0.5773502691896276
  0
LINE
  5
DAB6
330
18
100
AcDbEntity
  8
1：主線
100
AcDbLine
 10
2457.681201385553
 20
810.5354020299142
 30
0.0000000000248246
 11
2450.610133573689
 21
814.6178849345556
 31
0.0000000000219824
210
0.7071067811865466
220
-0.4082482904638622
230
0.5773502691896276
  0
LINE
  5
DAB7
330
18
100
AcDbEntity
  8
1：主線
100
AcDbLine
 10
2450.610133573689
 20
814.6178849345556
 30
0.0000000000219824
 11
2450.610133573694
 21
806.4529191252727
 31
0.0000000000177192
210
0.7071067811865466
220
-0.4082482904638622
230
0.5773502691896276
  0
LINE
  5
DAB8
330
18
100
AcDbEntity
  8
1：主線
100
AcDbLine
 10
2478.894404821157
 20
822.7828507438266
 30
0.0000000000194955
 11
2471.823337009299
 21
826.865333648468
 31
0.0000000000166533
210
0.7071067811865466
220
-0.4082482904638622
230
0.5773502691896276
  0
LINE
  5
DAB9
330
18
100
AcDbEntity
  8
1：主線
100
AcDbLine
 10
2471.823337009299
 20
826.865333648468
 30
0.0000000000166533
 11
2450.610133573689
 21
814.6178849345556
 31
0.0000000000219824
210
0.7071067811865466
220
-0.4082482904638622
230
0.5773502691896276
  0
LINE
  5
DABA
330
18
100
AcDbEntity
  8
1：主線
100
AcDbLine
 10
2471.823337009287
 20
933.0098891690663
 30
0.000000000024647
 11
2471.823337009299
 21
826.865333648468
 31
0.0000000000166533
210
0.7071067811865466
220
-0.4082482904638622
230
0.5773502691896276
  0
LINE
  5
DABB
330
18
100
AcDbEntity
  8
1：主線
100
AcDbLine
 10
2422.325862326225
 20
749.2981584603381
 30
0.0000000000248246
 11
2390.506057172829
 21
730.9269853894625
 31
0.0000000000138112
210
0.7071067811865466
220
-0.4082482904638622
230
0.5773502691896276
  0
LINE
  5
DABC
330
18
100
AcDbEntity
  8
1：主線
100
AcDbLine
 10
2524.856345598281
 20
628.8649127734948
 30
0.0000000000177192
 11
2517.785277786411
 21
632.9473956781362
 31
0.0000000000262457
210
0.7071067811865466
220
-0.4082482904638622
230
0.5773502691896276
  0
LINE
  5
DABD
330
18
100
AcDbEntity
  8
1：主線
100
AcDbLine
 10
2517.785277786411
 20
632.9473956781362
 30
0.0000000000262457
 11
2485.965472633016
 21
614.5762226072616
 31
0.0000000000282885
210
0.7071067811865466
220
-0.4082482904638622
230
0.5773502691896276
  0
LINE
  5
DABE
330
18
100
AcDbEntity
  8
1：主線
100
AcDbLine
 10
2517.785277786418
 20
788.0817460543972
 30
0.0000000000159428
 11
2517.785277786411
 21
632.9473956781362
 31
0.0000000000262457
210
0.7071067811865466
220
-0.4082482904638622
230
0.5773502691896276
  0
LINE
  5
DABF
330
18
100
AcDbEntity
  8
1：主線
100
AcDbLine
 10
2429.396930138095
 20
573.7513935608699
 30
0.0000000000181632
 11
2422.325862326231
 21
577.8338764655223
 31
0.0000000000210054
210
0.7071067811865466
220
-0.4082482904638622
230
0.5773502691896276
  0
LINE
  5
DAC0
330
18
100
AcDbEntity
  8
1：主線
100
AcDbLine
 10
2422.325862326231
 20
577.8338764655223
 30
0.0000000000210054
 11
2390.506057172829
 21
559.4627033946358
 31
0.0000000000212719
210
0.7071067811865466
220
-0.4082482904638622
230
0.5773502691896276
  0
LINE
  5
DAC1
330
18
100
AcDbEntity
  8
1：主線
100
AcDbLine
 10
2422.325862326231
 20
683.9784319861205
 30
0.0000000000136335
 11
2422.325862326231
 21
577.8338764655223
 31
0.0000000000210054
210
0.7071067811865466
220
-0.4082482904638622
230
0.5773502691896276
  0
LINE
  5
DAC2
330
18
100
AcDbEntity
  8
1：主線
100
AcDbLine
 10
2524.856345598281
 20
800.3291947683106
 30
0.0000000000159428
 11
2517.785277786411
 21
804.411677672952
 31
0.0000000000243805
210
0.7071067811865466
220
-0.4082482904638622
230
0.5773502691896276
  0
LINE
  5
DAC3
330
18
100
AcDbEntity
  8
1：主線
100
AcDbLine
 10
2517.785277786411
 20
804.411677672952
 30
0.0000000000243805
 11
2485.965472633016
 21
786.0405046020883
 31
0.0000000000264233
210
0.7071067811865466
220
-0.4082482904638622
230
0.5773502691896276
  0
LINE
  5
DAC4
330
18
100
AcDbEntity
  8
1：主線
100
AcDbLine
 10
2517.785277786411
 20
837.0715409100716
 30
0.0000000000225153
 11
2517.785277786411
 21
804.411677672952
 31
0.0000000000243805
210
0.7071067811865466
220
-0.4082482904638622
230
0.5773502691896276
  0
LINE
  5
DAC5
330
18
100
AcDbEntity
  8
1：主線
100
AcDbLine
 10
2524.856345598276
 20
849.3189896239851
 30
0.0000000000186073
 11
2517.785277786411
 21
853.4014725286265
 31
0.0000000000271339
210
0.7071067811865466
220
-0.4082482904638622
230
0.5773502691896276
  0
LINE
  5
DAC6
330
18
100
AcDbEntity
  8
1：主線
100
AcDbLine
 10
2517.785277786411
 20
853.4014725286265
 30
0.0000000000271339
 11
2485.965472633016
 21
835.03029945774
 31
0.0000000000234923
210
0.7071067811865466
220
-0.4082482904638622
230
0.5773502691896276
  0
LINE
  5
DAC7
330
18
100
AcDbEntity
  8
1：主線
100
AcDbLine
 10
2517.785277786411
 20
959.5460280492238
 30
0.000000000019762
 11
2517.785277786411
 21
853.4014725286265
 31
0.0000000000271339
210
0.7071067811865466
220
-0.4082482904638622
230
0.5773502691896276
  0
LINE
  5
DAC8
330
18
100
AcDbEntity
  8
1：主線
100
AcDbLine
 10
2429.396930138095
 20
696.225880700033
 30
0.0000000000193179
 11
2422.325862326225
 21
700.3083636046745
 31
0.0000000000277556
210
0.7071067811865466
220
-0.4082482904638622
230
0.5773502691896276
  0
LINE
  5
DAC9
330
18
100
AcDbEntity
  8
1：主線
100
AcDbLine
 10
2422.325862326225
 20
700.3083636046745
 30
0.0000000000277556
 11
2390.506057172829
 21
681.937190533788
 31
0.0000000000167422
210
0.7071067811865466
220
-0.4082482904638622
230
0.5773502691896276
  0
LINE
  5
DACA
330
18
100
AcDbEntity
  8
1：主線
100
AcDbLine
 10
2422.325862326231
 20
732.9682268417723
 30
0.0000000000163869
 11
2422.325862326225
 21
700.3083636046745
 31
0.0000000000277556
210
0.7071067811865466
220
-0.4082482904638622
230
0.5773502691896276
  0
ELLIPSE
  5
DACB
330
18
100
AcDbEntity
  8
1：主線
100
AcDbEllipse
 10
2693.465957572193
 20
1211.248476190193
 30
0.0000000000226485
 11
25.00000000000001
 21
43.30127018922193
 31
-0.000000000000015
210
0.0000000000000002
220
0.0000000000000002
230
1.0
 40
0.5773502691896279
 41
2.356194490192229
 42
3.929013315838317
  0
ELLIPSE
  5
DACC
330
18
100
AcDbEntity
  8
1：主線
100
AcDbEllipse
 10
2689.223316885085
 20
1213.697965932968
 30
0.0000000000226485
 11
25.00000000000078
 21
43.3012701892173
 31
-0.0000000000000194
210
-0.0000000000000004
220
-0.0000000000000002
230
-1.0
 40
0.5773502691896276
 41
3.141592653589301
 42
3.813211382179676
  0
ELLIPSE
  5
DACD
330
18
100
AcDbEntity
  8
1：主線
100
AcDbEllipse
 10
2693.46595757221
 20
1252.073305236584
 30
0.0000000000194511
 11
12.50000000000143
 21
21.65063509461046
 31
-0.0000000000000065
210
-0.0000000000000002
220
-0.0000000000000002
230
-1.0
 40
0.5773502691896276
 41
2.352149484216547
 42
2.900273726325794
  0
ELLIPSE
  5
DACE
330
18
100
AcDbEntity
  8
1：主線
100
AcDbEllipse
 10
2658.110618512871
 20
1231.660890713389
 30
0.0000000000213163
 11
25.00000000000019
 21
43.30127018922227
 31
-0.0000000000000145
210
0.0000000000000002
220
0.0000000000000002
230
1.0
 40
0.577350269189628
 41
2.766465859452475
 42
3.926990816987119
  0
ELLIPSE
  5
DACF
330
18
100
AcDbEntity
  8
1：主線
100
AcDbEllipse
 10
2653.86797782573
 20
1234.110380456142
 30
0.0000000000242473
 11
24.99999999998058
 21
43.30127018918228
 31
-0.0000000000000183
210
-0.0000000000000004
220
-0.0000000000000002
230
-1.0
 40
0.5773502691896278
 41
3.14159265358935
 42
3.382669443810026
  0
ELLIPSE
  5
DAD0
330
18
100
AcDbEntity
  8
1：主線
100
AcDbEllipse
 10
2722.846244330503
 20
1332.725864400906
 30
0.0000000000235367
 11
44.54999999999954
 21
0.0000000000027327
 31
-0.0000000000000124
210
0.0000000000000003
220
0.0000000000000003
230
1.0
 40
0.577350269189625
 41
-2.356194490192646
 42
3.926990816986939
  0
ELLIPSE
  5
DAD1
330
18
100
AcDbEntity
  8
1：主線
100
AcDbEllipse
 10
2722.846244330503
 20
1128.60171916897
 30
0.0000000000207834
 11
44.55000000000021
 21
0.0000000000027296
 31
-0.0000000000000062
210
0.0000000000000001
220
0.0000000000000001
230
1.0
 40
0.5773502691896248
 41
3.141592653589365
 42
6.28318530717916
  0
ELLIPSE
  5
DAD2
330
18
100
AcDbEntity
  8
1：主線
100
AcDbEllipse
 10
2369.292853737233
 20
1016.292540423709
 30
0.0000000000159872
 11
21.34999999999746
 21
0.0000000000000341
 31
-0.000000000000003
210
-0.0000000000000001
220
-0.0000000000000002
230
-1.0
 40
0.5773502691896249
 41
-0.0000000000004254
 42
3.141592653589367
  0
LINE
  5
DAD3
330
18
100
AcDbEntity
  8
1：主線
100
AcDbLine
 10
2485.965472633022
 20
941.1748549783492
 30
0.0000000000161204
 11
2524.856345598276
 21
963.6285109538652
 31
0.0000000000268674
  0
ENDSEC
  0
SECTION
  2
OBJECTS
  0
DICTIONARY
  5
C
330
0
100
AcDbDictionary
281
     1
  3
ACAD_CIP_PREVIOUS_PRODUCT_INFO
350
57FF
  3
ACAD_COLOR
350
57DF
  3
ACAD_DETAILVIEWSTYLE
350
57F8
  3
ACAD_GROUP
350
D
  3
ACAD_LAYOUT
350
75E
  3
ACAD_MATERIAL
350
57AD
  3
ACAD_MLEADERSTYLE
350
57F4
  3
ACAD_MLINESTYLE
350
1B
  3
ACAD_PLOTSETTINGS
350
75F
  3
ACAD_PLOTSTYLENAME
350
75C
  3
ACAD_SCALELIST
350
57E2
  3
ACAD_SECTIONVIEWSTYLE
350
57F6
  3
ACAD_TABLESTYLE
350
57E0
  3
ACAD_VISUALSTYLE
350
57C6
  3
AcadDim
350
2413
  3
ACDB_RECOMPOSE_DATA
350
DAED
  3
ACDBVARIABLEDICTIONARY
350
33
  3
AEC_PROPERTY_SET_DEFS
350
BDB1
  3
CONTENTDICTIONARY
350
23
  0
DICTIONARY
  5
5826
330
8
100
AcDbDictionary
280
     1
281
     1
  0
DICTIONARY
  5
2886
330
2
100
AcDbDictionary
280
     1
281
     1
  3
ACAD_LAYERSTATES
360
46A0
  0
DICTIONARY
  5
5800
330
E
100
AcDbDictionary
280
     1
281
     1
  3
ADSK_XREC_LAYER_RECONCILED
360
5801
  0
DICTIONARY
  5
5804
330
32C
100
AcDbDictionary
280
     1
281
     1
  3
ADSK_XREC_LAYER_RECONCILED
360
5805
  0
DICTIONARY
  5
D0AF
330
D0AE
100
AcDbDictionary
280
     1
281
     1
  0
DICTIONARY
  5
D0DE
330
D0DD
100
AcDbDictionary
280
     1
281
     1
  0
DICTIONARY
  5
D109
330
D108
100
AcDbDictionary
280
     1
281
     1
  0
DICTIONARY
  5
5B07
330
18
100
AcDbDictionary
280
     1
281
     1
  3
ACAD_SORTENTS
360
5B08
  0
XRECORD
  5
57FF
102
{ACAD_REACTORS
330
C
102
}
330
C
100
AcDbXrecord
280
     1
300
ACDLT
300
2014
300
ACDLT_F_S
  0
DICTIONARY
  5
57DF
102
{ACAD_REACTORS
330
C
102
}
330
C
100
AcDbDictionary
281
     1
  0
DICTIONARY
  5
57F8
102
{ACAD_REACTORS
330
C
102
}
330
C
100
AcDbDictionary
281
     1
  3
Imperial24
350
A70A
  3
Metric50
350
57F9
  0
DICTIONARY
  5
D
102
{ACAD_REACTORS
330
C
102
}
330
C
100
AcDbDictionary
281
     1
  0
DICTIONARY
  5
75E
102
{ACAD_REACTORS
330
C
102
}
330
C
100
AcDbDictionary
281
     1
  3
Model
350
760
  3
ﾚｲｱｳﾄ1
350
761
  0
DICTIONARY
  5
57AD
102
{ACAD_REACTORS
330
C
102
}
330
C
100
AcDbDictionary
281
     1
  3
ByBlock
350
57B6
  3
ByLayer
350
57AE
  3
Global
350
57BE
  0
DICTIONARY
  5
57F4
102
{ACAD_REACTORS
330
C
102
}
330
C
100
AcDbDictionary
281
     1
  3
Standard
350
57F5
  0
DICTIONARY
  5
1B
102
{ACAD_REACTORS
330
C
102
}
330
C
100
AcDbDictionary
281
     1
  3
STANDARD
350
1C
  0
DICTIONARY
  5
75F
102
{ACAD_REACTORS
330
C
102
}
330
C
100
AcDbDictionary
281
     1
  3
オブA3
350
5884
  3
オブA3PDF
350
5885
  3
オブA3PDFカラー
350
5889
  3
オブA4
350
5887
  3
オブA4PDF
350
5886
  3
オブA4裏
350
5888
  0
ACDBDICTIONARYWDFLT
  5
75C
102
{ACAD_REACTORS
330
C
102
}
330
C
100
AcDbDictionary
281
     1
  3
Normal
350
75D
100
AcDbDictionaryWithDefault
340
75D
  0
DICTIONARY
  5
57E2
102
{ACAD_REACTORS
330
C
102
}
330
C
100
AcDbDictionary
281
     1
  3
A0
350
57E3
  3
A1
350
57E4
  3
A2
350
57E5
  3
A3
350
57E6
  3
A4
350
57E7
  3
A5
350
57E8
  3
A6
350
57E9
  3
A7
350
57EA
  3
A8
350
57EB
  3
A9
350
57EC
  3
B0
350
57ED
  3
B1
350
57EE
  3
B2
350
57EF
  3
B3
350
57F0
  3
B4
350
57F1
  3
B5
350
57F2
  3
B6
350
57F3
  0
DICTIONARY
  5
57F6
102
{ACAD_REACTORS
330
C
102
}
330
C
100
AcDbDictionary
281
     1
  3
Imperial24
350
A709
  3
Metric50
350
57F7
  0
DICTIONARY
  5
57E0
102
{ACAD_REACTORS
330
C
102
}
330
C
100
AcDbDictionary
281
     1
  3
Standard
350
57E1
  0
DICTIONARY
  5
57C6
102
{ACAD_REACTORS
330
C
102
}
330
C
100
AcDbDictionary
281
     1
  3
2dWireframe
350
57CC
  3
Basic
350
57CB
  3
Brighten
350
57D2
  3
ColorChange
350
57D6
  3
Conceptual
350
57CF
  3
Dim
350
57D1
  3
EdgeColorOff
350
57DE
  3
Facepattern
350
57D5
  3
Flat
350
57C7
  3
FlatWithEdges
350
57C8
  3
Gouraud
350
57C9
  3
GouraudWithEdges
350
57CA
  3
Hidden
350
57CE
  3
JitterOff
350
57DC
  3
Linepattern
350
57D4
  3
OverhangOff
350
57DD
  3
Realistic
350
57D0
  3
Shaded
350
57DB
  3
Shaded with edges
350
57DA
  3
Shades of Gray
350
57D7
  3
Sketchy
350
57D8
  3
Thicken
350
57D3
  3
Wireframe
350
57CD
  3
X-Ray
350
57D9
  0
XRECORD
  5
2413
102
{ACAD_REACTORS
330
C
102
}
330
C
100
AcDbXrecord
280
     1
 90
   990106
  3
OPEN
 60
     0
 61
     0
 62
     1
 63
     3
 64
     1
 65
     0
 66
     0
 67
     3
 68
     1
 69
     0
 70
     0
 71
     0
 72
     0
 40
0.0
170
     2
  0
XRECORD
  5
DAED
102
{ACAD_REACTORS
330
C
102
}
330
C
100
AcDbXrecord
280
     1
 90
        1
330
57E1
330
57F7
330
57F9
330
A709
330
A70A
330
D0E7
  0
DICTIONARY
  5
33
102
{ACAD_REACTORS
330
C
102
}
330
C
100
AcDbDictionary
281
     1
  3
CANNOSCALE
350
587B
  3
CMLEADERSTYLE
350
5878
  3
CTABLESTYLE
350
5877
  3
CVIEWDETAILSTYLE
350
5879
  3
CVIEWSECTIONSTYLE
350
587A
  3
DIMADEC
350
34
  3
DIMASSOC
350
23F7
  3
INDEXCTL
350
587C
  3
LAYEREVAL
350
D09C
  3
LAYERNOTIFY
350
D09D
  3
LIGHTINGUNITS
350
D09B
  3
MSLTSCALE
350
D09A
  3
SORTENTS
350
1383
  0
DICTIONARY
  5
BDB1
102
{ACAD_REACTORS
330
C
102
}
330
C
100
AcDbDictionary
281
     1
  0
DICTIONARY
  5
23
102
{ACAD_REACTORS
330
C
102
}
330
C
100
AcDbDictionary
281
     1
  0
DICTIONARY
  5
46A0
102
{ACAD_REACTORS
330
2886
102
}
330
2886
100
AcDbDictionary
281
     1
  0
XRECORD
  5
5801
102
{ACAD_REACTORS
330
5800
102
}
330
5800
100
AcDbXrecord
280
     1
290
     1
  0
XRECORD
  5
5805
102
{ACAD_REACTORS
330
5804
102
}
330
5804
100
AcDbXrecord
280
     1
290
     1
  0
SORTENTSTABLE
  5
5B08
102
{ACAD_REACTORS
330
5B07
102
}
330
5B07
100
AcDbSortentsTable
330
18
331
7A27
  5
7A27
  0
ACDBDETAILVIEWSTYLE
  5
A70A
102
{ACAD_XDICTIONARY
360
D0A5
102
}
102
{ACAD_REACTORS
330
57F8
102
}
330
57F8
100
AcDbModelDocViewStyle
 70
     0
  3
Imperial24
290
     0
100
AcDbDetailViewStyle
 70
     0
 71
     0
 90
        3
 71
     1
340
F
 62
   256
 40
0.24
340
0
 62
   256
 40
0.24
300

 40
0.36
280
     3
 71
     2
340
14
 90
       25
 62
   256
 71
     3
340
F
 62
   256
 40
0.24
 90
        1
 40
0.75
 90
        1
300
%<\AcVar ViewType \f "%tc1">% %<\AcVar ViewDetailId>%\PSCALE %<\AcVar ViewScale \f "%sn">%
 71
     4
340
14
 90
       25
 62
   256
340
14
 90
       25
 62
   256
280
     0
  0
ACDBDETAILVIEWSTYLE
  5
57F9
102
{ACAD_XDICTIONARY
360
D0A1
102
}
102
{ACAD_REACTORS
330
57F8
102
}
330
57F8
100
AcDbModelDocViewStyle
 70
     0
  3
Metric50
290
     0
100
AcDbDetailViewStyle
 70
     0
 71
     0
 90
        3
 71
     1
340
F
 62
   256
 40
5.0
340
0
 62
   256
 40
5.0
300

 40
0.0
280
     1
 71
     2
340
14
 90
       25
 62
   256
 71
     3
340
F
 62
   256
 40
5.0
 90
        0
 40
15.0
 90
        1
300
%<\AcVar ViewDetailId>% (%<\AcVar ViewScale \f "%sn">%)
 71
     4
340
14
 90
       25
 62
   256
340
14
 90
       25
 62
   256
280
     0
  0
LAYOUT
  5
760
102
{ACAD_REACTORS
330
75E
102
}
330
75E
100
AcDbPlotSettings
  1

  2
KONICA MINOLTA C364SeriesPCL
  4
A3
  6

 40
5.027082920074462
 41
5.027069091796875
 42
5.027099609375
 43
5.027069091796875
 44
296.9259948730469
 45
419.9466552734373
 46
0.8104534522212246
 47
0.844643083534379
 48
0.6602245427074767
 49
2.274885139995582
140
11080.66022454271
141
15602.27488513999
142
1.0
143
4.0
 70
  3748
 72
     1
 73
     1
 74
     1
  7
TAGAI1.CTB
 75
     0
147
0.2027157928435555
 76
     0
 77
     2
 78
   300
148
0.0342067849396699
149
0.0064483113992537
100
AcDbLayout
  1
Model
 70
     1
 71
     0
 10
0.0
 20
0.0
 11
12.0
 21
9.0
 12
0.0
 22
0.0
 32
0.0
 14
0.0
 24
0.0
 34
0.0
 15
0.0
 25
0.0
 35
0.0
146
0.0
 13
0.0
 23
0.0
 33
0.0
 16
1.0
 26
0.0
 36
0.0
 17
0.0
 27
1.0
 37
0.0
 76
     0
330
18
331
57AB
1001
ACAD_PSEXT
1000
KONICA MINOLTA C364SeriesPCL
1000
KONICA MINOLTA C364SeriesPCL
1000
IP_192.168.21.25
1000

1070
     0
  0
LAYOUT
  5
761
102
{ACAD_REACTORS
330
75E
102
}
330
75E
100
AcDbPlotSettings
  1

  2
Canon LASER SHOT LBP-850
  4

  6

 40
0.0
 41
0.0
 42
0.0
 43
0.0
 44
0.0
 45
0.0
 46
0.0
 47
0.0
 48
0.0
 49
0.0
140
0.0
141
0.0
142
1.0
143
1.0
 70
   688
 72
     0
 73
     0
 74
     5
  7
tagai1.ctb
 75
    16
147
1.0
 76
     0
 77
     2
 78
   300
148
0.0
149
0.0
100
AcDbLayout
  1
ﾚｲｱｳﾄ1
 70
     1
 71
     1
 10
0.0
 20
0.0
 11
420.0
 21
297.0
 12
0.0
 22
0.0
 32
0.0
 14
1.000000000000000E+20
 24
1.000000000000000E+20
 34
1.000000000000000E+20
 15
-1.000000000000000E+20
 25
-1.000000000000000E+20
 35
-1.000000000000000E+20
146
0.0
 13
0.0
 23
0.0
 33
0.0
 16
1.0
 26
0.0
 36
0.0
 17
0.0
 27
1.0
 37
0.0
 76
     0
330
15
  0
MATERIAL
  5
57B6
102
{ACAD_XDICTIONARY
360
57B7
102
}
102
{ACAD_REACTORS
330
57AD
102
}
330
57AD
100
AcDbMaterial
  1
ByBlock
 72
     0
 43
0.0208333333333333
 43
0.0
 43
0.0
 43
0.0
 43
0.0
 43
0.0208333333333333
 43
0.0
 43
0.0
 43
0.0
 43
0.0
 43
1.0
 43
0.0
 43
0.0
 43
0.0
 43
0.0
 43
1.0
 77
     0
 47
0.0208333333333333
 47
0.0
 47
0.0
 47
0.0
 47
0.0
 47
0.0208333333333333
 47
0.0
 47
0.0
 47
0.0
 47
0.0
 47
1.0
 47
0.0
 47
0.0
 47
0.0
 47
0.0
 47
1.0
171
     0
 49
0.0208333333333333
 49
0.0
 49
0.0
 49
0.0
 49
0.0
 49
0.0208333333333333
 49
0.0
 49
0.0
 49
0.0
 49
0.0
 49
1.0
 49
0.0
 49
0.0
 49
0.0
 49
0.0
 49
1.0
175
     0
142
0.0208333333333333
142
0.0
142
0.0
142
0.0
142
0.0
142
0.0208333333333333
142
0.0
142
0.0
142
0.0
142
0.0
142
1.0
142
0.0
142
0.0
142
0.0
142
0.0
142
1.0
179
     0
144
0.0208333333333333
144
0.0
144
0.0
144
0.0
144
0.0
144
0.0208333333333333
144
0.0
144
0.0
144
0.0
144
0.0
144
1.0
144
0.0
144
0.0
144
0.0
144
0.0
144
1.0
147
0.0208333333333333
147
0.0
147
0.0
147
0.0
147
0.0
147
0.0208333333333333
147
0.0
147
0.0
147
0.0
147
0.0
147
1.0
147
0.0
147
0.0
147
0.0
147
0.0
147
1.0
  0
MATERIAL
  5
57AE
102
{ACAD_XDICTIONARY
360
57AF
102
}
102
{ACAD_REACTORS
330
57AD
102
}
330
57AD
100
AcDbMaterial
  1
ByLayer
 72
     0
 43
0.0208333333333333
 43
0.0
 43
0.0
 43
0.0
 43
0.0
 43
0.0208333333333333
 43
0.0
 43
0.0
 43
0.0
 43
0.0
 43
1.0
 43
0.0
 43
0.0
 43
0.0
 43
0.0
 43
1.0
 77
     0
 47
0.0208333333333333
 47
0.0
 47
0.0
 47
0.0
 47
0.0
 47
0.0208333333333333
 47
0.0
 47
0.0
 47
0.0
 47
0.0
 47
1.0
 47
0.0
 47
0.0
 47
0.0
 47
0.0
 47
1.0
171
     0
 49
0.0208333333333333
 49
0.0
 49
0.0
 49
0.0
 49
0.0
 49
0.0208333333333333
 49
0.0
 49
0.0
 49
0.0
 49
0.0
 49
1.0
 49
0.0
 49
0.0
 49
0.0
 49
0.0
 49
1.0
175
     0
142
0.0208333333333333
142
0.0
142
0.0
142
0.0
142
0.0
142
0.0208333333333333
142
0.0
142
0.0
142
0.0
142
0.0
142
1.0
142
0.0
142
0.0
142
0.0
142
0.0
142
1.0
179
     0
144
0.0208333333333333
144
0.0
144
0.0
144
0.0
144
0.0
144
0.0208333333333333
144
0.0
144
0.0
144
0.0
144
0.0
144
1.0
144
0.0
144
0.0
144
0.0
144
0.0
144
1.0
147
0.0208333333333333
147
0.0
147
0.0
147
0.0
147
0.0
147
0.0208333333333333
147
0.0
147
0.0
147
0.0
147
0.0
147
1.0
147
0.0
147
0.0
147
0.0
147
0.0
147
1.0
  0
MATERIAL
  5
57BE
102
{ACAD_XDICTIONARY
360
57BF
102
}
102
{ACAD_REACTORS
330
57AD
102
}
330
57AD
100
AcDbMaterial
  1
Global
 72
     0
 43
0.0208333333333333
 43
0.0
 43
0.0
 43
0.0
 43
0.0
 43
0.0208333333333333
 43
0.0
 43
0.0
 43
0.0
 43
0.0
 43
1.0
 43
0.0
 43
0.0
 43
0.0
 43
0.0
 43
1.0
 77
     0
 47
0.0208333333333333
 47
0.0
 47
0.0
 47
0.0
 47
0.0
 47
0.0208333333333333
 47
0.0
 47
0.0
 47
0.0
 47
0.0
 47
1.0
 47
0.0
 47
0.0
 47
0.0
 47
0.0
 47
1.0
171
     0
 49
0.0208333333333333
 49
0.0
 49
0.0
 49
0.0
 49
0.0
 49
0.0208333333333333
 49
0.0
 49
0.0
 49
0.0
 49
0.0
 49
1.0
 49
0.0
 49
0.0
 49
0.0
 49
0.0
 49
1.0
175
     0
142
0.0208333333333333
142
0.0
142
0.0
142
0.0
142
0.0
142
0.0208333333333333
142
0.0
142
0.0
142
0.0
142
0.0
142
1.0
142
0.0
142
0.0
142
0.0
142
0.0
142
1.0
179
     0
144
0.0208333333333333
144
0.0
144
0.0
144
0.0
144
0.0
144
0.0208333333333333
144
0.0
144
0.0
144
0.0
144
0.0
144
1.0
144
0.0
144
0.0
144
0.0
144
0.0
144
1.0
147
0.0208333333333333
147
0.0
147
0.0
147
0.0
147
0.0
147
0.0208333333333333
147
0.0
147
0.0
147
0.0
147
0.0
147
1.0
147
0.0
147
0.0
147
0.0
147
0.0
147
1.0
  0
MLEADERSTYLE
  5
57F5
102
{ACAD_REACTORS
330
57F4
102
}
330
57F4
100
AcDbMLeaderStyle
179
     2
170
     2
171
     1
172
     0
 90
        2
 40
0.0
 41
0.0
173
     1
 91
-1056964608
340
12
 92
       -2
290
     1
 42
2.0
291
     1
 43
0.36
  3
Standard
 44
4.0
300

342
F
174
     1
178
     6
175
     1
176
     0
 93
-1056964608
 45
4.0
292
     0
297
     0
 46
4.0
 94
-1056964608
 47
1.0
 49
1.0
140
1.0
293
     1
141
0.0
294
     1
177
     0
142
1.0
295
     0
296
     0
143
0.125
271
     0
272
     9
273
     9
298
     1
  0
MLINESTYLE
  5
1C
102
{ACAD_REACTORS
330
1B
102
}
330
1B
100
AcDbMlineStyle
  2
STANDARD
 70
     0
  3

 62
   256
 51
90.0
 52
90.0
 71
     2
 49
0.5
 62
   256
  6
BYLAYER
 49
-0.5
 62
   256
  6
BYLAYER
  0
PLOTSETTINGS
  5
5884
102
{ACAD_REACTORS
330
75F
102
}
330
75F
100
AcDbPlotSettings
  1
オブA3
  2
EPSON LP-S3000
  4
A3
  6

 40
5.873749732971191
 41
5.873747825622557
 42
5.873748779296875
 43
5.873748779296875
 44
297.0106506347656
 45
419.9466552734373
 46
0.0
 47
0.0
 48
0.6602245427074767
 49
2.274885139995582
140
11080.66022454271
141
15602.27488513999
142
1.0
143
1.000009796045915
 70
  1716
 72
     1
 73
     1
 74
     1
  7
TAGAI1.CTB
 75
     0
147
0.9999902040500462
 76
     0
 77
     2
 78
   300
148
0.0062252642686644
149
0.0087050081928055
  0
PLOTSETTINGS
  5
5885
102
{ACAD_REACTORS
330
75F
102
}
330
75F
100
AcDbPlotSettings
  1
オブA3PDF
  2
Adobe PDF
  4
A3
  6

 40
3.174999952316283
 41
3.174999952316283
 42
3.17498779296875
 43
3.17498779296875
 44
297.0318298339844
 45
420.1583251953125
 46
0.7618695942057912
 47
0.0
 48
0.6602245427074767
 49
2.274885139995582
140
11080.66022454271
141
15602.27488513999
142
1.0
143
0.9864847522617806
 70
  3764
 72
     1
 73
     1
 74
     1
  7
TAGAI1.CTB
 75
     0
147
1.013700412203262
 76
     0
 77
     2
 78
   300
148
0.0186822558410995
149
-0.0043545630755943
1001
ACAD_PSEXT
1000
Adobe PDF
1000
Adobe PDF Converter
1000
My Documents
1000

1070
     0
  0
PLOTSETTINGS
  5
5889
102
{ACAD_REACTORS
330
75F
102
}
330
75F
100
AcDbPlotSettings
  1
オブA3PDFカラー
  2
Adobe PDF
  4
A3
  6

 40
3.174999952316283
 41
3.174999952316283
 42
3.17498779296875
 43
3.17498779296875
 44
297.0318298339844
 45
420.1583251953125
 46
0.7618695942057912
 47
0.0
 48
0.6602245427074767
 49
2.274885139995582
140
11080.66022454271
141
15602.27488513999
142
1.0
143
0.9864847522617806
 70
  3732
 72
     1
 73
     1
 74
     1
  7
TAGAI1.CTB
 75
     0
147
1.013700412203262
 76
     0
 77
     2
 78
   300
148
0.0186822558410995
149
-0.0043545630755943
1001
ACAD_PSEXT
1000
Adobe PDF
1000
Adobe PDF Converter
1000
My Documents
1000

1070
     0
  0
PLOTSETTINGS
  5
5887
102
{ACAD_REACTORS
330
75F
102
}
330
75F
100
AcDbPlotSettings
  1
オブA4
  2
EPSON LP-S3000
  4
A4
  6

 40
5.873749732971191
 41
5.873747825622557
 42
5.873748779296875
 43
5.873748779296875
 44
209.9733276367186
 45
297.0106506347656
 46
0.0
 47
0.8
 48
0.6602245427074767
 49
2.274885139995582
140
11080.66022454271
141
15602.27488513999
142
1.0
143
1.439081479612396
 70
  1716
 72
     1
 73
     1
 74
     1
  7
TAGAI1.CTB
 75
     0
147
0.6948876864632718
 76
     0
 77
     2
 78
   300
148
0.0062252642686644
149
0.0087050081928055
  0
PLOTSETTINGS
  5
5886
102
{ACAD_REACTORS
330
75F
102
}
330
75F
100
AcDbPlotSettings
  1
オブA4PDF
  2
Adobe PDF
  4
A4
  6

 40
3.174999952316283
 41
3.174999952316283
 42
3.175003051757812
 43
3.17498779296875
 44
209.9733276367186
 45
297.0318298339844
 46
0.2513475533557994
 47
0.0
 48
0.6602245427074767
 49
2.274885139995582
140
11080.66022454271
141
15602.27488513999
142
1.0
143
1.404338201244389
 70
  3764
 72
     1
 73
     1
 74
     1
  7
TAGAI1.CTB
 75
     0
147
0.7120791837136498
 76
     0
 77
     2
 78
   300
148
0.0186822558410995
149
-0.0043545630755943
1001
ACAD_PSEXT
1000
Adobe PDF
1000
Adobe PDF Converter
1000
My Documents
1000

1070
     0
  0
PLOTSETTINGS
  5
5888
102
{ACAD_REACTORS
330
75F
102
}
330
75F
100
AcDbPlotSettings
  1
オブA4裏
  2
EPSON LP-S3000.pc3
  4
A4
  6

 40
5.873749732971191
 41
5.873747825622557
 42
5.873748779296875
 43
5.873748779296875
 44
209.9733276367186
 45
297.0106506347656
 46
0.0
 47
0.8
 48
0.6602245427074767
 49
2.274885139995582
140
11080.66022454271
141
15602.27488513999
142
1.0
143
1.439081479612396
 70
  1716
 72
     1
 73
     1
 74
     1
  7
TAGAI1.CTB
 75
     0
147
0.6948876864632718
 76
     0
 77
     2
 78
   300
148
0.0062252642686644
149
0.0087050081928055
  0
ACDBPLACEHOLDER
  5
75D
102
{ACAD_REACTORS
330
75C
102
}
330
75C
  0
SCALE
  5
57E3
102
{ACAD_REACTORS
330
57E2
102
}
330
57E2
100
AcDbScale
 70
     0
300
1:1
140
1.0
141
1.0
290
     1
  0
SCALE
  5
57E4
102
{ACAD_REACTORS
330
57E2
102
}
330
57E2
100
AcDbScale
 70
     0
300
1:2
140
1.0
141
2.0
290
     0
  0
SCALE
  5
57E5
102
{ACAD_REACTORS
330
57E2
102
}
330
57E2
100
AcDbScale
 70
     0
300
1:4
140
1.0
141
4.0
290
     0
  0
SCALE
  5
57E6
102
{ACAD_REACTORS
330
57E2
102
}
330
57E2
100
AcDbScale
 70
     0
300
1:5
140
1.0
141
5.0
290
     0
  0
SCALE
  5
57E7
102
{ACAD_REACTORS
330
57E2
102
}
330
57E2
100
AcDbScale
 70
     0
300
1:8
140
1.0
141
8.0
290
     0
  0
SCALE
  5
57E8
102
{ACAD_REACTORS
330
57E2
102
}
330
57E2
100
AcDbScale
 70
     0
300
1:10
140
1.0
141
10.0
290
     0
  0
SCALE
  5
57E9
102
{ACAD_REACTORS
330
57E2
102
}
330
57E2
100
AcDbScale
 70
     0
300
1:16
140
1.0
141
16.0
290
     0
  0
SCALE
  5
57EA
102
{ACAD_REACTORS
330
57E2
102
}
330
57E2
100
AcDbScale
 70
     0
300
1:20
140
1.0
141
20.0
290
     0
  0
SCALE
  5
57EB
102
{ACAD_REACTORS
330
57E2
102
}
330
57E2
100
AcDbScale
 70
     0
300
1:30
140
1.0
141
30.0
290
     0
  0
SCALE
  5
57EC
102
{ACAD_REACTORS
330
57E2
102
}
330
57E2
100
AcDbScale
 70
     0
300
1:40
140
1.0
141
40.0
290
     0
  0
SCALE
  5
57ED
102
{ACAD_REACTORS
330
57E2
102
}
330
57E2
100
AcDbScale
 70
     0
300
1:50
140
1.0
141
50.0
290
     0
  0
SCALE
  5
57EE
102
{ACAD_REACTORS
330
57E2
102
}
330
57E2
100
AcDbScale
 70
     0
300
1:100
140
1.0
141
100.0
290
     0
  0
SCALE
  5
57EF
102
{ACAD_REACTORS
330
57E2
102
}
330
57E2
100
AcDbScale
 70
     0
300
2:1
140
2.0
141
1.0
290
     0
  0
SCALE
  5
57F0
102
{ACAD_REACTORS
330
57E2
102
}
330
57E2
100
AcDbScale
 70
     0
300
4:1
140
4.0
141
1.0
290
     0
  0
SCALE
  5
57F1
102
{ACAD_REACTORS
330
57E2
102
}
330
57E2
100
AcDbScale
 70
     0
300
8:1
140
8.0
141
1.0
290
     0
  0
SCALE
  5
57F2
102
{ACAD_REACTORS
330
57E2
102
}
330
57E2
100
AcDbScale
 70
     0
300
10:1
140
10.0
141
1.0
290
     0
  0
SCALE
  5
57F3
102
{ACAD_REACTORS
330
57E2
102
}
330
57E2
100
AcDbScale
 70
     0
300
100:1
140
100.0
141
1.0
290
     0
  0
ACDBSECTIONVIEWSTYLE
  5
A709
102
{ACAD_XDICTIONARY
360
D0A3
102
}
102
{ACAD_REACTORS
330
57F6
102
}
330
57F6
100
AcDbModelDocViewStyle
 70
     0
  3
Imperial24
290
     0
100
AcDbSectionViewStyle
 70
     0
 71
     0
 90
       78
 71
     1
340
F
 62
   256
 40
0.24
340
0
340
0
 62
   256
 40
0.24
300
I, O, Q, S, X, Z
 40
0.48
 90
        3
 40
0.18
 90
        1
 71
     2
340
14
 90
       25
 62
   256
340
14
 90
       50
 62
   256
 40
0.24
 40
0.0
 40
0.24
 71
     3
340
F
 62
   256
 40
0.24
 90
        1
 40
0.75
 90
        1
300
%<\AcVar ViewType \f "%tc1">% %<\AcVar ViewSectionStartId>%-%<\AcVar ViewSectionEndId>%\PSCALE %<\AcVar ViewScale \f "%sn">%
 71
     4
 62
   256
 62
   257
300
ANSI31
 40
1.0
 90
        0
290
     0
290
     0
 90
        6
 40
0.0
 40
1.570796326794896
 40
0.2617993877991494
 40
1.308996938995747
 40
-0.2617993877991494
 40
1.832595714594045
  0
ACDBSECTIONVIEWSTYLE
  5
57F7
102
{ACAD_XDICTIONARY
360
D09F
102
}
102
{ACAD_REACTORS
330
57F6
102
}
330
57F6
100
AcDbModelDocViewStyle
 70
     0
  3
Metric50
290
     0
100
AcDbSectionViewStyle
 70
     0
 71
     0
 90
      102
 71
     1
340
F
 62
   256
 40
5.0
340
0
340
0
 62
   256
 40
5.0
300
I, O, Q, S, X, Z
 40
10.0
 90
        0
 40
2.5
 90
        0
 71
     2
340
14
 90
       25
 62
   256
340
14
 90
       50
 62
   256
 40
5.0
 40
2.5
 40
5.0
 71
     3
340
F
 62
   256
 40
5.0
 90
        0
 40
15.0
 90
        1
300
%<\AcVar ViewSectionStartId>%-%<\AcVar ViewSectionEndId>% (%<\AcVar ViewScale \f "%sn">%)
 71
     4
 62
   256
 62
   257
300
ANSI31
 40
1.0
 90
        0
290
     0
290
     0
 90
        6
 40
0.0
 40
1.570796326794896
 40
0.2617993877991494
 40
1.308996938995747
 40
-0.2617993877991494
 40
1.832595714594045
  0
TABLESTYLE
  5
57E1
102
{ACAD_XDICTIONARY
360
5822
102
}
102
{ACAD_REACTORS
330
57E0
102
}
330
57E0
100
AcDbTableStyle
280
     0
  3
Standard
 70
     0
 71
     0
 40
1.5
 41
1.5
280
     0
281
     0
  7
STANDARD
140
4.5
170
     2
 62
     0
 63
     7
283
     0
 90
      512
 91
        0
  1

274
    -2
284
     1
 64
     0
275
    -2
285
     1
 65
     0
276
    -2
286
     1
 66
     0
277
    -2
287
     1
 67
     0
278
    -2
288
     1
 68
     0
279
    -2
289
     1
 69
     0
  7
STANDARD
140
6.0
170
     5
 62
     0
 63
     7
283
     0
 90
      512
 91
        0
  1

274
    -2
284
     1
 64
     0
275
    -2
285
     1
 65
     0
276
    -2
286
     1
 66
     0
277
    -2
287
     1
 67
     0
278
    -2
288
     1
 68
     0
279
    -2
289
     1
 69
     0
  7
STANDARD
140
4.5
170
     5
 62
     0
 63
     7
283
     0
 90
      512
 91
        0
  1

274
    -2
284
     1
 64
     0
275
    -2
285
     1
 65
     0
276
    -2
286
     1
 66
     0
277
    -2
287
     1
 67
     0
278
    -2
288
     1
 68
     0
279
    -2
289
     1
 69
     0
  0
VISUALSTYLE
  5
57CC
102
{ACAD_REACTORS
330
57C6
102
}
330
57C6
100
AcDbVisualStyle
  2
2dWireframe
 70
     4
177
     3
291
     0
 70
    58
 90
        0
176
     1
 90
        2
176
     1
 90
        0
176
     1
 90
        0
176
     1
 40
0.6
176
     1
 40
30.0
176
     1
 62
     7
176
     1
 90
        1
176
     1
 90
        4
176
     1
 62
     7
176
     1
 62
   257
176
     1
 90
        1
176
     1
 90
        1
176
     1
 40
1.0
176
     1
 90
        0
176
     1
 62
   257
176
     1
 40
1.0
176
     1
 90
        1
176
     1
 90
        6
176
     1
 90
        2
176
     1
 62
     7
176
     1
 90
        5
176
     1
 90
        0
176
     1
 90
        0
176
     1
290
     0
176
     1
 90
        1
176
     1
 40
0.0
176
     1
 90
        0
176
     1
290
     1
176
     1
290
     1
176
     1
290
     0
176
     1
290
     0
176
     1
290
     0
176
     1
290
     0
176
     1
290
     0
176
     1
290
     0
176
     1
290
     0
176
     1
 90
       50
176
     1
 40
0.0
176
     1
 40
1.0
176
     1
 90
        0
176
     1
 62
    18
176
     1
 90
       50
176
     1
 90
        3
176
     1
 62
     5
420
      255
176
     1
290
     0
176
     1
 90
       50
176
     1
 90
       50
176
     1
 90
       50
176
     1
290
     0
176
     1
 90
       50
176
     1
 62
   256
176
     0
 40
1.0
176
     0
 90
        2
176
     1
  1
strokes_ogs.tif
176
     1
290
     0
176
     1
 40
1.0
176
     1
 40
1.0
176
     1
  0
VISUALSTYLE
  5
57CB
102
{ACAD_REACTORS
330
57C6
102
}
330
57C6
100
AcDbVisualStyle
  2
Basic
 70
     7
177
     3
291
     1
 70
    58
 90
        1
176
     1
 90
        0
176
     1
 90
        1
176
     1
 90
        0
176
     1
 40
0.6
176
     1
 40
30.0
176
     1
 62
     7
176
     1
 90
        0
176
     1
 90
        4
176
     1
 62
     7
176
     1
 62
   257
176
     1
 90
        1
176
     1
 90
        1
176
     1
 40
1.0
176
     1
 90
        8
176
     1
 62
     7
176
     1
 40
1.0
176
     1
 90
        1
176
     1
 90
        6
176
     1
 90
        2
176
     1
 62
     7
176
     1
 90
        5
176
     1
 90
        0
176
     1
 90
        0
176
     1
290
     0
176
     1
 90
        1
176
     1
 40
0.0
176
     1
 90
        0
176
     1
290
     0
176
     1
290
     1
176
     1
290
     1
176
     1
290
     0
176
     1
290
     0
176
     1
290
     0
176
     1
290
     0
176
     1
290
     0
176
     1
290
     0
176
     1
 90
       50
176
     1
 40
0.0
176
     1
 40
1.0
176
     1
 90
        0
176
     1
 62
    18
176
     1
 90
       50
176
     1
 90
        3
176
     1
 62
     5
420
      255
176
     1
290
     0
176
     1
 90
       50
176
     1
 90
       50
176
     1
 90
       50
176
     1
290
     0
176
     1
 90
       50
176
     1
 62
   256
176
     0
 40
1.0
176
     0
 90
        2
176
     1
  1
strokes_ogs.tif
176
     1
290
     0
176
     1
 40
1.0
176
     1
 40
1.0
176
     1
  0
VISUALSTYLE
  5
57D2
102
{ACAD_REACTORS
330
57C6
102
}
330
57C6
100
AcDbVisualStyle
  2
Brighten
 70
    12
177
     3
291
     1
 70
    58
 90
        2
176
     1
 90
        2
176
     1
 90
        0
176
     1
 90
        0
176
     1
 40
0.6
176
     1
 40
30.0
176
     1
 62
     7
176
     1
 90
        1
176
     1
 90
        4
176
     1
 62
     7
176
     1
 62
   257
176
     1
 90
        1
176
     1
 90
        1
176
     1
 40
1.0
176
     1
 90
        8
176
     1
 62
     7
176
     1
 40
1.0
176
     1
 90
        1
176
     1
 90
        6
176
     1
 90
        2
176
     1
 62
     7
176
     1
 90
        5
176
     1
 90
        0
176
     1
 90
        0
176
     1
290
     0
176
     1
 90
        1
176
     1
 40
50.0
176
     1
 90
        0
176
     1
290
     0
176
     1
290
     1
176
     1
290
     1
176
     1
290
     0
176
     1
290
     0
176
     1
290
     0
176
     1
290
     0
176
     1
290
     0
176
     1
290
     0
176
     1
 90
       50
176
     1
 40
0.0
176
     1
 40
1.0
176
     1
 90
        0
176
     1
 62
    18
176
     1
 90
       50
176
     1
 90
        3
176
     1
 62
     5
420
      255
176
     1
290
     0
176
     1
 90
       50
176
     1
 90
       50
176
     1
 90
       50
176
     1
290
     0
176
     1
 90
       50
176
     1
 62
   256
176
     0
 40
1.0
176
     0
 90
        2
176
     1
  1
strokes_ogs.tif
176
     1
290
     0
176
     1
 40
1.0
176
     1
 40
1.0
176
     1
  0
VISUALSTYLE
  5
57D6
102
{ACAD_REACTORS
330
57C6
102
}
330
57C6
100
AcDbVisualStyle
  2
ColorChange
 70
    16
177
     3
291
     1
 70
    58
 90
        2
176
     1
 90
        2
176
     1
 90
        3
176
     1
 90
        0
176
     1
 40
0.6
176
     1
 40
30.0
176
     1
 62
     8
176
     1
 90
        1
176
     1
 90
        4
176
     1
 62
     7
176
     1
 62
   257
176
     1
 90
        1
176
     1
 90
        1
176
     1
 40
1.0
176
     1
 90
        8
176
     1
 62
     8
176
     1
 40
1.0
176
     1
 90
        1
176
     1
 90
        6
176
     1
 90
        2
176
     1
 62
     7
176
     1
 90
        5
176
     1
 90
        0
176
     1
 90
        0
176
     1
290
     0
176
     1
 90
        1
176
     1
 40
0.0
176
     1
 90
        0
176
     1
290
     0
176
     1
290
     1
176
     1
290
     1
176
     1
290
     0
176
     1
290
     0
176
     1
290
     0
176
     1
290
     0
176
     1
290
     0
176
     1
290
     0
176
     1
 90
       50
176
     1
 40
0.0
176
     1
 40
1.0
176
     1
 90
        0
176
     1
 62
    18
176
     1
 90
       50
176
     1
 90
        3
176
     1
 62
     5
420
      255
176
     1
290
     0
176
     1
 90
       50
176
     1
 90
       50
176
     1
 90
       50
176
     1
290
     0
176
     1
 90
       50
176
     1
 62
   256
176
     0
 40
1.0
176
     0
 90
        2
176
     1
  1
strokes_ogs.tif
176
     1
290
     0
176
     1
 40
1.0
176
     1
 40
1.0
176
     1
  0
VISUALSTYLE
  5
57CF
102
{ACAD_REACTORS
330
57C6
102
}
330
57C6
100
AcDbVisualStyle
  2
Conceptual
 70
     9
177
     3
291
     0
 70
    58
 90
        3
176
     1
 90
        2
176
     1
 90
        0
176
     1
 90
        0
176
     1
 40
0.6
176
     1
 40
30.0
176
     1
 62
     7
176
     1
 90
        2
176
     1
 90
        2
176
     1
 62
     7
176
     1
 62
   257
176
     1
 90
        1
176
     1
 90
        1
176
     1
 40
179.0
176
     1
 90
        8
176
     1
 62
     7
176
     1
 40
1.0
176
     1
 90
        1
176
     1
 90
        6
176
     1
 90
        2
176
     1
 62
     7
176
     1
 90
        3
176
     1
 90
        0
176
     1
 90
        0
176
     1
290
     0
176
     1
 90
        1
176
     1
 40
0.0
176
     1
 90
        0
176
     1
290
     0
176
     1
290
     1
176
     1
290
     1
176
     1
290
     0
176
     1
290
     0
176
     1
290
     0
176
     1
290
     0
176
     1
290
     0
176
     1
290
     0
176
     1
 90
       50
176
     1
 40
0.0
176
     1
 40
1.0
176
     1
 90
        0
176
     1
 62
    18
176
     1
 90
       50
176
     1
 90
        3
176
     1
 62
     5
420
      255
176
     1
290
     0
176
     1
 90
       50
176
     1
 90
       50
176
     1
 90
       50
176
     1
290
     0
176
     1
 90
       50
176
     1
 62
   256
176
     0
 40
1.0
176
     0
 90
        2
176
     1
  1
strokes_ogs.tif
176
     1
290
     0
176
     1
 40
1.0
176
     1
 40
1.0
176
     1
  0
VISUALSTYLE
  5
57D1
102
{ACAD_REACTORS
330
57C6
102
}
330
57C6
100
AcDbVisualStyle
  2
Dim
 70
    11
177
     3
291
     1
 70
    58
 90
        2
176
     1
 90
        2
176
     1
 90
        0
176
     1
 90
        0
176
     1
 40
0.6
176
     1
 40
30.0
176
     1
 62
     7
176
     1
 90
        1
176
     1
 90
        4
176
     1
 62
     7
176
     1
 62
   257
176
     1
 90
        1
176
     1
 90
        1
176
     1
 40
1.0
176
     1
 90
        8
176
     1
 62
     7
176
     1
 40
1.0
176
     1
 90
        1
176
     1
 90
        6
176
     1
 90
        2
176
     1
 62
     7
176
     1
 90
        5
176
     1
 90
        0
176
     1
 90
        0
176
     1
290
     0
176
     1
 90
        1
176
     1
 40
-50.0
176
     1
 90
        0
176
     1
290
     0
176
     1
290
     1
176
     1
290
     1
176
     1
290
     0
176
     1
290
     0
176
     1
290
     0
176
     1
290
     0
176
     1
290
     0
176
     1
290
     0
176
     1
 90
       50
176
     1
 40
0.0
176
     1
 40
1.0
176
     1
 90
        0
176
     1
 62
    18
176
     1
 90
       50
176
     1
 90
        3
176
     1
 62
     5
420
      255
176
     1
290
     0
176
     1
 90
       50
176
     1
 90
       50
176
     1
 90
       50
176
     1
290
     0
176
     1
 90
       50
176
     1
 62
   256
176
     0
 40
1.0
176
     0
 90
        2
176
     1
  1
strokes_ogs.tif
176
     1
290
     0
176
     1
 40
1.0
176
     1
 40
1.0
176
     1
  0
VISUALSTYLE
  5
57DE
102
{ACAD_REACTORS
330
57C6
102
}
330
57C6
100
AcDbVisualStyle
  2
EdgeColorOff
 70
    22
177
     3
291
     1
 70
    58
 90
        2
176
     0
 90
        2
176
     0
 90
        0
176
     0
 90
        0
176
     0
 40
0.6
176
     0
 40
30.0
176
     0
 62
     7
176
     0
 90
        1
176
     0
 90
        4
176
     0
 62
     7
176
     0
 62
   257
176
     0
 90
        1
176
     0
 90
        1
176
     0
 40
1.0
176
     0
 90
        8
176
     2
 62
     7
176
     0
 40
1.0
176
     0
 90
        1
176
     0
 90
        6
176
     0
 90
        2
176
     0
 62
     7
176
     0
 90
        5
176
     0
 90
        0
176
     0
 90
        0
176
     0
290
     0
176
     0
 90
        1
176
     0
 40
0.0
176
     0
 90
        0
176
     0
290
     0
176
     0
290
     1
176
     0
290
     1
176
     0
290
     0
176
     0
290
     0
176
     0
290
     0
176
     0
290
     0
176
     0
290
     0
176
     0
290
     0
176
     0
 90
       50
176
     0
 40
0.0
176
     0
 40
1.0
176
     0
 90
        0
176
     0
 62
    18
176
     0
 90
       50
176
     0
 90
        3
176
     0
 62
     5
420
      255
176
     0
290
     0
176
     0
 90
       50
176
     0
 90
       50
176
     0
 90
       50
176
     0
290
     0
176
     0
 90
       50
176
     0
 62
   256
176
     0
 40
1.0
176
     0
 90
        2
176
     0
  1
strokes_ogs.tif
176
     0
290
     0
176
     0
 40
1.0
176
     0
 40
1.0
176
     0
  0
VISUALSTYLE
  5
57D5
102
{ACAD_REACTORS
330
57C6
102
}
330
57C6
100
AcDbVisualStyle
  2
Facepattern
 70
    15
177
     3
291
     1
 70
    58
 90
        2
176
     1
 90
        2
176
     1
 90
        0
176
     1
 90
        0
176
     1
 40
0.6
176
     1
 40
30.0
176
     1
 62
     7
176
     1
 90
        1
176
     1
 90
        4
176
     1
 62
     7
176
     1
 62
   257
176
     1
 90
        1
176
     1
 90
        1
176
     1
 40
1.0
176
     1
 90
        8
176
     1
 62
     7
176
     1
 40
1.0
176
     1
 90
        1
176
     1
 90
        6
176
     1
 90
        2
176
     1
 62
     7
176
     1
 90
        5
176
     1
 90
        0
176
     1
 90
        0
176
     1
290
     0
176
     1
 90
        1
176
     1
 40
0.0
176
     1
 90
        0
176
     1
290
     0
176
     1
290
     1
176
     1
290
     1
176
     1
290
     0
176
     1
290
     0
176
     1
290
     0
176
     1
290
     0
176
     1
290
     0
176
     1
290
     0
176
     1
 90
       50
176
     1
 40
0.0
176
     1
 40
1.0
176
     1
 90
        0
176
     1
 62
    18
176
     1
 90
       50
176
     1
 90
        3
176
     1
 62
     5
420
      255
176
     1
290
     0
176
     1
 90
       50
176
     1
 90
       50
176
     1
 90
       50
176
     1
290
     0
176
     1
 90
       50
176
     1
 62
   256
176
     0
 40
1.0
176
     0
 90
        2
176
     1
  1
strokes_ogs.tif
176
     1
290
     0
176
     1
 40
1.0
176
     1
 40
1.0
176
     1
  0
VISUALSTYLE
  5
57C7
102
{ACAD_REACTORS
330
57C6
102
}
330
57C6
100
AcDbVisualStyle
  2
Flat
 70
     0
177
     3
291
     1
 70
    58
 90
        2
176
     1
 90
        1
176
     1
 90
        1
176
     1
 90
        2
176
     1
 40
0.6
176
     1
 40
30.0
176
     1
 62
     7
176
     1
 90
        0
176
     1
 90
        0
176
     1
 62
     7
176
     1
 62
   257
176
     1
 90
        1
176
     1
 90
        1
176
     1
 40
1.0
176
     1
 90
        8
176
     1
 62
     7
176
     1
 40
1.0
176
     1
 90
        1
176
     1
 90
        6
176
     1
 90
        2
176
     1
 62
     7
176
     1
 90
        5
176
     1
 90
        0
176
     1
 90
        0
176
     1
290
     0
176
     1
 90
       13
176
     1
 40
0.0
176
     1
 90
        0
176
     1
290
     0
176
     1
290
     1
176
     1
290
     1
176
     1
290
     0
176
     1
290
     0
176
     1
290
     0
176
     1
290
     0
176
     1
290
     0
176
     1
290
     0
176
     1
 90
       50
176
     1
 40
0.0
176
     1
 40
1.0
176
     1
 90
        0
176
     1
 62
    18
176
     1
 90
       50
176
     1
 90
        3
176
     1
 62
     5
420
      255
176
     1
290
     0
176
     1
 90
       50
176
     1
 90
       50
176
     1
 90
       50
176
     1
290
     0
176
     1
 90
       50
176
     1
 62
   256
176
     0
 40
1.0
176
     0
 90
        2
176
     1
  1
strokes_ogs.tif
176
     1
290
     0
176
     1
 40
1.0
176
     1
 40
1.0
176
     1
  0
VISUALSTYLE
  5
57C8
102
{ACAD_REACTORS
330
57C6
102
}
330
57C6
100
AcDbVisualStyle
  2
FlatWithEdges
 70
     1
177
     3
291
     1
 70
    58
 90
        2
176
     1
 90
        1
176
     1
 90
        1
176
     1
 90
        2
176
     1
 40
0.6
176
     1
 40
30.0
176
     1
 62
     7
176
     1
 90
        1
176
     1
 90
        0
176
     1
 62
     7
176
     1
 62
   257
176
     1
 90
        1
176
     1
 90
        1
176
     1
 40
1.0
176
     1
 90
        0
176
     1
 62
   257
176
     1
 40
1.0
176
     1
 90
        1
176
     1
 90
        6
176
     1
 90
        2
176
     1
 62
     7
176
     1
 90
        5
176
     1
 90
        0
176
     1
 90
        0
176
     1
290
     0
176
     1
 90
       13
176
     1
 40
0.0
176
     1
 90
        0
176
     1
290
     0
176
     1
290
     1
176
     1
290
     1
176
     1
290
     0
176
     1
290
     0
176
     1
290
     0
176
     1
290
     0
176
     1
290
     0
176
     1
290
     0
176
     1
 90
       50
176
     1
 40
0.0
176
     1
 40
1.0
176
     1
 90
        0
176
     1
 62
    18
176
     1
 90
       50
176
     1
 90
        3
176
     1
 62
     5
420
      255
176
     1
290
     0
176
     1
 90
       50
176
     1
 90
       50
176
     1
 90
       50
176
     1
290
     0
176
     1
 90
       50
176
     1
 62
   256
176
     0
 40
1.0
176
     0
 90
        2
176
     1
  1
strokes_ogs.tif
176
     1
290
     0
176
     1
 40
1.0
176
     1
 40
1.0
176
     1
  0
VISUALSTYLE
  5
57C9
102
{ACAD_REACTORS
330
57C6
102
}
330
57C6
100
AcDbVisualStyle
  2
Gouraud
 70
     2
177
     3
291
     1
 70
    58
 90
        2
176
     1
 90
        2
176
     1
 90
        1
176
     1
 90
        2
176
     1
 40
0.6
176
     1
 40
30.0
176
     1
 62
     7
176
     1
 90
        0
176
     1
 90
        0
176
     1
 62
     7
176
     1
 62
   257
176
     1
 90
        1
176
     1
 90
        1
176
     1
 40
1.0
176
     1
 90
        0
176
     1
 62
     7
176
     1
 40
1.0
176
     1
 90
        1
176
     1
 90
        6
176
     1
 90
        2
176
     1
 62
     7
176
     1
 90
        5
176
     1
 90
        0
176
     1
 90
        0
176
     1
290
     0
176
     1
 90
       13
176
     1
 40
0.0
176
     1
 90
        0
176
     1
290
     0
176
     1
290
     1
176
     1
290
     1
176
     1
290
     0
176
     1
290
     0
176
     1
290
     0
176
     1
290
     0
176
     1
290
     0
176
     1
290
     0
176
     1
 90
       50
176
     1
 40
0.0
176
     1
 40
1.0
176
     1
 90
        0
176
     1
 62
    18
176
     1
 90
       50
176
     1
 90
        3
176
     1
 62
     5
420
      255
176
     1
290
     0
176
     1
 90
       50
176
     1
 90
       50
176
     1
 90
       50
176
     1
290
     0
176
     1
 90
       50
176
     1
 62
   256
176
     0
 40
1.0
176
     0
 90
        2
176
     1
  1
strokes_ogs.tif
176
     1
290
     0
176
     1
 40
1.0
176
     1
 40
1.0
176
     1
  0
VISUALSTYLE
  5
57CA
102
{ACAD_REACTORS
330
57C6
102
}
330
57C6
100
AcDbVisualStyle
  2
GouraudWithEdges
 70
     3
177
     3
291
     1
 70
    58
 90
        2
176
     1
 90
        2
176
     1
 90
        1
176
     1
 90
        2
176
     1
 40
0.6
176
     1
 40
30.0
176
     1
 62
     7
176
     1
 90
        1
176
     1
 90
        0
176
     1
 62
     7
176
     1
 62
   257
176
     1
 90
        1
176
     1
 90
        1
176
     1
 40
1.0
176
     1
 90
        0
176
     1
 62
   257
176
     1
 40
1.0
176
     1
 90
        1
176
     1
 90
        6
176
     1
 90
        2
176
     1
 62
     7
176
     1
 90
        5
176
     1
 90
        0
176
     1
 90
        0
176
     1
290
     0
176
     1
 90
       13
176
     1
 40
0.0
176
     1
 90
        0
176
     1
290
     0
176
     1
290
     1
176
     1
290
     1
176
     1
290
     0
176
     1
290
     0
176
     1
290
     0
176
     1
290
     0
176
     1
290
     0
176
     1
290
     0
176
     1
 90
       50
176
     1
 40
0.0
176
     1
 40
1.0
176
     1
 90
        0
176
     1
 62
    18
176
     1
 90
       50
176
     1
 90
        3
176
     1
 62
     5
420
      255
176
     1
290
     0
176
     1
 90
       50
176
     1
 90
       50
176
     1
 90
       50
176
     1
290
     0
176
     1
 90
       50
176
     1
 62
   256
176
     0
 40
1.0
176
     0
 90
        2
176
     1
  1
strokes_ogs.tif
176
     1
290
     0
176
     1
 40
1.0
176
     1
 40
1.0
176
     1
  0
VISUALSTYLE
  5
57CE
102
{ACAD_REACTORS
330
57C6
102
}
330
57C6
100
AcDbVisualStyle
  2
Hidden
 70
     6
177
     3
291
     0
 70
    58
 90
        1
176
     1
 90
        2
176
     1
 90
        2
176
     1
 90
        0
176
     1
 40
0.6
176
     1
 40
30.0
176
     1
 62
     7
176
     1
 90
        2
176
     1
 90
        2
176
     1
 62
     7
176
     1
 62
   257
176
     1
 90
        2
176
     1
 90
        1
176
     1
 40
40.0
176
     1
 90
        0
176
     1
 62
   257
176
     1
 40
1.0
176
     1
 90
        1
176
     1
 90
        6
176
     1
 90
        2
176
     1
 62
     7
176
     1
 90
        3
176
     1
 90
        0
176
     1
 90
        0
176
     1
290
     0
176
     1
 90
        1
176
     1
 40
0.0
176
     1
 90
        0
176
     1
290
     0
176
     1
290
     1
176
     1
290
     1
176
     1
290
     0
176
     1
290
     0
176
     1
290
     0
176
     1
290
     0
176
     1
290
     0
176
     1
290
     0
176
     1
 90
       50
176
     1
 40
0.0
176
     1
 40
1.0
176
     1
 90
        0
176
     1
 62
    18
176
     1
 90
       50
176
     1
 90
        3
176
     1
 62
     5
420
      255
176
     1
290
     0
176
     1
 90
       50
176
     1
 90
       50
176
     1
 90
       50
176
     1
290
     0
176
     1
 90
       50
176
     1
 62
   256
176
     0
 40
1.0
176
     0
 90
        2
176
     1
  1
strokes_ogs.tif
176
     1
290
     0
176
     1
 40
1.0
176
     1
 40
1.0
176
     1
  0
VISUALSTYLE
  5
57DC
102
{ACAD_REACTORS
330
57C6
102
}
330
57C6
100
AcDbVisualStyle
  2
JitterOff
 70
    20
177
     3
291
     1
 70
    58
 90
        2
176
     0
 90
        2
176
     0
 90
        0
176
     0
 90
        0
176
     0
 40
0.6
176
     0
 40
30.0
176
     0
 62
     7
176
     0
 90
        1
176
     0
 90
        4
176
     0
 62
     7
176
     0
 62
   257
176
     0
 90
        1
176
     0
 90
        1
176
     0
 40
1.0
176
     0
 90
       10
176
     2
 62
     7
176
     0
 40
1.0
176
     0
 90
        1
176
     0
 90
        6
176
     0
 90
        2
176
     0
 62
     7
176
     0
 90
        5
176
     0
 90
        0
176
     0
 90
        0
176
     0
290
     0
176
     0
 90
        1
176
     0
 40
0.0
176
     0
 90
        0
176
     0
290
     0
176
     0
290
     1
176
     0
290
     1
176
     0
290
     0
176
     0
290
     0
176
     0
290
     0
176
     0
290
     0
176
     0
290
     0
176
     0
290
     0
176
     0
 90
       50
176
     0
 40
0.0
176
     0
 40
1.0
176
     0
 90
        0
176
     0
 62
    18
176
     0
 90
       50
176
     0
 90
        3
176
     0
 62
     5
420
      255
176
     0
290
     0
176
     0
 90
       50
176
     0
 90
       50
176
     0
 90
       50
176
     0
290
     0
176
     0
 90
       50
176
     0
 62
   256
176
     0
 40
1.0
176
     0
 90
        2
176
     0
  1
strokes_ogs.tif
176
     0
290
     0
176
     0
 40
1.0
176
     0
 40
1.0
176
     0
  0
VISUALSTYLE
  5
57D4
102
{ACAD_REACTORS
330
57C6
102
}
330
57C6
100
AcDbVisualStyle
  2
Linepattern
 70
    14
177
     3
291
     1
 70
    58
 90
        2
176
     1
 90
        2
176
     1
 90
        0
176
     1
 90
        0
176
     1
 40
0.6
176
     1
 40
30.0
176
     1
 62
     7
176
     1
 90
        1
176
     1
 90
        4
176
     1
 62
     7
176
     1
 62
   257
176
     1
 90
        7
176
     1
 90
        7
176
     1
 40
1.0
176
     1
 90
        8
176
     1
 62
     7
176
     1
 40
1.0
176
     1
 90
        1
176
     1
 90
        6
176
     1
 90
        2
176
     1
 62
     7
176
     1
 90
        5
176
     1
 90
        0
176
     1
 90
        0
176
     1
290
     0
176
     1
 90
        1
176
     1
 40
0.0
176
     1
 90
        0
176
     1
290
     0
176
     1
290
     1
176
     1
290
     1
176
     1
290
     0
176
     1
290
     0
176
     1
290
     0
176
     1
290
     0
176
     1
290
     0
176
     1
290
     0
176
     1
 90
       50
176
     1
 40
0.0
176
     1
 40
1.0
176
     1
 90
        0
176
     1
 62
    18
176
     1
 90
       50
176
     1
 90
        3
176
     1
 62
     5
420
      255
176
     1
290
     0
176
     1
 90
       50
176
     1
 90
       50
176
     1
 90
       50
176
     1
290
     0
176
     1
 90
       50
176
     1
 62
   256
176
     0
 40
1.0
176
     0
 90
        2
176
     1
  1
strokes_ogs.tif
176
     1
290
     0
176
     1
 40
1.0
176
     1
 40
1.0
176
     1
  0
VISUALSTYLE
  5
57DD
102
{ACAD_REACTORS
330
57C6
102
}
330
57C6
100
AcDbVisualStyle
  2
OverhangOff
 70
    21
177
     3
291
     1
 70
    58
 90
        2
176
     0
 90
        2
176
     0
 90
        0
176
     0
 90
        0
176
     0
 40
0.6
176
     0
 40
30.0
176
     0
 62
     7
176
     0
 90
        1
176
     0
 90
        4
176
     0
 62
     7
176
     0
 62
   257
176
     0
 90
        1
176
     0
 90
        1
176
     0
 40
1.0
176
     0
 90
        9
176
     2
 62
     7
176
     0
 40
1.0
176
     0
 90
        1
176
     0
 90
        6
176
     0
 90
        2
176
     0
 62
     7
176
     0
 90
        5
176
     0
 90
        0
176
     0
 90
        0
176
     0
290
     0
176
     0
 90
        1
176
     0
 40
0.0
176
     0
 90
        0
176
     0
290
     0
176
     0
290
     1
176
     0
290
     1
176
     0
290
     0
176
     0
290
     0
176
     0
290
     0
176
     0
290
     0
176
     0
290
     0
176
     0
290
     0
176
     0
 90
       50
176
     0
 40
0.0
176
     0
 40
1.0
176
     0
 90
        0
176
     0
 62
    18
176
     0
 90
       50
176
     0
 90
        3
176
     0
 62
     5
420
      255
176
     0
290
     0
176
     0
 90
       50
176
     0
 90
       50
176
     0
 90
       50
176
     0
290
     0
176
     0
 90
       50
176
     0
 62
   256
176
     0
 40
1.0
176
     0
 90
        2
176
     0
  1
strokes_ogs.tif
176
     0
290
     0
176
     0
 40
1.0
176
     0
 40
1.0
176
     0
  0
VISUALSTYLE
  5
57D0
102
{ACAD_REACTORS
330
57C6
102
}
330
57C6
100
AcDbVisualStyle
  2
Realistic
 70
     8
177
     3
291
     0
 70
    58
 90
        2
176
     1
 90
        2
176
     1
 90
        0
176
     1
 90
        2
176
     1
 40
0.6
176
     1
 40
30.0
176
     1
 62
     7
176
     1
 90
        0
176
     1
 90
        0
176
     1
 62
     7
176
     1
 62
   257
176
     1
 90
        1
176
     1
 90
        1
176
     1
 40
1.0
176
     1
 90
        8
176
     1
 62
   257
176
     1
 40
1.0
176
     1
 90
        1
176
     1
 90
        6
176
     1
 90
        2
176
     1
 62
     7
176
     1
 90
        3
176
     1
 90
        0
176
     1
 90
        0
176
     1
290
     0
176
     1
 90
       13
176
     1
 40
0.0
176
     1
 90
        0
176
     1
290
     0
176
     1
290
     1
176
     1
290
     1
176
     1
290
     0
176
     1
290
     0
176
     1
290
     0
176
     1
290
     0
176
     1
290
     0
176
     1
290
     0
176
     1
 90
       50
176
     1
 40
0.0
176
     1
 40
1.0
176
     1
 90
        0
176
     1
 62
    18
176
     1
 90
       50
176
     1
 90
        3
176
     1
 62
     5
420
      255
176
     1
290
     0
176
     1
 90
       50
176
     1
 90
       50
176
     1
 90
       50
176
     1
290
     0
176
     1
 90
       50
176
     1
 62
   256
176
     0
 40
1.0
176
     0
 90
        2
176
     1
  1
strokes_ogs.tif
176
     1
290
     0
176
     1
 40
1.0
176
     1
 40
1.0
176
     1
  0
VISUALSTYLE
  5
57DB
102
{ACAD_REACTORS
330
57C6
102
}
330
57C6
100
AcDbVisualStyle
  2
Shaded
 70
    27
177
     3
291
     0
 70
    58
 90
        2
176
     1
 90
        2
176
     1
 90
        1
176
     1
 90
        2
176
     1
 40
0.6
176
     1
 40
30.0
176
     1
 62
     7
176
     1
 90
        0
176
     1
 90
        4
176
     1
 62
     7
176
     1
 62
   257
176
     1
 90
        1
176
     1
 90
        1
176
     1
 40
1.0
176
     1
 90
        8
176
     1
 62
   257
176
     1
 40
1.0
176
     1
 90
        1
176
     1
 90
        6
176
     1
 90
        2
176
     1
 62
     8
176
     1
 90
        3
176
     1
 90
        0
176
     1
 90
        0
176
     1
290
     0
176
     1
 90
        5
176
     1
 40
0.0
176
     1
 90
        0
176
     1
290
     0
176
     1
290
     1
176
     1
290
     1
176
     1
290
     0
176
     1
290
     0
176
     1
290
     0
176
     1
290
     0
176
     1
290
     0
176
     1
290
     0
176
     1
 90
       50
176
     1
 40
0.0
176
     1
 40
1.0
176
     1
 90
        0
176
     1
 62
    18
176
     1
 90
       50
176
     1
 90
        3
176
     1
 62
     5
420
      255
176
     1
290
     0
176
     1
 90
       50
176
     1
 90
       50
176
     1
 90
       50
176
     1
290
     0
176
     1
 90
       50
176
     1
 62
   256
176
     0
 40
1.0
176
     0
 90
        2
176
     1
  1
strokes_ogs.tif
176
     1
290
     0
176
     1
 40
1.0
176
     1
 40
1.0
176
     1
  0
VISUALSTYLE
  5
57DA
102
{ACAD_REACTORS
330
57C6
102
}
330
57C6
100
AcDbVisualStyle
  2
Shaded with edges
 70
    26
177
     3
291
     0
 70
    58
 90
        2
176
     1
 90
        2
176
     1
 90
        1
176
     1
 90
        2
176
     1
 40
0.6
176
     1
 40
30.0
176
     1
 62
     7
176
     1
 90
        1
176
     1
 90
       10
176
     1
 62
     7
176
     1
 62
   257
176
     1
 90
        2
176
     1
 90
        1
176
     1
 40
1.0
176
     1
 90
        8
176
     1
 62
   257
176
     1
 40
1.0
176
     1
 90
        1
176
     1
 90
        6
176
     1
 90
        2
176
     1
 62
     7
176
     1
 90
        3
176
     1
 90
        0
176
     1
 90
        0
176
     1
290
     0
176
     1
 90
        5
176
     1
 40
0.0
176
     1
 90
        0
176
     1
290
     0
176
     1
290
     1
176
     1
290
     1
176
     1
290
     0
176
     1
290
     0
176
     1
290
     0
176
     1
290
     0
176
     1
290
     0
176
     1
290
     0
176
     1
 90
       50
176
     1
 40
0.0
176
     1
 40
1.0
176
     1
 90
        0
176
     1
 62
    18
176
     1
 90
       50
176
     1
 90
        3
176
     1
 62
     5
420
      255
176
     1
290
     0
176
     1
 90
       50
176
     1
 90
       50
176
     1
 90
       50
176
     1
290
     0
176
     1
 90
       50
176
     1
 62
   256
176
     0
 40
1.0
176
     0
 90
        2
176
     1
  1
strokes_ogs.tif
176
     1
290
     0
176
     1
 40
1.0
176
     1
 40
1.0
176
     1
  0
VISUALSTYLE
  5
57D7
102
{ACAD_REACTORS
330
57C6
102
}
330
57C6
100
AcDbVisualStyle
  2
Shades of Gray
 70
    23
177
     3
291
     0
 70
    58
 90
        2
176
     1
 90
        2
176
     1
 90
        3
176
     1
 90
        0
176
     1
 40
0.6
176
     1
 40
30.0
176
     1
 62
     7
176
     1
 90
        2
176
     1
 90
        2
176
     1
 62
     7
176
     1
 62
     7
176
     1
 90
        1
176
     1
 90
        1
176
     1
 40
40.0
176
     1
 90
        8
176
     1
 62
     7
176
     1
 40
1.0
176
     1
 90
        1
176
     1
 90
        6
176
     1
 90
        2
176
     1
 62
     7
176
     1
 90
        3
176
     1
 90
        0
176
     1
 90
        0
176
     1
290
     0
176
     1
 90
        1
176
     1
 40
0.0
176
     1
 90
        0
176
     1
290
     0
176
     1
290
     1
176
     1
290
     1
176
     1
290
     0
176
     1
290
     0
176
     1
290
     0
176
     1
290
     0
176
     1
290
     0
176
     1
290
     0
176
     1
 90
       50
176
     1
 40
0.0
176
     1
 40
1.0
176
     1
 90
        0
176
     1
 62
    18
176
     1
 90
       50
176
     1
 90
        3
176
     1
 62
     5
420
      255
176
     1
290
     0
176
     1
 90
       50
176
     1
 90
       50
176
     1
 90
       50
176
     1
290
     0
176
     1
 90
       50
176
     1
 62
   256
176
     0
 40
1.0
176
     0
 90
        2
176
     1
  1
strokes_ogs.tif
176
     1
290
     0
176
     1
 40
1.0
176
     1
 40
1.0
176
     1
  0
VISUALSTYLE
  5
57D8
102
{ACAD_REACTORS
330
57C6
102
}
330
57C6
100
AcDbVisualStyle
  2
Sketchy
 70
    24
177
     3
291
     0
 70
    58
 90
        1
176
     1
 90
        2
176
     1
 90
        2
176
     1
 90
        0
176
     1
 40
0.6
176
     1
 40
30.0
176
     1
 62
     7
176
     1
 90
        2
176
     1
 90
        2
176
     1
 62
     7
176
     1
 62
     7
176
     1
 90
        1
176
     1
 90
        1
176
     1
 40
40.0
176
     1
 90
       11
176
     1
 62
     7
176
     1
 40
1.0
176
     1
 90
        1
176
     1
 90
        6
176
     1
 90
        2
176
     1
 62
     7
176
     1
 90
        6
176
     1
 90
        0
176
     1
 90
        0
176
     1
290
     0
176
     1
 90
        1
176
     1
 40
0.0
176
     1
 90
        0
176
     1
290
     0
176
     1
290
     1
176
     1
290
     1
176
     1
290
     0
176
     1
290
     0
176
     1
290
     0
176
     1
290
     0
176
     1
290
     0
176
     1
290
     0
176
     1
 90
       50
176
     1
 40
0.0
176
     1
 40
1.0
176
     1
 90
        0
176
     1
 62
    18
176
     1
 90
       50
176
     1
 90
        3
176
     1
 62
     5
420
      255
176
     1
290
     0
176
     1
 90
       50
176
     1
 90
       50
176
     1
 90
       50
176
     1
290
     0
176
     1
 90
       50
176
     1
 62
   256
176
     0
 40
1.0
176
     0
 90
        2
176
     1
  1
strokes_ogs.tif
176
     1
290
     0
176
     1
 40
1.0
176
     1
 40
1.0
176
     1
  0
VISUALSTYLE
  5
57D3
102
{ACAD_REACTORS
330
57C6
102
}
330
57C6
100
AcDbVisualStyle
  2
Thicken
 70
    13
177
     3
291
     1
 70
    58
 90
        2
176
     1
 90
        2
176
     1
 90
        0
176
     1
 90
        0
176
     1
 40
0.6
176
     1
 40
30.0
176
     1
 62
     7
176
     1
 90
        1
176
     1
 90
        4
176
     1
 62
     7
176
     1
 62
   257
176
     1
 90
        1
176
     1
 90
        1
176
     1
 40
1.0
176
     1
 90
       12
176
     1
 62
     7
176
     1
 40
1.0
176
     1
 90
        1
176
     1
 90
        6
176
     1
 90
        2
176
     1
 62
     7
176
     1
 90
        5
176
     1
 90
        0
176
     1
 90
        0
176
     1
290
     0
176
     1
 90
        1
176
     1
 40
0.0
176
     1
 90
        0
176
     1
290
     0
176
     1
290
     1
176
     1
290
     1
176
     1
290
     0
176
     1
290
     0
176
     1
290
     0
176
     1
290
     0
176
     1
290
     0
176
     1
290
     0
176
     1
 90
       50
176
     1
 40
0.0
176
     1
 40
1.0
176
     1
 90
        0
176
     1
 62
    18
176
     1
 90
       50
176
     1
 90
        3
176
     1
 62
     5
420
      255
176
     1
290
     0
176
     1
 90
       50
176
     1
 90
       50
176
     1
 90
       50
176
     1
290
     0
176
     1
 90
       50
176
     1
 62
   256
176
     0
 40
1.0
176
     0
 90
        2
176
     1
  1
strokes_ogs.tif
176
     1
290
     0
176
     1
 40
1.0
176
     1
 40
1.0
176
     1
  0
VISUALSTYLE
  5
57CD
102
{ACAD_REACTORS
330
57C6
102
}
330
57C6
100
AcDbVisualStyle
  2
Wireframe
 70
     5
177
     3
291
     0
 70
    58
 90
        0
176
     1
 90
        2
176
     1
 90
        0
176
     1
 90
        0
176
     1
 40
0.6
176
     1
 40
30.0
176
     1
 62
     7
176
     1
 90
        1
176
     1
 90
        4
176
     1
 62
     7
176
     1
 62
   257
176
     1
 90
        1
176
     1
 90
        1
176
     1
 40
1.0
176
     1
 90
        0
176
     1
 62
   257
176
     1
 40
1.0
176
     1
 90
        1
176
     1
 90
        6
176
     1
 90
        2
176
     1
 62
     7
176
     1
 90
        3
176
     1
 90
        0
176
     1
 90
        0
176
     1
290
     0
176
     1
 90
        1
176
     1
 40
0.0
176
     1
 90
        0
176
     1
290
     0
176
     1
290
     1
176
     1
290
     1
176
     1
290
     0
176
     1
290
     0
176
     1
290
     0
176
     1
290
     0
176
     1
290
     0
176
     1
290
     0
176
     1
 90
       50
176
     1
 40
0.0
176
     1
 40
1.0
176
     1
 90
        0
176
     1
 62
    18
176
     1
 90
       50
176
     1
 90
        3
176
     1
 62
     5
420
      255
176
     1
290
     0
176
     1
 90
       50
176
     1
 90
       50
176
     1
 90
       50
176
     1
290
     0
176
     1
 90
       50
176
     1
 62
   256
176
     0
 40
1.0
176
     0
 90
        2
176
     1
  1
strokes_ogs.tif
176
     1
290
     0
176
     1
 40
1.0
176
     1
 40
1.0
176
     1
  0
VISUALSTYLE
  5
57D9
102
{ACAD_REACTORS
330
57C6
102
}
330
57C6
100
AcDbVisualStyle
  2
X-Ray
 70
    25
177
     3
291
     0
 70
    58
 90
        2
176
     1
 90
        2
176
     1
 90
        1
176
     1
 90
        1
176
     1
 40
0.5
176
     1
 40
30.0
176
     1
 62
     7
176
     1
 90
        1
176
     1
 90
        0
176
     1
 62
     7
176
     1
 62
   257
176
     1
 90
        1
176
     1
 90
        1
176
     1
 40
1.0
176
     1
 90
        8
176
     1
 62
     7
176
     1
 40
1.0
176
     1
 90
        1
176
     1
 90
        6
176
     1
 90
        2
176
     1
 62
     7
176
     1
 90
        3
176
     1
 90
        0
176
     1
 90
        0
176
     1
290
     0
176
     1
 90
       13
176
     1
 40
0.0
176
     1
 90
        0
176
     1
290
     0
176
     1
290
     1
176
     1
290
     1
176
     1
290
     0
176
     1
290
     0
176
     1
290
     0
176
     1
290
     0
176
     1
290
     0
176
     1
290
     0
176
     1
 90
       50
176
     1
 40
0.0
176
     1
 40
1.0
176
     1
 90
        0
176
     1
 62
    18
176
     1
 90
       50
176
     1
 90
        3
176
     1
 62
     5
420
      255
176
     1
290
     0
176
     1
 90
       50
176
     1
 90
       50
176
     1
 90
       50
176
     1
290
     0
176
     1
 90
       50
176
     1
 62
   256
176
     0
 40
1.0
176
     0
 90
        2
176
     1
  1
strokes_ogs.tif
176
     1
290
     0
176
     1
 40
1.0
176
     1
 40
1.0
176
     1
  0
DICTIONARYVAR
  5
587B
102
{ACAD_REACTORS
330
33
102
}
330
33
100
DictionaryVariables
280
     0
  1
1:1
  0
DICTIONARYVAR
  5
5878
102
{ACAD_REACTORS
330
33
102
}
330
33
100
DictionaryVariables
280
     0
  1
STANDARD
  0
DICTIONARYVAR
  5
5877
102
{ACAD_REACTORS
330
33
102
}
330
33
100
DictionaryVariables
280
     0
  1
STANDARD
  0
DICTIONARYVAR
  5
5879
102
{ACAD_REACTORS
330
33
102
}
330
33
100
DictionaryVariables
280
     0
  1
Metric50
  0
DICTIONARYVAR
  5
587A
102
{ACAD_REACTORS
330
33
102
}
330
33
100
DictionaryVariables
280
     0
  1
Metric50
  0
DICTIONARYVAR
  5
34
102
{ACAD_REACTORS
330
33
102
}
330
33
100
DictionaryVariables
280
     0
  1
0
  0
DICTIONARYVAR
  5
23F7
102
{ACAD_REACTORS
330
33
102
}
330
33
100
DictionaryVariables
280
     0
  1
1
  0
DICTIONARYVAR
  5
587C
102
{ACAD_REACTORS
330
33
102
}
330
33
100
DictionaryVariables
280
     0
  1
0
  0
DICTIONARYVAR
  5
D09C
102
{ACAD_REACTORS
330
33
102
}
330
33
100
DictionaryVariables
280
     0
  1
1
  0
DICTIONARYVAR
  5
D09D
102
{ACAD_REACTORS
330
33
102
}
330
33
100
DictionaryVariables
280
     0
  1
15
  0
DICTIONARYVAR
  5
D09B
102
{ACAD_REACTORS
330
33
102
}
330
33
100
DictionaryVariables
280
     0
  1
0
  0
DICTIONARYVAR
  5
D09A
102
{ACAD_REACTORS
330
33
102
}
330
33
100
DictionaryVariables
280
     0
  1
0
  0
DICTIONARYVAR
  5
1383
102
{ACAD_REACTORS
330
33
102
}
330
33
100
DictionaryVariables
280
     0
  1
96
  0
DICTIONARY
  5
D0A5
330
A70A
100
AcDbDictionary
280
     1
281
     1
  3
ACAD_XREC_ROUNDTRIP
360
DAEC
  0
DICTIONARY
  5
D0A1
330
57F9
100
AcDbDictionary
280
     1
281
     1
  3
ACAD_XREC_ROUNDTRIP
360
DAEA
  0
DICTIONARY
  5
57B7
330
57B6
100
AcDbDictionary
280
     1
281
     1
  3
BUMPTILE
360
57B9
  3
DIFFUSETILE
360
57B8
  3
OPACITYTILE
360
57BC
  3
REFLECTIONTILE
360
57BB
  3
REFRACTIONTILE
360
57BD
  3
SPECULARTILE
360
57BA
  0
DICTIONARY
  5
57AF
330
57AE
100
AcDbDictionary
280
     1
281
     1
  3
BUMPTILE
360
57B1
  3
DIFFUSETILE
360
57B0
  3
OPACITYTILE
360
57B4
  3
REFLECTIONTILE
360
57B3
  3
REFRACTIONTILE
360
57B5
  3
SPECULARTILE
360
57B2
  0
DICTIONARY
  5
57BF
330
57BE
100
AcDbDictionary
280
     1
281
     1
  3
BUMPTILE
360
57C1
  3
DIFFUSETILE
360
57C0
  3
OPACITYTILE
360
57C4
  3
REFLECTIONTILE
360
57C3
  3
REFRACTIONTILE
360
57C5
  3
SPECULARTILE
360
57C2
  0
DICTIONARY
  5
D0A3
330
A709
100
AcDbDictionary
280
     1
281
     1
  3
ACAD_XREC_ROUNDTRIP
360
DAEB
  0
DICTIONARY
  5
D09F
330
57F7
100
AcDbDictionary
280
     1
281
     1
  3
ACAD_XREC_ROUNDTRIP
360
DAE9
  0
DICTIONARY
  5
5822
330
57E1
100
AcDbDictionary
280
     1
281
     1
  3
ACAD_ROUNDTRIP_2008_TABLESTYLE_CELLSTYLEMAP
360
DAE8
  0
XRECORD
  5
DAEC
102
{ACAD_REACTORS
330
D0A5
102
}
330
D0A5
100
AcDbXrecord
280
     1
102
DISPLAYNAME
  1
Imperial24
102
FLAGS
 90
        0
  0
XRECORD
  5
DAEA
102
{ACAD_REACTORS
330
D0A1
102
}
330
D0A1
100
AcDbXrecord
280
     1
102
DISPLAYNAME
  1
Metric50
102
FLAGS
 90
        0
  0
XRECORD
  5
57B9
102
{ACAD_REACTORS
330
57B7
102
}
330
57B7
100
AcDbXrecord
280
     1
270
     1
271
     1
  0
XRECORD
  5
57B8
102
{ACAD_REACTORS
330
57B7
102
}
330
57B7
100
AcDbXrecord
280
     1
270
     1
271
     1
  0
XRECORD
  5
57BC
102
{ACAD_REACTORS
330
57B7
102
}
330
57B7
100
AcDbXrecord
280
     1
270
     1
271
     1
  0
XRECORD
  5
57BB
102
{ACAD_REACTORS
330
57B7
102
}
330
57B7
100
AcDbXrecord
280
     1
270
     1
271
     1
  0
XRECORD
  5
57BD
102
{ACAD_REACTORS
330
57B7
102
}
330
57B7
100
AcDbXrecord
280
     1
270
     1
271
     1
  0
XRECORD
  5
57BA
102
{ACAD_REACTORS
330
57B7
102
}
330
57B7
100
AcDbXrecord
280
     1
270
     1
271
     1
  0
XRECORD
  5
57B1
102
{ACAD_REACTORS
330
57AF
102
}
330
57AF
100
AcDbXrecord
280
     1
270
     1
271
     1
  0
XRECORD
  5
57B0
102
{ACAD_REACTORS
330
57AF
102
}
330
57AF
100
AcDbXrecord
280
     1
270
     1
271
     1
  0
XRECORD
  5
57B4
102
{ACAD_REACTORS
330
57AF
102
}
330
57AF
100
AcDbXrecord
280
     1
270
     1
271
     1
  0
XRECORD
  5
57B3
102
{ACAD_REACTORS
330
57AF
102
}
330
57AF
100
AcDbXrecord
280
     1
270
     1
271
     1
  0
XRECORD
  5
57B5
102
{ACAD_REACTORS
330
57AF
102
}
330
57AF
100
AcDbXrecord
280
     1
270
     1
271
     1
  0
XRECORD
  5
57B2
102
{ACAD_REACTORS
330
57AF
102
}
330
57AF
100
AcDbXrecord
280
     1
270
     1
271
     1
  0
XRECORD
  5
57C1
102
{ACAD_REACTORS
330
57BF
102
}
330
57BF
100
AcDbXrecord
280
     1
270
     1
271
     1
  0
XRECORD
  5
57C0
102
{ACAD_REACTORS
330
57BF
102
}
330
57BF
100
AcDbXrecord
280
     1
270
     1
271
     1
  0
XRECORD
  5
57C4
102
{ACAD_REACTORS
330
57BF
102
}
330
57BF
100
AcDbXrecord
280
     1
270
     1
271
     1
  0
XRECORD
  5
57C3
102
{ACAD_REACTORS
330
57BF
102
}
330
57BF
100
AcDbXrecord
280
     1
270
     1
271
     1
  0
XRECORD
  5
57C5
102
{ACAD_REACTORS
330
57BF
102
}
330
57BF
100
AcDbXrecord
280
     1
270
     1
271
     1
  0
XRECORD
  5
57C2
102
{ACAD_REACTORS
330
57BF
102
}
330
57BF
100
AcDbXrecord
280
     1
270
     1
271
     1
  0
XRECORD
  5
DAEB
102
{ACAD_REACTORS
330
D0A3
102
}
330
D0A3
100
AcDbXrecord
280
     1
102
DISPLAYNAME
  1
Imperial24
102
FLAGS
 90
        0
  0
XRECORD
  5
DAE9
102
{ACAD_REACTORS
330
D09F
102
}
330
D09F
100
AcDbXrecord
280
     1
102
DISPLAYNAME
  1
Metric50
102
FLAGS
 90
        0
  0
CELLSTYLEMAP
  5
DAE8
102
{ACAD_REACTORS
330
5822
102
}
330
5822
100
AcDbCellStyleMap
 90
        3
300
CELLSTYLE
  1
TABLEFORMAT_BEGIN
 90
        5
170
     1
 91
        0
 92
    32768
 62
   257
 93
        1
300
CONTENTFORMAT
  1
CONTENTFORMAT_BEGIN
 90
        0
 91
        0
 92
      512
 93
        0
300

 40
0.0
140
1.0
 94
        5
 62
     0
340
F
144
6.0
309
CONTENTFORMAT_END
171
     1
301
MARGIN
  1
CELLMARGIN_BEGIN
 40
1.5
 40
1.5
 40
1.5
 40
1.5
 40
0.18
 40
0.18
309
CELLMARGIN_END
 94
        6
 95
        1
302
GRIDFORMAT
  1
GRIDFORMAT_BEGIN
 90
        0
 91
        1
 62
     0
 92
       -2
340
0
 93
        0
 40
1.125
309
GRIDFORMAT_END
 95
        2
302
GRIDFORMAT
  1
GRIDFORMAT_BEGIN
 90
        0
 91
        1
 62
     0
 92
       -2
340
0
 93
        0
 40
1.125
309
GRIDFORMAT_END
 95
        4
302
GRIDFORMAT
  1
GRIDFORMAT_BEGIN
 90
        0
 91
        1
 62
     0
 92
       -2
340
0
 93
        0
 40
1.125
309
GRIDFORMAT_END
 95
        8
302
GRIDFORMAT
  1
GRIDFORMAT_BEGIN
 90
        0
 91
        1
 62
     0
 92
       -2
340
0
 93
        0
 40
1.125
309
GRIDFORMAT_END
 95
       16
302
GRIDFORMAT
  1
GRIDFORMAT_BEGIN
 90
        0
 91
        1
 62
     0
 92
       -2
340
0
 93
        0
 40
1.125
309
GRIDFORMAT_END
 95
       32
302
GRIDFORMAT
  1
GRIDFORMAT_BEGIN
 90
        0
 91
        1
 62
     0
 92
       -2
340
0
 93
        0
 40
1.125
309
GRIDFORMAT_END
309
TABLEFORMAT_END
  1
CELLSTYLE_BEGIN
 90
        1
 91
        1
300
_TITLE
309
CELLSTYLE_END
300
CELLSTYLE
  1
TABLEFORMAT_BEGIN
 90
        5
170
     1
 91
        0
 92
        0
 62
   257
 93
        1
300
CONTENTFORMAT
  1
CONTENTFORMAT_BEGIN
 90
        0
 91
        0
 92
      512
 93
        0
300

 40
0.0
140
1.0
 94
        5
 62
     0
340
F
144
4.5
309
CONTENTFORMAT_END
171
     1
301
MARGIN
  1
CELLMARGIN_BEGIN
 40
1.5
 40
1.5
 40
1.5
 40
1.5
 40
0.18
 40
0.18
309
CELLMARGIN_END
 94
        6
 95
        1
302
GRIDFORMAT
  1
GRIDFORMAT_BEGIN
 90
        0
 91
        1
 62
     0
 92
       -2
340
0
 93
        0
 40
1.125
309
GRIDFORMAT_END
 95
        2
302
GRIDFORMAT
  1
GRIDFORMAT_BEGIN
 90
        0
 91
        1
 62
     0
 92
       -2
340
0
 93
        0
 40
1.125
309
GRIDFORMAT_END
 95
        4
302
GRIDFORMAT
  1
GRIDFORMAT_BEGIN
 90
        0
 91
        1
 62
     0
 92
       -2
340
0
 93
        0
 40
1.125
309
GRIDFORMAT_END
 95
        8
302
GRIDFORMAT
  1
GRIDFORMAT_BEGIN
 90
        0
 91
        1
 62
     0
 92
       -2
340
0
 93
        0
 40
1.125
309
GRIDFORMAT_END
 95
       16
302
GRIDFORMAT
  1
GRIDFORMAT_BEGIN
 90
        0
 91
        1
 62
     0
 92
       -2
340
0
 93
        0
 40
1.125
309
GRIDFORMAT_END
 95
       32
302
GRIDFORMAT
  1
GRIDFORMAT_BEGIN
 90
        0
 91
        1
 62
     0
 92
       -2
340
0
 93
        0
 40
1.125
309
GRIDFORMAT_END
309
TABLEFORMAT_END
  1
CELLSTYLE_BEGIN
 90
        2
 91
        1
300
_HEADER
309
CELLSTYLE_END
300
CELLSTYLE
  1
TABLEFORMAT_BEGIN
 90
        5
170
     1
 91
        0
 92
        0
 62
   257
 93
        1
300
CONTENTFORMAT
  1
CONTENTFORMAT_BEGIN
 90
        0
 91
        0
 92
      512
 93
        0
300

 40
0.0
140
1.0
 94
        2
 62
     0
340
F
144
4.5
309
CONTENTFORMAT_END
171
     1
301
MARGIN
  1
CELLMARGIN_BEGIN
 40
1.5
 40
1.5
 40
1.5
 40
1.5
 40
0.18
 40
0.18
309
CELLMARGIN_END
 94
        6
 95
        1
302
GRIDFORMAT
  1
GRIDFORMAT_BEGIN
 90
        0
 91
        1
 62
     0
 92
       -2
340
0
 93
        0
 40
1.125
309
GRIDFORMAT_END
 95
        2
302
GRIDFORMAT
  1
GRIDFORMAT_BEGIN
 90
        0
 91
        1
 62
     0
 92
       -2
340
0
 93
        0
 40
1.125
309
GRIDFORMAT_END
 95
        4
302
GRIDFORMAT
  1
GRIDFORMAT_BEGIN
 90
        0
 91
        1
 62
     0
 92
       -2
340
0
 93
        0
 40
1.125
309
GRIDFORMAT_END
 95
        8
302
GRIDFORMAT
  1
GRIDFORMAT_BEGIN
 90
        0
 91
        1
 62
     0
 92
       -2
340
0
 93
        0
 40
1.125
309
GRIDFORMAT_END
 95
       16
302
GRIDFORMAT
  1
GRIDFORMAT_BEGIN
 90
        0
 91
        1
 62
     0
 92
       -2
340
0
 93
        0
 40
1.125
309
GRIDFORMAT_END
 95
       32
302
GRIDFORMAT
  1
GRIDFORMAT_BEGIN
 90
        0
 91
        1
 62
     0
 92
       -2
340
0
 93
        0
 40
1.125
309
GRIDFORMAT_END
309
TABLEFORMAT_END
  1
CELLSTYLE_BEGIN
 90
        3
 91
        2
300
_DATA
309
CELLSTYLE_END
  0
ENDSEC
  0
SECTION
  2
ACDSDATA
 70
     2
 71
     6
  0
ACDSSCHEMA
 90
        0
  1
AcDb_Thumbnail_Schema
  2
AcDbDs::ID
280
    10
 91
        8
  2
Thumbnail_Data
280
    15
 91
        0
101
ACDSRECORD
 95
        0
 90
        1
  2
AcDbDs::TreatedAsObjectData
280
     1
291
     1
101
ACDSRECORD
 95
        0
 90
        2
  2
AcDbDs::Legacy
280
     1
291
     1
101
ACDSRECORD
  1
AcDbDs::ID
 90
        3
  2
AcDs:Indexable
280
     1
291
     1
101
ACDSRECORD
  1
AcDbDs::ID
 90
        4
  2
AcDbDs::HandleAttribute
280
     7
282
     1
  0
ACDSSCHEMA
 90
        1
  1
AcDbDs::TreatedAsObjectDataSchema
  2
AcDbDs::TreatedAsObjectData
280
     1
 91
        0
  0
ACDSSCHEMA
 90
        2
  1
AcDbDs::LegacySchema
  2
AcDbDs::Legacy
280
     1
 91
        0
  0
ACDSSCHEMA
 90
        3
  1
AcDbDs::IndexedPropertySchema
  2
AcDs:Indexable
280
     1
 91
        0
  0
ACDSSCHEMA
 90
        4
  1
AcDbDs::HandleAttributeSchema
  2
AcDbDs::HandleAttribute
280
     7
 91
        1
284
     1
  0
ACDSRECORD
 90
        0
  2
AcDbDs::ID
280
    10
320
760
  2
Thumbnail_Data
280
    15
 94
     1915
310
89504E470D0A1A0A0000000D4948445200000100000000890803000000F46416F000000300504C5445000000000000C8C8C80000000000000000000000000000000000000000000000000000330000660000990000CC0000FF0033000033330033660033990033CC0033FF0066000066330066660066990066CC0066FF0099
310
000099330099660099990099CC0099FF00CC0000CC3300CC6600CC9900CCCC00CCFF00FF0000FF3300FF6600FF9900FFCC00FFFF3300003300333300663300993300CC3300FF3333003333333333663333993333CC3333FF3366003366333366663366993366CC3366FF3399003399333399663399993399CC3399FF33CC00
310
33CC3333CC6633CC9933CCCC33CCFF33FF0033FF3333FF6633FF9933FFCC33FFFF6600006600336600666600996600CC6600FF6633006633336633666633996633CC6633FF6666006666336666666666996666CC6666FF6699006699336699666699996699CC6699FF66CC0066CC3366CC6666CC9966CCCC66CCFF66FF0066
310
FF3366FF6666FF9966FFCC66FFFF9900009900339900669900999900CC9900FF9933009933339933669933999933CC9933FF9966009966339966669966999966CC9966FF9999009999339999669999999999CC9999FF99CC0099CC3399CC6699CC9999CCCC99CCFF99FF0099FF3399FF6699FF9999FFCC99FFFFCC0000CC00
310
33CC0066CC0099CC00CCCC00FFCC3300CC3333CC3366CC3399CC33CCCC33FFCC6600CC6633CC6666CC6699CC66CCCC66FFCC9900CC9933CC9966CC9999CC99CCCC99FFCCCC00CCCC33CCCC66CCCC99CCCCCCCCCCFFCCFF00CCFF33CCFF66CCFF99CCFFCCCCFFFFFF0000FF0033FF0066FF0099FF00CCFF00FFFF3300FF3333
310
FF3366FF3399FF33CCFF33FFFF6600FF6633FF6666FF6699FF66CCFF66FFFF9900FF9933FF9966FF9999FF99CCFF99FFFFCC00FFCC33FFCC66FFCC99FFCCCCFFCCFFFFFF00FFFF33FFFF66FFFF99FFFFCCFFFFFF0000000D0D0D1A1A1A2828283535354343435050505D5D5D6B6B6B787878868686939393A1A1A1AEAEAEBB
310
BBBBC9C9C9D6D6D6E4E4E4F1F1F1FFFFFF00000000000000000000000000000000000000000000000000000000000008F1915C0000034F4944415478DAED9D4B8EE3300C4479FFFBD67E80A46D7E4429CE6280A08A9CC6C048BB17F52C9212453966633F66F83359F9EB9594FECDB526000C00E51060101D016FDDAFFF655D
310
E07AF6507400E5340014D787A0FC241CA2F221080089841C803AFF1703B02E7FA40034B14F0900B05E2AA5C1A37C7E004DED235782A026FFA55804401BFB602A004EB14F00C0E3D04F0AA097FFFE1100B08B7D772D801BC03EF6DD57CC00F061E263A09E077C94BF68E60200B307937D5A00C0E98A1EC053F9A400CEA19F1E
310
009E397FF30B8EAD31D8D3D1BF029072FE6FEF23956FDE21032AE797A8713C897D42FAB5E5BBDA245F8D00D6A70F28C9B7AFA6407CE3DF09A4C60F814180ACBBD679E81120496DFB9D9811006B2C68244343BE7B3F56321AF2CDDC05E811609F0B5F17E70A284BEEDF2EED56F97443A053B99D0232F602A3F7EC7611004A17
310
D805B7EDB0600D8278982C68011C331C78CB43386DFA55D1A441101FEA3FB11D8C75041C96FEA52384D605768320B9073380BE0EEA55027E00762806FAB130EE2CB02907FBA2881E405B080DA7A2240094E6CFDB1B7400589CF3A729800A00CF8B31262801B8B60796CF07C0001800034019004C1AC055291F00BA00746300
310
42D7007751142D0028D403DE237C0780BC22743F62572A960661FEE8F1E7F05259208CFD977AC8A5C108C08522A405FA34787744C07780FCFD6090C802E8B240FA9C796F709706710D7E620086E000250D22BA06F10880073B0B693067076A178859C0836004C31D0443980BB3A09C1E25B240DD17C8E9510640C9021ABBC3
310
D7D8574C83C8535E134C833B00D00A8203A00160DA00EAE70360000C800130000801584D771B00ACFB0296EB013B005E2CA2036075DDBF0110FE800DC0C318C008A09E07E9EB019F4FD5B020D8D50388E547613B00E4F22B825A106175FE4D34ACFB0226F0F8ABC4B82F2023BF20284D52A662FDBBD4B4DE25B5CE904CCBF2
310
9921E16FCF8396F3AF08A0FA05A2654E288CC0C6C6C6C6C6C6C6C6C6C6C69ECD9CD12F227E7B430D69F327B64A5BEA928A7D43DDCDB84F1B21B6D8FEFEC2FADAF47D5F5FFFFCE581D791C9EB65B3BB9B43D739CACB587F1F40EC91BF1EA4B70DFB718AC3CD7EB0346C22D7F3473FBBF0BFAFBC4B3C8D6BE4C6E9F6663F5953
310
BA0858BE7BE39B1AC2FF57FB0F7169B45014AD5FFF0000000049454E44AE426082F66FF3235496EEED7F880E4C95E0D6C728898D9CE6202DC1D14C47A92957BB64394C6F2CF9139EB1DC293EDF69927C2A4878C436424C66FC471C24BDD340D30FD7CB8320F90D575A72F7CBCACACACACACACACACACACACACACACACACACACA
310
CA4C86E330518CE78C21C64C33FA73460E37AEDDF2382E0C26F71FC0F108E8DFD3088516E796D620371878B98CF3960B0780E3497A2782F3A26102E0DC8F7DBD230680AEC5CE76EC157022E85F782A007708D02B6BE2EC995BEC8AC0B463963F97B9B55A5C0A9AC4FFDA0A4001280005A0EC17F603D2ED74BC1E8C29800000
310
000049454E44AE426082
  0
ENDSEC
  0
EOF
