  0
SECTION
  2
HEADER
  9
$ACADVER
  1
AC1027
  9
$ACADMAINTVER
 70
    55
  9
$DWGCODEPAGE
  3
ANSI_932
  9
$LASTSAVEDBY
  1
User
  9
$REQUIREDVERSIONS
160
                 0
  9
$INSBASE
 10
0.0000094929055194
 20
-0.0000021391570044
 30
0.0
  9
$EXTMIN
 10
2291.903179066357
 20
440.9130312711818
 30
-0.000000000000013
  9
$EXTMAX
 10
2645.557230198482
 20
1212.13905853261
 30
0.0000000000299423
  9
$LIMMIN
 10
0.0000094929055194
 20
0.0
  9
$LIMMAX
 10
408.1800094929055
 20
285.2399978608428
  9
$ORTHOMODE
 70
     0
  9
$REGENMODE
 70
     1
  9
$FILLMODE
 70
     1
  9
$QTEXTMODE
 70
     0
  9
$MIRRTEXT
 70
     0
  9
$LTSCALE
 40
10.0
  9
$ATTMODE
 70
     1
  9
$TEXTSIZE
 40
3.0
  9
$TRACEWID
 40
1.0
  9
$TEXTSTYLE
  7
STANDARD
  9
$CLAYER
  8
1：主線
  9
$CELTYPE
  6
BYLAYER
  9
$CECOLOR
 62
   256
  9
$CELTSCALE
 40
1.0
  9
$DISPSILH
 70
     0
  9
$DIMSCALE
 40
4.0
  9
$DIMASZ
 40
2.5
  9
$DIMEXO
 40
1.25
  9
$DIMDLI
 40
7.0
  9
$DIMRND
 40
0.0
  9
$DIMDLE
 40
0.0
  9
$DIMEXE
 40
1.25
  9
$DIMTP
 40
0.0
  9
$DIMTM
 40
0.0
  9
$DIMTXT
 40
3.0
  9
$DIMCEN
 40
3.0
  9
$DIMTSZ
 40
0.0
  9
$DIMTOL
 70
     0
  9
$DIMLIM
 70
     0
  9
$DIMTIH
 70
     0
  9
$DIMTOH
 70
     0
  9
$DIMSE1
 70
     0
  9
$DIMSE2
 70
     0
  9
$DIMTAD
 70
     3
  9
$DIMZIN
 70
     8
  9
$DIMBLK
  1

  9
$DIMASO
 70
     1
  9
$DIMSHO
 70
     1
  9
$DIMPOST
  1

  9
$DIMAPOST
  1

  9
$DIMALT
 70
     0
  9
$DIMALTD
 70
     2
  9
$DIMALTF
 40
25.4
  9
$DIMLFAC
 40
1.0
  9
$DIMTOFL
 70
     1
  9
$DIMTVP
 40
0.0
  9
$DIMTIX
 70
     0
  9
$DIMSOXD
 70
     0
  9
$DIMSAH
 70
     1
  9
$DIMBLK1
  1
OPEN
  9
$DIMBLK2
  1
OPEN
  9
$DIMSTYLE
  2
STANDARD
  9
$DIMCLRD
 70
     1
  9
$DIMCLRE
 70
     1
  9
$DIMCLRT
 70
     2
  9
$DIMTFAC
 40
1.0
  9
$DIMGAP
 40
1.0
  9
$DIMJUST
 70
     0
  9
$DIMSD1
 70
     0
  9
$DIMSD2
 70
     0
  9
$DIMTOLJ
 70
     1
  9
$DIMTZIN
 70
     0
  9
$DIMALTZ
 70
     0
  9
$DIMALTTZ
 70
     0
  9
$DIMUPT
 70
     0
  9
$DIMDEC
 70
     1
  9
$DIMTDEC
 70
     1
  9
$DIMALTU
 70
     2
  9
$DIMALTTD
 70
     2
  9
$DIMTXSTY
  7
STANDARD
  9
$DIMAUNIT
 70
     0
  9
$DIMADEC
 70
     2
  9
$DIMALTRND
 40
0.0
  9
$DIMAZIN
 70
     2
  9
$DIMDSEP
 70
    46
  9
$DIMATFIT
 70
     3
  9
$DIMFRAC
 70
     0
  9
$DIMLDRBLK
  1
OPEN
  9
$DIMLUNIT
 70
     2
  9
$DIMLWD
 70
    -2
  9
$DIMLWE
 70
    -2
  9
$DIMTMOVE
 70
     0
  9
$DIMFXL
 40
1.0
  9
$DIMFXLON
 70
     0
  9
$DIMJOGANG
 40
0.7853981633974483
  9
$DIMTFILL
 70
     0
  9
$DIMTFILLCLR
 70
     0
  9
$DIMARCSYM
 70
     0
  9
$DIMLTYPE
  6

  9
$DIMLTEX1
  6

  9
$DIMLTEX2
  6

  9
$DIMTXTDIRECTION
 70
     0
  9
$LUNITS
 70
     2
  9
$LUPREC
 70
     4
  9
$SKETCHINC
 40
1.0
  9
$FILLETRAD
 40
10.0
  9
$AUNITS
 70
     0
  9
$AUPREC
 70
     0
  9
$MENU
  1
acad
  9
$ELEVATION
 40
0.0
  9
$PELEVATION
 40
0.0
  9
$THICKNESS
 40
0.0
  9
$LIMCHECK
 70
     0
  9
$CHAMFERA
 40
10.0
  9
$CHAMFERB
 40
10.0
  9
$CHAMFERC
 40
20.0
  9
$CHAMFERD
 40
0.0
  9
$SKPOLY
 70
     0
  9
$TDCREATE
 40
2455971.778741852
  9
$TDUCREATE
 40
2455971.403741852
  9
$TDUPDATE
 40
2459248.794242407
  9
$TDUUPDATE
 40
2459248.419242407
  9
$TDINDWG
 40
0.4526138542
  9
$TDUSRTIMER
 40
0.4526137384
  9
$USRTIMER
 70
     1
  9
$ANGBASE
 50
0.0
  9
$ANGDIR
 70
     0
  9
$PDMODE
 70
     0
  9
$PDSIZE
 40
0.0
  9
$PLINEWID
 40
0.0
  9
$SPLFRAME
 70
     0
  9
$SPLINETYPE
 70
     6
  9
$SPLINESEGS
 70
     8
  9
$HANDSEED
  5
D829
  9
$SURFTAB1
 70
     6
  9
$SURFTAB2
 70
     6
  9
$SURFTYPE
 70
     6
  9
$SURFU
 70
     6
  9
$SURFV
 70
     6
  9
$UCSBASE
  2

  9
$UCSNAME
  2

  9
$UCSORG
 10
0.0
 20
0.0
 30
0.0
  9
$UCSXDIR
 10
1.0
 20
0.0
 30
0.0
  9
$UCSYDIR
 10
0.0
 20
1.0
 30
0.0
  9
$UCSORTHOREF
  2

  9
$UCSORTHOVIEW
 70
     0
  9
$UCSORGTOP
 10
0.0
 20
0.0
 30
0.0
  9
$UCSORGBOTTOM
 10
0.0
 20
0.0
 30
0.0
  9
$UCSORGLEFT
 10
0.0
 20
0.0
 30
0.0
  9
$UCSORGRIGHT
 10
0.0
 20
0.0
 30
0.0
  9
$UCSORGFRONT
 10
0.0
 20
0.0
 30
0.0
  9
$UCSORGBACK
 10
0.0
 20
0.0
 30
0.0
  9
$PUCSBASE
  2

  9
$PUCSNAME
  2

  9
$PUCSORG
 10
0.0
 20
0.0
 30
0.0
  9
$PUCSXDIR
 10
1.0
 20
0.0
 30
0.0
  9
$PUCSYDIR
 10
0.0
 20
1.0
 30
0.0
  9
$PUCSORTHOREF
  2

  9
$PUCSORTHOVIEW
 70
     0
  9
$PUCSORGTOP
 10
0.0
 20
0.0
 30
0.0
  9
$PUCSORGBOTTOM
 10
0.0
 20
0.0
 30
0.0
  9
$PUCSORGLEFT
 10
0.0
 20
0.0
 30
0.0
  9
$PUCSORGRIGHT
 10
0.0
 20
0.0
 30
0.0
  9
$PUCSORGFRONT
 10
0.0
 20
0.0
 30
0.0
  9
$PUCSORGBACK
 10
0.0
 20
0.0
 30
0.0
  9
$USERI1
 70
     0
  9
$USERI2
 70
     0
  9
$USERI3
 70
     0
  9
$USERI4
 70
     0
  9
$USERI5
 70
     0
  9
$USERR1
 40
0.0
  9
$USERR2
 40
0.0
  9
$USERR3
 40
0.0
  9
$USERR4
 40
0.0
  9
$USERR5
 40
0.0
  9
$WORLDVIEW
 70
     1
  9
$SHADEDGE
 70
     3
  9
$SHADEDIF
 70
    70
  9
$TILEMODE
 70
     1
  9
$MAXACTVP
 70
    48
  9
$PINSBASE
 10
0.0
 20
0.0
 30
0.0
  9
$PLIMCHECK
 70
     0
  9
$PEXTMIN
 10
1.000000000000000E+20
 20
1.000000000000000E+20
 30
1.000000000000000E+20
  9
$PEXTMAX
 10
-1.000000000000000E+20
 20
-1.000000000000000E+20
 30
-1.000000000000000E+20
  9
$PLIMMIN
 10
0.0
 20
0.0
  9
$PLIMMAX
 10
420.0
 20
297.0
  9
$UNITMODE
 70
     0
  9
$VISRETAIN
 70
     1
  9
$PLINEGEN
 70
     0
  9
$PSLTSCALE
 70
     1
  9
$TREEDEPTH
 70
  3020
  9
$CMLSTYLE
  2
STANDARD
  9
$CMLJUST
 70
     0
  9
$CMLSCALE
 40
20.0
  9
$PROXYGRAPHICS
 70
     1
  9
$MEASUREMENT
 70
     1
  9
$CELWEIGHT
370
    -1
  9
$ENDCAPS
280
     0
  9
$JOINSTYLE
280
     0
  9
$LWDISPLAY
290
     0
  9
$INSUNITS
 70
     0
  9
$HYPERLINKBASE
  1

  9
$STYLESHEET
  1
TAGAI1.CTB
  9
$XEDIT
290
     1
  9
$CEPSNTYPE
380
     0
  9
$PSTYLEMODE
290
     1
  9
$FINGERPRINTGUID
  2
{8B4E85C4-259A-11D8-AF91-00C04F101805}
  9
$VERSIONGUID
  2
{B6BA9A5E-E86A-48F5-8167-3CCD2334664D}
  9
$EXTNAMES
290
     1
  9
$PSVPSCALE
 40
0.0
  9
$OLESTARTUP
290
     0
  9
$SORTENTS
280
    96
  9
$INDEXCTL
280
     0
  9
$HIDETEXT
280
     0
  9
$XCLIPFRAME
280
     2
  9
$HALOGAP
280
     0
  9
$OBSCOLOR
 70
   257
  9
$OBSLTYPE
280
     0
  9
$INTERSECTIONDISPLAY
280
     0
  9
$INTERSECTIONCOLOR
 70
   257
  9
$DIMASSOC
280
     1
  9
$PROJECTNAME
  1

  9
$CAMERADISPLAY
290
     0
  9
$LENSLENGTH
 40
50.0
  9
$CAMERAHEIGHT
 40
0.0
  9
$STEPSPERSEC
 40
2.0
  9
$STEPSIZE
 40
6.0
  9
$3DDWFPREC
 40
2.0
  9
$PSOLWIDTH
 40
0.25
  9
$PSOLHEIGHT
 40
4.0
  9
$LOFTANG1
 40
1.570796326794896
  9
$LOFTANG2
 40
1.570796326794896
  9
$LOFTMAG1
 40
0.0
  9
$LOFTMAG2
 40
0.0
  9
$LOFTPARAM
 70
     7
  9
$LOFTNORMALS
280
     1
  9
$LATITUDE
 40
37.795
  9
$LONGITUDE
 40
-122.394
  9
$NORTHDIRECTION
 40
0.0
  9
$TIMEZONE
 70
 -8000
  9
$LIGHTGLYPHDISPLAY
280
     1
  9
$TILEMODELIGHTSYNCH
280
     1
  9
$CMATERIAL
347
57AE
  9
$SOLIDHIST
280
     0
  9
$SHOWHIST
280
     1
  9
$DWFFRAME
280
     2
  9
$DGNFRAME
280
     0
  9
$REALWORLDSCALE
290
     1
  9
$INTERFERECOLOR
 62
     1
  9
$INTERFEREOBJVS
345
57D0
  9
$INTERFEREVPVS
346
57CD
  9
$CSHADOW
280
     0
  9
$SHADOWPLANELOCATION
 40
0.0
  0
ENDSEC
  0
SECTION
  2
CLASSES
  0
CLASS
  1
DICTIONARYVAR
  2
AcDbDictionaryVar
  3
ObjectDBX Classes
 90
        0
 91
       13
280
     0
281
     0
  0
CLASS
  1
ACDBDICTIONARYWDFLT
  2
AcDbDictionaryWithDefault
  3
ObjectDBX Classes
 90
        0
 91
        1
280
     0
281
     0
  0
CLASS
  1
PLOTSETTINGS
  2
AcDbPlotSettings
  3
ObjectDBX Classes
 90
        0
 91
        6
280
     0
281
     0
  0
CLASS
  1
MATERIAL
  2
AcDbMaterial
  3
ObjectDBX Classes
 90
     1153
 91
        3
280
     0
281
     0
  0
CLASS
  1
VISUALSTYLE
  2
AcDbVisualStyle
  3
ObjectDBX Classes
 90
     4095
 91
       24
280
     0
281
     0
  0
CLASS
  1
TABLESTYLE
  2
AcDbTableStyle
  3
ObjectDBX Classes
 90
     4095
 91
        1
280
     0
281
     0
  0
CLASS
  1
SCALE
  2
AcDbScale
  3
ObjectDBX Classes
 90
     1153
 91
       17
280
     0
281
     0
  0
CLASS
  1
MLEADERSTYLE
  2
AcDbMLeaderStyle
  3
ACDB_MLEADERSTYLE_CLASS
 90
     4095
 91
        1
280
     0
281
     0
  0
CLASS
  1
ACDBSECTIONVIEWSTYLE
  2
AcDbSectionViewStyle
  3
ObjectDBX Classes
 90
     1025
 91
        2
280
     0
281
     0
  0
CLASS
  1
ACDBDETAILVIEWSTYLE
  2
AcDbDetailViewStyle
  3
ObjectDBX Classes
 90
     1025
 91
        2
280
     0
281
     0
  0
CLASS
  1
CELLSTYLEMAP
  2
AcDbCellStyleMap
  3
ObjectDBX Classes
 90
     1152
 91
       39
280
     0
281
     0
  0
CLASS
  1
SORTENTSTABLE
  2
AcDbSortentsTable
  3
ObjectDBX Classes
 90
        0
 91
       19
280
     0
281
     0
  0
CLASS
  1
LARGE_RADIAL_DIMENSION
  2
AcDbRadialDimensionLarge
  3
ObjectDBX Classes
 90
     1025
 91
        0
280
     0
281
     1
  0
ENDSEC
  0
SECTION
  2
TABLES
  0
TABLE
  2
VPORT
  5
8
102
{ACAD_XDICTIONARY
360
5826
102
}
330
0
100
AcDbSymbolTable
 70
     1
  0
VPORT
  5
57AB
330
8
100
AcDbSymbolTableRecord
100
AcDbViewportTableRecord
  2
*Active
 70
     0
 10
0.0
 20
0.0
 11
1.0
 21
1.0
 12
2468.73020463242
 22
826.5260449018958
 13
0.0
 23
0.0
 14
10.0
 24
10.0
 15
10.0
 25
10.0
 16
0.0
 26
0.0
 36
1.0
 17
0.0
 27
0.0
 37
0.0
 40
777.0319948443247
 41
1.865577889447236
 42
50.0
 43
0.0
 44
0.0
 50
0.0
 51
0.0
 71
     0
 72
   100
 73
     1
 74
     1
 75
     0
 76
     0
 77
     0
 78
     0
281
     0
 65
     1
110
0.0
120
0.0
130
0.0
111
1.0
121
0.0
131
0.0
112
0.0
122
1.0
132
0.0
 79
     0
146
0.0
348
57CC
 60
     3
 61
     5
292
     1
282
     1
141
0.0
142
0.0
 63
   250
421
  3355443
1001
ACAD_NAV_VCDISPLAY
1070
     3
  0
ENDTAB
  0
TABLE
  2
LTYPE
  5
5
330
0
100
AcDbSymbolTable
 70
     5
  0
LTYPE
  5
12
330
5
100
AcDbSymbolTableRecord
100
AcDbLinetypeTableRecord
  2
BYBLOCK
 70
     0
  3

 72
    65
 73
     0
 40
0.0
  0
LTYPE
  5
13
330
5
100
AcDbSymbolTableRecord
100
AcDbLinetypeTableRecord
  2
BYLAYER
 70
     0
  3

 72
    65
 73
     0
 40
0.0
  0
LTYPE
  5
14
330
5
100
AcDbSymbolTableRecord
100
AcDbLinetypeTableRecord
  2
CONTINUOUS
 70
     0
  3
Solid line
 72
    65
 73
     0
 40
0.0
  0
ENDTAB
  0
TABLE
  2
LAYER
  5
2
102
{ACAD_XDICTIONARY
360
2886
102
}
330
0
100
AcDbSymbolTable
 70
    16
  0
LAYER
  5
E
102
{ACAD_XDICTIONARY
360
5800
102
}
330
2
100
AcDbSymbolTableRecord
100
AcDbLayerTableRecord
  2
0
 70
     0
 62
     7
  6
CONTINUOUS
370
    -3
390
75D
347
57BE
348
0
  0
LAYER
  5
32B
330
2
100
AcDbSymbolTableRecord
100
AcDbLayerTableRecord
  2
DEFPOINTS
 70
     0
 62
     7
  6
CONTINUOUS
290
     0
370
    -3
390
75D
347
57BE
348
0
  0
LAYER
  5
32C
102
{ACAD_XDICTIONARY
360
5804
102
}
330
2
100
AcDbSymbolTableRecord
100
AcDbLayerTableRecord
  2
OBJECT1
 70
     0
 62
     7
  6
CONTINUOUS
370
    -3
390
75D
347
57BE
348
0
  0
LAYER
  5
D0AE
102
{ACAD_XDICTIONARY
360
D0AF
102
}
330
2
100
AcDbSymbolTableRecord
100
AcDbLayerTableRecord
  2
1：主線
 70
     0
 62
     7
  6
CONTINUOUS
370
    -3
390
75D
347
57BE
348
0
  0
LAYER
  5
D0DD
102
{ACAD_XDICTIONARY
360
D0DE
102
}
330
2
100
AcDbSymbolTableRecord
100
AcDbLayerTableRecord
  2
7：文字
 70
     0
 62
     2
  6
CONTINUOUS
370
    -3
390
75D
347
57BE
348
0
  0
LAYER
  5
D108
102
{ACAD_XDICTIONARY
360
D109
102
}
330
2
100
AcDbSymbolTableRecord
100
AcDbLayerTableRecord
  2
2：副線
 70
     0
 62
     5
  6
CONTINUOUS
370
    -3
390
75D
347
57BE
348
0
  0
ENDTAB
  0
TABLE
  2
STYLE
  5
3
330
0
100
AcDbSymbolTable
 70
     4
  0
STYLE
  5
F
330
3
100
AcDbSymbolTableRecord
100
AcDbTextStyleTableRecord
  2
STANDARD
 70
     0
 40
0.0
 41
1.0
 50
0.0
 71
     0
 42
3.0
  3
isocp.shx
  4
bigfont.shx
  0
ENDTAB
  0
TABLE
  2
VIEW
  5
6
330
0
100
AcDbSymbolTable
 70
    21
  0
ENDTAB
  0
TABLE
  2
UCS
  5
7
330
0
100
AcDbSymbolTable
 70
     0
  0
ENDTAB
  0
TABLE
  2
APPID
  5
9
330
0
100
AcDbSymbolTable
 70
    20
  0
APPID
  5
10
330
9
100
AcDbSymbolTableRecord
100
AcDbRegAppTableRecord
  2
ACAD
 70
     0
  0
APPID
  5
24
330
9
100
AcDbSymbolTableRecord
100
AcDbRegAppTableRecord
  2
CONTENTTABDATA
 70
     0
  0
APPID
  5
25
330
9
100
AcDbSymbolTableRecord
100
AcDbRegAppTableRecord
  2
CONTENTCURRENTTAB
 70
     0
  0
APPID
  5
469D
330
9
100
AcDbSymbolTableRecord
100
AcDbRegAppTableRecord
  2
GENIUS_GENODEF_13
 70
     0
  0
APPID
  5
469E
330
9
100
AcDbSymbolTableRecord
100
AcDbRegAppTableRecord
  2
GENIUS_GENOBJ-N-REC_13
 70
     0
  0
APPID
  5
469F
330
9
100
AcDbSymbolTableRecord
100
AcDbRegAppTableRecord
  2
GENIUS_GENREC_14
 70
     0
  0
APPID
  5
5820
330
9
100
AcDbSymbolTableRecord
100
AcDbRegAppTableRecord
  2
ACAD_PSEXT
 70
     0
  0
APPID
  5
5821
330
9
100
AcDbSymbolTableRecord
100
AcDbRegAppTableRecord
  2
ACAD_NAV_VCDISPLAY
 70
     0
  0
APPID
  5
5870
330
9
100
AcDbSymbolTableRecord
100
AcDbRegAppTableRecord
  2
ACAD_MLEADERVER
 70
     0
  0
APPID
  5
58E3
330
9
100
AcDbSymbolTableRecord
100
AcDbRegAppTableRecord
  2
ACAD_EXEMPT_FROM_CAD_STANDARDS
 70
     0
  0
APPID
  5
60EC
330
9
100
AcDbSymbolTableRecord
100
AcDbRegAppTableRecord
  2
ACAD_DSTYLE_DIMBREAK
 70
     0
  0
APPID
  5
60ED
330
9
100
AcDbSymbolTableRecord
100
AcDbRegAppTableRecord
  2
ACAD_DSTYLE_DIMJAG
 70
     0
  0
APPID
  5
60EE
330
9
100
AcDbSymbolTableRecord
100
AcDbRegAppTableRecord
  2
ACAD_DSTYLE_DIMTALN
 70
     0
  0
APPID
  5
6C6A
330
9
100
AcDbSymbolTableRecord
100
AcDbRegAppTableRecord
  2
AcadAnnoMonitorAlertIconDisabled
 70
     0
  0
APPID
  5
6E52
330
9
100
AcDbSymbolTableRecord
100
AcDbRegAppTableRecord
  2
ACAD_DSTYLE_DIMRADIAL_EXTENSION
 70
     0
  0
APPID
  5
7970
330
9
100
AcDbSymbolTableRecord
100
AcDbRegAppTableRecord
  2
AcAecLayerStandard
 70
     0
  0
APPID
  5
7971
330
9
100
AcDbSymbolTableRecord
100
AcDbRegAppTableRecord
  2
AcCmTransparency
 70
     0
  0
APPID
  5
7972
330
9
100
AcDbSymbolTableRecord
100
AcDbRegAppTableRecord
  2
GradientColor1ACI
 70
     0
  0
APPID
  5
7973
330
9
100
AcDbSymbolTableRecord
100
AcDbRegAppTableRecord
  2
GradientColor2ACI
 70
     0
  0
APPID
  5
9B48
330
9
100
AcDbSymbolTableRecord
100
AcDbRegAppTableRecord
  2
AcDbDynamicBlockGUID
 70
     0
  0
ENDTAB
  0
TABLE
  2
DIMSTYLE
  5
A
330
0
100
AcDbSymbolTable
 70
     7
100
AcDbDimStyleTable
 71
     1
340
1D
  0
DIMSTYLE
105
1D
330
A
100
AcDbSymbolTableRecord
100
AcDbDimStyleTableRecord
  2
STANDARD
 70
     0
 41
2.5
 42
1.25
 43
7.0
 44
1.25
 73
     0
 74
     0
 77
     3
 78
     8
 79
     2
140
3.0
141
3.0
147
1.0
172
     1
173
     1
176
     1
177
     1
178
     2
179
     2
271
     2
272
     2
289
     0
340
F
341
36
343
36
344
36
  0
DIMSTYLE
105
D1A2
330
A
100
AcDbSymbolTableRecord
100
AcDbDimStyleTableRecord
  2
×1
 70
     0
 41
2.0
 42
1.6
 43
6.0
 44
0.8
 73
     0
 74
     0
 77
     3
 78
     8
 79
     2
 90
     1
140
7.0
141
3.0
147
1.0
172
     1
173
     1
176
     1
177
     1
178
     2
179
     2
271
     2
272
     2
340
F
341
36
343
36
344
36
1001
ACAD_DSTYLE_DIMJAG
1070
   388
1040
1.5
1001
ACAD_DSTYLE_DIMTALN
1070
   392
1070
     0
  0
ENDTAB
  0
TABLE
  2
BLOCK_RECORD
  5
1
330
0
100
AcDbSymbolTable
 70
    39
  0
BLOCK_RECORD
  5
18
102
{ACAD_XDICTIONARY
360
5B07
102
}
330
1
100
AcDbSymbolTableRecord
100
AcDbBlockTableRecord
  2
*MODEL_SPACE
340
760
 70
     0
280
     1
281
     0
  0
BLOCK_RECORD
  5
15
330
1
100
AcDbSymbolTableRecord
100
AcDbBlockTableRecord
  2
*PAPER_SPACE
340
761
 70
     0
280
     1
281
     0
  0
BLOCK_RECORD
  5
36
330
1
100
AcDbSymbolTableRecord
100
AcDbBlockTableRecord
  2
_OPEN
340
0
 70
     0
280
     1
281
     0
  0
ENDTAB
  0
ENDSEC
  0
SECTION
  2
BLOCKS
  0
BLOCK
  5
19
330
18
100
AcDbEntity
  8
0
100
AcDbBlockBegin
  2
*MODEL_SPACE
 70
     0
 10
0.0
 20
0.0
 30
0.0
  3
*MODEL_SPACE
  1

  0
ENDBLK
  5
1A
330
18
100
AcDbEntity
  8
0
100
AcDbBlockEnd
  0
BLOCK
  5
16
330
15
100
AcDbEntity
 67
     1
  8
0
100
AcDbBlockBegin
  2
*PAPER_SPACE
 70
     0
 10
0.0
 20
0.0
 30
0.0
  3
*PAPER_SPACE
  1

  0
ENDBLK
  5
17
330
15
100
AcDbEntity
 67
     1
  8
0
100
AcDbBlockEnd
  0
BLOCK
  5
3A
330
36
100
AcDbEntity
  8
0
 48
0.3
100
AcDbBlockBegin
  2
_OPEN
 70
     0
 10
0.0
 20
0.0
 30
0.0
  3
_OPEN
  1

  0
LINE
  5
37
330
36
100
AcDbEntity
  8
0
  6
ByBlock
 62
     0
 48
0.3
100
AcDbLine
 10
-1.0
 20
0.1666666666666666
 30
0.0
 11
0.0
 21
0.0
 31
0.0
  0
LINE
  5
38
330
36
100
AcDbEntity
  8
0
  6
ByBlock
 62
     0
 48
0.3
100
AcDbLine
 10
0.0
 20
0.0
 30
0.0
 11
-1.0
 21
-0.1666666666666666
 31
0.0
  0
LINE
  5
39
330
36
100
AcDbEntity
  8
0
  6
ByBlock
 62
     0
 48
0.3
100
AcDbLine
 10
0.0
 20
0.0
 30
0.0
 11
-1.0
 21
0.0
 31
0.0
  0
ENDBLK
  5
3B
330
36
100
AcDbEntity
  8
0
 48
0.3
100
AcDbBlockEnd
  0
ENDSEC
  0
SECTION
  2
ENTITIES
  0
MTEXT
  5
7A27
330
18
100
AcDbEntity
  8
OBJECT1
 62
     2
100
AcDbMText
 10
-161.5789866452596
 20
242.342904486376
 30
0.0
 40
3.0
 41
0.0
 46
0.0
 71
     7
 72
     1
  1
　　　
 73
     1
 44
1.0
  0
MTEXT
  5
D0E7
330
18
100
AcDbEntity
  8
7：文字
 62
     7
 48
2.0
100
AcDbMText
 10
2389.108466655809
 20
465.0580554028847
 30
0.0
 40
20.0
 41
529.4650600041381
 46
0.0
 71
     1
 72
     5
  1
{\fMS PGothic|b0|i0|c128|p50;LP-2114A-38L}
 73
     1
 44
1.0
1001
ACAD
1000
ACAD_MTEXT_COLUMN_INFO_BEGIN
1070
    75
1070
     2
1070
    79
1070
     0
1070
    76
1070
     1
1070
    78
1070
     0
1070
    48
1040
529.4650600041381
1070
    49
1040
15.0
1070
    50
1070
     1
1040
0.0
1000
ACAD_MTEXT_COLUMN_INFO_END
  0
LINE
  5
D76D
330
18
100
AcDbEntity
  8
1：主線
100
AcDbLine
 10
2380.3411675018
 20
809.997247307468
 30
0.0000000000178524
 11
2359.127964066208
 21
822.2446960213924
 31
0.0000000000177636
210
0.7071067811865466
220
-0.4082482904638622
230
0.5773502691896276
  0
LINE
  5
D76E
330
18
100
AcDbEntity
  8
1：主線
100
AcDbLine
 10
2380.3411675018
 20
809.997247307468
 30
0.0000000000178524
 11
2387.41223531366
 21
814.0797302121095
 31
0.0000000000249578
210
0.7071067811865466
220
-0.4082482904638622
230
0.5773502691896276
  0
LINE
  5
D76F
330
18
100
AcDbEntity
  8
1：主線
100
AcDbLine
 10
2387.41223531366
 20
814.0797302121095
 30
0.0000000000249578
 11
2366.199031878073
 21
826.3271789260338
 31
0.0000000000135003
210
0.7071067811865466
220
-0.4082482904638622
230
0.5773502691896276
  0
LINE
  5
D770
330
18
100
AcDbEntity
  8
1：主線
100
AcDbLine
 10
2359.127964066208
 20
822.2446960213924
 30
0.0000000000177636
 11
2366.199031878073
 21
826.3271789260338
 31
0.0000000000135003
210
0.7071067811865466
220
-0.4082482904638622
230
0.5773502691896276
  0
LINE
  5
D771
330
18
100
AcDbEntity
  8
1：主線
100
AcDbLine
 10
2380.341167501795
 20
801.8322814981971
 30
0.0000000000250466
 11
2380.3411675018
 21
809.997247307468
 31
0.0000000000178524
210
0.7071067811865466
220
-0.4082482904638622
230
0.5773502691896276
  0
LINE
  5
D772
330
18
100
AcDbEntity
  8
1：主線
100
AcDbLine
 10
2380.341167501795
 20
801.8322814981971
 30
0.0000000000250466
 11
2387.412235313666
 21
805.9147644028266
 31
0.0000000000207834
210
0.7071067811865466
220
-0.4082482904638622
230
0.5773502691896276
  0
LINE
  5
D773
330
18
100
AcDbEntity
  8
1：主線
100
AcDbLine
 10
2387.412235313666
 20
805.9147644028266
 30
0.0000000000207834
 11
2387.41223531366
 21
814.0797302121095
 31
0.0000000000249578
210
0.7071067811865466
220
-0.4082482904638622
230
0.5773502691896276
  0
LINE
  5
D774
330
18
100
AcDbEntity
  8
1：主線
100
AcDbLine
 10
2359.127964066208
 20
814.0797302121095
 30
0.0000000000184741
 11
2380.341167501795
 21
801.8322814981971
 31
0.0000000000250466
210
0.7071067811865466
220
-0.4082482904638622
230
0.5773502691896276
  0
LINE
  5
D775
330
18
100
AcDbEntity
  8
1：主線
100
AcDbLine
 10
2359.127964066202
 20
699.7702088822293
 30
0.0000000000213163
 11
2359.127964066208
 21
814.0797302121095
 31
0.0000000000184741
210
0.7071067811865466
220
-0.4082482904638622
230
0.5773502691896276
  0
LINE
  5
D776
330
18
100
AcDbEntity
  8
1：主線
100
AcDbLine
 10
2359.127964066202
 20
699.7702088822293
 30
0.0000000000213163
 11
2366.199031878073
 21
703.8526917868708
 31
0.000000000017053
210
0.7071067811865466
220
-0.4082482904638622
230
0.5773502691896276
  0
LINE
  5
D777
330
18
100
AcDbEntity
  8
1：主線
100
AcDbLine
 10
2366.199031878073
 20
703.8526917868708
 30
0.000000000017053
 11
2366.199031878073
 21
809.997247307468
 31
0.0000000000213163
210
0.7071067811865466
220
-0.4082482904638622
230
0.5773502691896276
  0
LINE
  5
D778
330
18
100
AcDbEntity
  8
1：主線
100
AcDbLine
 10
2401.554370937406
 20
675.2753114543915
 30
0.0000000000174971
 11
2359.127964066202
 21
699.7702088822293
 31
0.0000000000213163
210
0.7071067811865466
220
-0.4082482904638622
230
0.5773502691896276
  0
LINE
  5
D779
330
18
100
AcDbEntity
  8
1：主線
100
AcDbLine
 10
2401.5543709374
 20
683.4402772636744
 30
0.0000000000216716
 11
2366.199031878073
 21
703.8526917868708
 31
0.000000000017053
210
0.7071067811865466
220
-0.4082482904638622
230
0.5773502691896276
  0
LINE
  5
D77A
330
18
100
AcDbEntity
  8
1：主線
100
AcDbLine
 10
2401.554370937406
 20
838.5746276399354
 30
0.0000000000175859
 11
2401.554370937406
 21
675.2753114543915
 31
0.0000000000174971
210
0.7071067811865466
220
-0.4082482904638622
230
0.5773502691896276
  0
LINE
  5
D77B
330
18
100
AcDbEntity
  8
1：主線
100
AcDbLine
 10
2359.127964066208
 20
863.0695250677732
 30
0.0000000000163425
 11
2401.554370937406
 21
838.5746276399354
 31
0.0000000000175859
210
0.7071067811865466
220
-0.4082482904638622
230
0.5773502691896276
  0
LINE
  5
D77C
330
18
100
AcDbEntity
  8
1：主線
100
AcDbLine
 10
2359.127964066208
 20
822.2446960213924
 30
0.0000000000177636
 11
2359.127964066208
 21
863.0695250677732
 31
0.0000000000163425
210
0.7071067811865466
220
-0.4082482904638622
230
0.5773502691896276
  0
LINE
  5
D77D
330
18
100
AcDbEntity
  8
1：主線
100
AcDbLine
 10
2366.199031878073
 20
826.3271789260338
 30
0.0000000000135003
 11
2366.199031878078
 21
858.9870421631317
 31
0.0000000000191847
210
0.7071067811865466
220
-0.4082482904638622
230
0.5773502691896276
  0
LINE
  5
D77E
330
18
100
AcDbEntity
  8
1：主線
100
AcDbLine
 10
2352.056896254349
 20
899.8118712095234
 30
0.0000000000191847
 11
2352.056896254343
 21
875.3169737816975
 31
0.0000000000120792
210
0.7071067811865466
220
-0.4082482904638622
230
0.5773502691896276
  0
LINE
  5
D77F
330
18
100
AcDbEntity
  8
1：主線
100
AcDbLine
 10
2352.056896254349
 20
899.8118712095234
 30
0.0000000000191847
 11
2359.127964066202
 21
903.8943541141648
 31
0.0000000000262901
210
0.7071067811865466
220
-0.4082482904638622
230
0.5773502691896276
  0
LINE
  5
D780
330
18
100
AcDbEntity
  8
1：主線
100
AcDbLine
 10
2359.127964066208
 20
895.7293883048819
 30
0.0000000000220268
 11
2352.056896254349
 21
899.8118712095234
 31
0.0000000000191847
210
0.7071067811865466
220
-0.4082482904638622
230
0.5773502691896276
  0
LINE
  5
D781
330
18
100
AcDbEntity
  8
1：主線
100
AcDbLine
 10
2359.127964066208
 20
895.7293883048819
 30
0.0000000000220268
 11
2366.199031878078
 21
899.8118712095234
 31
0.0000000000177636
210
0.7071067811865466
220
-0.4082482904638622
230
0.5773502691896276
  0
LINE
  5
D782
330
18
100
AcDbEntity
  8
1：主線
100
AcDbLine
 10
2366.199031878078
 20
899.8118712095234
 30
0.0000000000177636
 11
2359.127964066202
 21
903.8943541141648
 31
0.0000000000262901
210
0.7071067811865466
220
-0.4082482904638622
230
0.5773502691896276
  0
LINE
  5
D783
330
18
100
AcDbEntity
  8
1：主線
100
AcDbLine
 10
2359.127964066208
 20
871.2344908770441
 30
0.0000000000206057
 11
2359.127964066208
 21
895.7293883048819
 31
0.0000000000220268
210
0.7071067811865466
220
-0.4082482904638622
230
0.5773502691896276
  0
LINE
  5
D784
330
18
100
AcDbEntity
  8
1：主線
100
AcDbLine
 10
2359.127964066208
 20
871.2344908770441
 30
0.0000000000206057
 11
2366.199031878078
 21
875.3169737816856
 31
0.0000000000163425
210
0.7071067811865466
220
-0.4082482904638622
230
0.5773502691896276
  0
LINE
  5
D785
330
18
100
AcDbEntity
  8
1：主線
100
AcDbLine
 10
2366.199031878078
 20
875.3169737816856
 30
0.0000000000163425
 11
2366.199031878078
 21
899.8118712095234
 31
0.0000000000177636
210
0.7071067811865466
220
-0.4082482904638622
230
0.5773502691896276
  0
LINE
  5
D786
330
18
100
AcDbEntity
  8
1：主線
100
AcDbLine
 10
2401.5543709374
 20
846.7395934492182
 30
0.0000000000218492
 11
2359.127964066208
 21
871.2344908770441
 31
0.0000000000206057
210
0.7071067811865466
220
-0.4082482904638622
230
0.5773502691896276
  0
LINE
  5
D787
330
18
100
AcDbEntity
  8
1：主線
100
AcDbLine
 10
2401.554370937406
 20
854.9045592585011
 30
0.0000000000263789
 11
2366.199031878078
 21
875.3169737816856
 31
0.0000000000163425
210
0.7071067811865466
220
-0.4082482904638622
230
0.5773502691896276
  0
LINE
  5
D788
330
18
100
AcDbEntity
  8
1：主線
100
AcDbLine
 10
2401.554370937406
 20
887.5644224955991
 30
0.0000000000158096
 11
2401.5543709374
 21
846.7395934492182
 31
0.0000000000218492
210
0.7071067811865466
220
-0.4082482904638622
230
0.5773502691896276
  0
LINE
  5
D789
330
18
100
AcDbEntity
  8
1：主線
100
AcDbLine
 10
2380.3411675018
 20
899.8118712095234
 30
0.0000000000264677
 11
2401.554370937406
 21
887.5644224955991
 31
0.0000000000158096
210
0.7071067811865466
220
-0.4082482904638622
230
0.5773502691896276
  0
LINE
  5
D78A
330
18
100
AcDbEntity
  8
1：主線
100
AcDbLine
 10
2380.3411675018
 20
907.9768370187943
 30
0.0000000000193623
 11
2380.3411675018
 21
899.8118712095234
 31
0.0000000000264677
210
0.7071067811865466
220
-0.4082482904638622
230
0.5773502691896276
  0
LINE
  5
D78B
330
18
100
AcDbEntity
  8
1：主線
100
AcDbLine
 10
2380.3411675018
 20
907.9768370187943
 30
0.0000000000193623
 11
2387.412235313666
 21
912.0593199234358
 31
0.0000000000264677
210
0.7071067811865466
220
-0.4082482904638622
230
0.5773502691896276
  0
LINE
  5
D78C
330
18
100
AcDbEntity
  8
1：主線
100
AcDbLine
 10
2401.554370937406
 20
895.72938830487
 30
0.0000000000200728
 11
2380.3411675018
 21
907.9768370187943
 31
0.0000000000193623
210
0.7071067811865466
220
-0.4082482904638622
230
0.5773502691896276
  0
LINE
  5
D78D
330
18
100
AcDbEntity
  8
1：主線
100
AcDbLine
 10
2401.5543709374
 20
903.8943541141529
 30
0.0000000000299316
 11
2387.412235313666
 21
912.0593199234358
 31
0.0000000000264677
210
0.7071067811865466
220
-0.4082482904638622
230
0.5773502691896276
  0
LINE
  5
D78E
330
18
100
AcDbEntity
  8
1：主線
100
AcDbLine
 10
2401.554370937406
 20
1010.038909634762
 30
0.0000000000218492
 11
2401.554370937406
 21
895.72938830487
 31
0.0000000000200728
210
0.7071067811865466
220
-0.4082482904638622
230
0.5773502691896276
  0
LINE
  5
D78F
330
18
100
AcDbEntity
  8
1：主線
100
AcDbLine
 10
2313.166023289084
 20
1061.069945942746
 30
0.0000000000220268
 11
2401.554370937406
 21
1010.038909634762
 31
0.0000000000218492
210
0.7071067811865466
220
-0.4082482904638622
230
0.5773502691896276
  0
LINE
  5
D790
330
18
100
AcDbEntity
  8
1：主線
100
AcDbLine
 10
2313.166023289078
 20
897.7706297572135
 30
0.0000000000263789
 11
2313.166023289084
 21
1061.069945942746
 31
0.0000000000220268
210
0.7071067811865466
220
-0.4082482904638622
230
0.5773502691896276
  0
LINE
  5
D791
330
18
100
AcDbEntity
  8
1：主線
100
AcDbLine
 10
2313.166023289078
 20
897.7706297572135
 30
0.0000000000263789
 11
2320.237091100949
 21
901.8531126618441
 31
0.0000000000222045
210
0.7071067811865466
220
-0.4082482904638622
230
0.5773502691896276
  0
LINE
  5
D792
330
18
100
AcDbEntity
  8
1：主線
100
AcDbLine
 10
2320.237091100949
 20
901.8531126618441
 30
0.0000000000222045
 11
2320.237091100942
 21
1056.987463038116
 31
0.000000000024869
210
0.7071067811865466
220
-0.4082482904638622
230
0.5773502691896276
  0
LINE
  5
D793
330
18
100
AcDbEntity
  8
1：主線
100
AcDbLine
 10
2352.056896254343
 20
875.3169737816975
 30
0.0000000000120792
 11
2313.166023289078
 21
897.7706297572135
 31
0.0000000000263789
210
0.7071067811865466
220
-0.4082482904638622
230
0.5773502691896276
  0
LINE
  5
D794
330
18
100
AcDbEntity
  8
1：主線
100
AcDbLine
 10
2352.056896254343
 20
883.4819395909685
 30
0.0000000000163425
 11
2320.237091100949
 21
901.8531126618441
 31
0.0000000000222045
210
0.7071067811865466
220
-0.4082482904638622
230
0.5773502691896276
  0
LINE
  5
D795
330
18
100
AcDbEntity
  8
1：主線
100
AcDbLine
 10
2408.625438749265
 20
671.192828549762
 30
0.0000000000256684
 11
2408.625438749265
 21
834.4921447352939
 31
0.0000000000193623
210
0.7071067811865466
220
-0.4082482904638622
230
0.5773502691896276
  0
LINE
  5
D796
330
18
100
AcDbEntity
  8
1：主線
100
AcDbLine
 10
2408.625438749265
 20
671.192828549762
 30
0.0000000000256684
 11
2415.696506561134
 21
675.2753114543915
 31
0.0000000000214051
210
0.7071067811865466
220
-0.4082482904638622
230
0.5773502691896276
  0
LINE
  5
D797
330
18
100
AcDbEntity
  8
1：主線
100
AcDbLine
 10
2415.696506561134
 20
675.2753114543915
 30
0.0000000000214051
 11
2415.696506561134
 21
830.4096618306644
 31
0.0000000000222045
210
0.7071067811865466
220
-0.4082482904638622
230
0.5773502691896276
  0
LINE
  5
D798
330
18
100
AcDbEntity
  8
1：主線
100
AcDbLine
 10
2447.51631171453
 20
648.7391725742449
 30
0.00000000001803
 11
2408.625438749265
 21
671.192828549762
 31
0.0000000000256684
210
0.7071067811865466
220
-0.4082482904638622
230
0.5773502691896276
  0
LINE
  5
D799
330
18
100
AcDbEntity
  8
1：主線
100
AcDbLine
 10
2447.516311714524
 20
656.9041383835278
 30
0.0000000000222933
 11
2415.696506561134
 21
675.2753114543915
 31
0.0000000000214051
210
0.7071067811865466
220
-0.4082482904638622
230
0.5773502691896276
  0
LINE
  5
D79A
330
18
100
AcDbEntity
  8
1：主線
100
AcDbLine
 10
2447.516311714524
 20
812.0384887597888
 30
0.0000000000237144
 11
2447.51631171453
 21
648.7391725742449
 31
0.00000000001803
210
0.7071067811865466
220
-0.4082482904638622
230
0.5773502691896276
  0
LINE
  5
D79B
330
18
100
AcDbEntity
  8
1：主線
100
AcDbLine
 10
2408.625438749265
 20
834.4921447352939
 30
0.0000000000193623
 11
2447.516311714524
 21
812.0384887597888
 31
0.0000000000237144
210
0.7071067811865466
220
-0.4082482904638622
230
0.5773502691896276
  0
LINE
  5
D79C
330
18
100
AcDbEntity
  8
1：主線
100
AcDbLine
 10
2352.056896254338
 20
703.8526917868708
 30
0.000000000029754
 11
2313.166023289078
 21
726.3063477623868
 31
0.0000000000186517
210
0.7071067811865466
220
-0.4082482904638622
230
0.5773502691896276
  0
LINE
  5
D79D
330
18
100
AcDbEntity
  8
1：主線
100
AcDbLine
 10
2352.056896254338
 20
712.0176575961536
 30
0.0000000000227374
 11
2320.237091100942
 21
730.3888306670282
 31
0.0000000000143885
210
0.7071067811865466
220
-0.4082482904638622
230
0.5773502691896276
  0
LINE
  5
D79E
330
18
100
AcDbEntity
  8
1：主線
100
AcDbLine
 10
2313.166023289078
 20
726.3063477623868
 30
0.0000000000186517
 11
2320.237091100942
 21
730.3888306670282
 31
0.0000000000143885
210
0.7071067811865466
220
-0.4082482904638622
230
0.5773502691896276
  0
LINE
  5
D79F
330
18
100
AcDbEntity
  8
1：主線
100
AcDbLine
 10
2352.056896254343
 20
818.1622131167401
 30
0.0000000000284217
 11
2352.056896254338
 21
703.8526917868708
 31
0.000000000029754
210
0.7071067811865466
220
-0.4082482904638622
230
0.5773502691896276
  0
LINE
  5
D7A0
330
18
100
AcDbEntity
  8
1：主線
100
AcDbLine
 10
2313.166023289084
 20
840.615869092268
 30
0.0000000000155431
 11
2352.056896254343
 21
818.1622131167401
 31
0.0000000000284217
210
0.7071067811865466
220
-0.4082482904638622
230
0.5773502691896276
  0
LINE
  5
D7A1
330
18
100
AcDbEntity
  8
1：主線
100
AcDbLine
 10
2313.166023289078
 20
726.3063477623868
 30
0.0000000000186517
 11
2313.166023289084
 21
840.615869092268
 31
0.0000000000155431
210
0.7071067811865466
220
-0.4082482904638622
230
0.5773502691896276
  0
LINE
  5
D7A2
330
18
100
AcDbEntity
  8
1：主線
100
AcDbLine
 10
2320.237091100942
 20
730.3888306670282
 30
0.0000000000143885
 11
2320.237091100942
 21
836.5333861876266
 31
0.0000000000183853
210
0.7071067811865466
220
-0.4082482904638622
230
0.5773502691896276
  0
LINE
  5
D7A3
330
18
100
AcDbEntity
  8
1：主線
100
AcDbLine
 10
2447.51631171453
 20
820.2034545690608
 30
0.0000000000222933
 11
2408.62543874927
 21
842.6571105445768
 31
0.0000000000236255
210
0.7071067811865466
220
-0.4082482904638622
230
0.5773502691896276
  0
LINE
  5
D7A4
330
18
100
AcDbEntity
  8
1：主線
100
AcDbLine
 10
2447.51631171453
 20
828.3684203783437
 30
0.0000000000208722
 11
2415.696506561129
 21
846.7395934492182
 31
0.0000000000193623
210
0.7071067811865466
220
-0.4082482904638622
230
0.5773502691896276
  0
LINE
  5
D7A5
330
18
100
AcDbEntity
  8
1：主線
100
AcDbLine
 10
2408.62543874927
 20
842.6571105445768
 30
0.0000000000236255
 11
2415.696506561129
 21
846.7395934492182
 31
0.0000000000193623
210
0.7071067811865466
220
-0.4082482904638622
230
0.5773502691896276
  0
LINE
  5
D7A6
330
18
100
AcDbEntity
  8
1：主線
100
AcDbLine
 10
2447.516311714524
 20
861.0282836154633
 30
0.0000000000266454
 11
2447.51631171453
 21
820.2034545690608
 31
0.0000000000222933
210
0.7071067811865466
220
-0.4082482904638622
230
0.5773502691896276
  0
LINE
  5
D7A7
330
18
100
AcDbEntity
  8
1：主線
100
AcDbLine
 10
2408.62543874927
 20
883.4819395909685
 30
0.0000000000179412
 11
2447.516311714524
 21
861.0282836154633
 31
0.0000000000266454
210
0.7071067811865466
220
-0.4082482904638622
230
0.5773502691896276
  0
LINE
  5
D7A8
330
18
100
AcDbEntity
  8
1：主線
100
AcDbLine
 10
2408.62543874927
 20
842.6571105445768
 30
0.0000000000236255
 11
2408.62543874927
 21
883.4819395909685
 31
0.0000000000179412
210
0.7071067811865466
220
-0.4082482904638622
230
0.5773502691896276
  0
LINE
  5
D7A9
330
18
100
AcDbEntity
  8
1：主線
100
AcDbLine
 10
2415.696506561129
 20
846.7395934492182
 30
0.0000000000193623
 11
2415.696506561134
 21
879.399456686327
 31
0.0000000000262013
210
0.7071067811865466
220
-0.4082482904638622
230
0.5773502691896276
  0
LINE
  5
D7AA
330
18
100
AcDbEntity
  8
1：主線
100
AcDbLine
 10
2408.625438749265
 20
891.6469054002513
 30
0.0000000000278888
 11
2408.62543874927
 21
1005.95642673012
 31
0.0000000000247802
210
0.7071067811865466
220
-0.4082482904638622
230
0.5773502691896276
  0
LINE
  5
D7AB
330
18
100
AcDbEntity
  8
1：主線
100
AcDbLine
 10
2408.625438749265
 20
891.6469054002513
 30
0.0000000000278888
 11
2415.696506561134
 21
895.7293883048819
 31
0.0000000000236255
210
0.7071067811865466
220
-0.4082482904638622
230
0.5773502691896276
  0
LINE
  5
D7AC
330
18
100
AcDbEntity
  8
1：主線
100
AcDbLine
 10
2415.696506561134
 20
895.7293883048819
 30
0.0000000000236255
 11
2415.696506561134
 21
1001.873943825491
 31
0.0000000000276223
210
0.7071067811865466
220
-0.4082482904638622
230
0.5773502691896276
  0
LINE
  5
D7AD
330
18
100
AcDbEntity
  8
1：主線
100
AcDbLine
 10
2447.51631171453
 20
869.1932494247353
 30
0.0000000000195399
 11
2408.625438749265
 21
891.6469054002513
 31
0.0000000000278888
210
0.7071067811865466
220
-0.4082482904638622
230
0.5773502691896276
  0
LINE
  5
D7AE
330
18
100
AcDbEntity
  8
1：主線
100
AcDbLine
 10
2447.516311714524
 20
877.3582152340063
 30
0.00000000001803
 11
2415.696506561134
 21
895.7293883048819
 31
0.0000000000236255
210
0.7071067811865466
220
-0.4082482904638622
230
0.5773502691896276
  0
LINE
  5
D7AF
330
18
100
AcDbEntity
  8
1：主線
100
AcDbLine
 10
2447.516311714524
 20
983.5027707546046
 30
0.0000000000223821
 11
2447.51631171453
 21
869.1932494247353
 31
0.0000000000195399
210
0.7071067811865466
220
-0.4082482904638622
230
0.5773502691896276
  0
LINE
  5
D7B0
330
18
100
AcDbEntity
  8
1：主線
100
AcDbLine
 10
2408.62543874927
 20
1005.95642673012
 30
0.0000000000247802
 11
2447.516311714524
 21
983.5027707546046
 31
0.0000000000223821
210
0.7071067811865466
220
-0.4082482904638622
230
0.5773502691896276
  0
LINE
  5
D7B1
330
18
100
AcDbEntity
  8
1：主線
100
AcDbLine
 10
2352.056896254343
 20
826.327178926023
 30
0.0000000000149214
 11
2313.166023289078
 21
848.7808349015509
 31
0.0000000000197176
210
0.7071067811865466
220
-0.4082482904638622
230
0.5773502691896276
  0
LINE
  5
D7B2
330
18
100
AcDbEntity
  8
1：主線
100
AcDbLine
 10
2352.056896254338
 20
834.4921447352939
 30
0.0000000000190958
 11
2320.237091100942
 21
852.8633178061804
 31
0.0000000000211386
210
0.7071067811865466
220
-0.4082482904638622
230
0.5773502691896276
  0
LINE
  5
D7B3
330
18
100
AcDbEntity
  8
1：主線
100
AcDbLine
 10
2313.166023289078
 20
848.7808349015509
 30
0.0000000000197176
 11
2320.237091100942
 21
852.8633178061804
 31
0.0000000000211386
210
0.7071067811865466
220
-0.4082482904638622
230
0.5773502691896276
  0
LINE
  5
D7B4
330
18
100
AcDbEntity
  8
1：主線
100
AcDbLine
 10
2352.056896254343
 20
867.1520079724146
 30
0.000000000024869
 11
2352.056896254343
 21
826.327178926023
 31
0.0000000000149214
210
0.7071067811865466
220
-0.4082482904638622
230
0.5773502691896276
  0
LINE
  5
D7B5
330
18
100
AcDbEntity
  8
1：主線
100
AcDbLine
 10
2313.166023289078
 20
889.6056639479306
 30
0.0000000000222045
 11
2352.056896254343
 21
867.1520079724146
 31
0.000000000024869
210
0.7071067811865466
220
-0.4082482904638622
230
0.5773502691896276
  0
LINE
  5
D7B6
330
18
100
AcDbEntity
  8
1：主線
100
AcDbLine
 10
2313.166023289078
 20
848.7808349015509
 30
0.0000000000197176
 11
2313.166023289078
 21
889.6056639479306
 31
0.0000000000222045
210
0.7071067811865466
220
-0.4082482904638622
230
0.5773502691896276
  0
LINE
  5
D7B7
330
18
100
AcDbEntity
  8
1：主線
100
AcDbLine
 10
2320.237091100942
 20
852.8633178061804
 30
0.0000000000211386
 11
2320.237091100949
 21
885.5231810432892
 31
0.0000000000211386
210
0.7071067811865466
220
-0.4082482904638622
230
0.5773502691896276
  0
LINE
  5
D7B8
330
18
100
AcDbEntity
  8
1：主線
100
AcDbLine
 10
2557.117862798439
 20
809.997247307468
 30
0.0000000000176748
 11
2535.904659362846
 21
797.7497985935665
 31
0.0000000000264677
210
0.7071067811865466
220
-0.4082482904638622
230
0.5773502691896276
  0
LINE
  5
D7B9
330
18
100
AcDbEntity
  8
1：主線
100
AcDbLine
 10
2535.904659362846
 20
797.7497985935665
 30
0.0000000000264677
 11
2535.904659362846
 21
838.5746276399581
 31
0.0000000000192735
210
0.7071067811865466
220
-0.4082482904638622
230
0.5773502691896276
  0
LINE
  5
D7BA
330
18
100
AcDbEntity
  8
1：主線
100
AcDbLine
 10
2535.904659362846
 20
838.5746276399581
 30
0.0000000000192735
 11
2578.331066234039
 21
863.069525067784
 31
0.0000000000222045
210
0.7071067811865466
220
-0.4082482904638622
230
0.5773502691896276
  0
LINE
  5
D7BB
330
18
100
AcDbEntity
  8
1：主線
100
AcDbLine
 10
2578.331066234039
 20
863.069525067784
 30
0.0000000000222045
 11
2578.331066234033
 21
699.7702088822402
 31
0.0000000000283329
210
0.7071067811865466
220
-0.4082482904638622
230
0.5773502691896276
  0
LINE
  5
D7BC
330
18
100
AcDbEntity
  8
1：主線
100
AcDbLine
 10
2578.331066234033
 20
699.7702088822402
 30
0.0000000000283329
 11
2535.904659362846
 21
675.2753114544034
 31
0.0000000000254019
210
0.7071067811865466
220
-0.4082482904638622
230
0.5773502691896276
  0
LINE
  5
D7BD
330
18
100
AcDbEntity
  8
1：主線
100
AcDbLine
 10
2535.904659362846
 20
675.2753114544034
 30
0.0000000000254019
 11
2535.904659362846
 21
789.5848327842836
 31
0.0000000000222045
210
0.7071067811865466
220
-0.4082482904638622
230
0.5773502691896276
  0
LINE
  5
D7BE
330
18
100
AcDbEntity
  8
1：主線
100
AcDbLine
 10
2535.904659362846
 20
789.5848327842836
 30
0.0000000000222045
 11
2557.117862798439
 21
801.8322814981971
 31
0.0000000000247802
210
0.7071067811865466
220
-0.4082482904638622
230
0.5773502691896276
  0
LINE
  5
D7BF
330
18
100
AcDbEntity
  8
1：主線
100
AcDbLine
 10
2557.117862798439
 20
801.8322814981971
 30
0.0000000000247802
 11
2557.117862798439
 21
809.997247307468
 31
0.0000000000176748
210
0.7071067811865466
220
-0.4082482904638622
230
0.5773502691896276
  0
LINE
  5
D7C0
330
18
100
AcDbEntity
  8
1：主線
100
AcDbLine
 10
2528.833591550988
 20
867.1520079724146
 30
0.0000000000177636
 11
2528.833591550982
 21
842.6571105445768
 31
0.0000000000163425
210
0.7071067811865466
220
-0.4082482904638622
230
0.5773502691896276
  0
LINE
  5
D7C1
330
18
100
AcDbEntity
  8
1：主線
100
AcDbLine
 10
2528.833591550982
 20
842.6571105445768
 30
0.0000000000163425
 11
2489.942718585716
 21
820.2034545690716
 31
0.0000000000135003
210
0.7071067811865466
220
-0.4082482904638622
230
0.5773502691896276
  0
LINE
  5
D7C2
330
18
100
AcDbEntity
  8
1：主線
100
AcDbLine
 10
2489.942718585716
 20
820.2034545690716
 30
0.0000000000135003
 11
2489.942718585716
 21
983.5027707546155
 31
0.0000000000205169
210
0.7071067811865466
220
-0.4082482904638622
230
0.5773502691896276
  0
LINE
  5
D7C3
330
18
100
AcDbEntity
  8
1：主線
100
AcDbLine
 10
2489.942718585716
 20
983.5027707546155
 30
0.0000000000205169
 11
2578.331066234039
 21
1034.5338070626
 31
0.0000000000203393
210
0.7071067811865466
220
-0.4082482904638622
230
0.5773502691896276
  0
LINE
  5
D7C4
330
18
100
AcDbEntity
  8
1：主線
100
AcDbLine
 10
2578.331066234039
 20
1034.5338070626
 30
0.0000000000203393
 11
2578.331066234044
 21
920.2242857327187
 31
0.0000000000195399
210
0.7071067811865466
220
-0.4082482904638622
230
0.5773502691896276
  0
LINE
  5
D7C5
330
18
100
AcDbEntity
  8
1：主線
100
AcDbLine
 10
2578.331066234044
 20
920.2242857327187
 30
0.0000000000195399
 11
2557.117862798439
 21
907.9768370188062
 31
0.000000000024869
210
0.7071067811865466
220
-0.4082482904638622
230
0.5773502691896276
  0
LINE
  5
D7C6
330
18
100
AcDbEntity
  8
1：主線
100
AcDbLine
 10
2557.117862798439
 20
907.9768370188062
 30
0.000000000024869
 11
2557.117862798439
 21
899.8118712095234
 31
0.0000000000206057
210
0.7071067811865466
220
-0.4082482904638622
230
0.5773502691896276
  0
LINE
  5
D7C7
330
18
100
AcDbEntity
  8
1：主線
100
AcDbLine
 10
2557.117862798439
 20
899.8118712095234
 30
0.0000000000206057
 11
2578.331066234049
 21
912.0593199234358
 31
0.000000000020961
210
0.7071067811865466
220
-0.4082482904638622
230
0.5773502691896276
  0
LINE
  5
D7C8
330
18
100
AcDbEntity
  8
1：主線
100
AcDbLine
 10
2578.331066234049
 20
912.0593199234358
 30
0.000000000020961
 11
2578.331066234039
 21
871.234490877056
 31
0.0000000000207834
210
0.7071067811865466
220
-0.4082482904638622
230
0.5773502691896276
  0
LINE
  5
D7C9
330
18
100
AcDbEntity
  8
1：主線
100
AcDbLine
 10
2578.331066234039
 20
871.234490877056
 30
0.0000000000207834
 11
2535.904659362846
 21
846.7395934492182
 31
0.0000000000235367
210
0.7071067811865466
220
-0.4082482904638622
230
0.5773502691896276
  0
LINE
  5
D7CA
330
18
100
AcDbEntity
  8
1：主線
100
AcDbLine
 10
2535.904659362846
 20
846.7395934492182
 30
0.0000000000235367
 11
2535.90465936284
 21
871.234490877056
 31
0.000000000024869
210
0.7071067811865466
220
-0.4082482904638622
230
0.5773502691896276
  0
LINE
  5
D7CB
330
18
100
AcDbEntity
  8
1：主線
100
AcDbLine
 10
2535.90465936284
 20
871.234490877056
 30
0.000000000024869
 11
2528.833591550988
 21
867.1520079724146
 31
0.0000000000177636
210
0.7071067811865466
220
-0.4082482904638622
230
0.5773502691896276
  0
LINE
  5
D7CC
330
18
100
AcDbEntity
  8
1：主線
100
AcDbLine
 10
2585.402134045903
 20
703.8526917868816
 30
0.0000000000240696
 11
2585.402134045903
 21
867.1520079724146
 31
0.0000000000179412
210
0.7071067811865466
220
-0.4082482904638622
230
0.5773502691896276
  0
LINE
  5
D7CD
330
18
100
AcDbEntity
  8
1：主線
100
AcDbLine
 10
2585.402134045903
 20
867.1520079724146
 30
0.0000000000179412
 11
2624.293007011168
 21
889.6056639479425
 31
0.0000000000156319
210
0.7071067811865466
220
-0.4082482904638622
230
0.5773502691896276
  0
LINE
  5
D7CE
330
18
100
AcDbEntity
  8
1：主線
100
AcDbLine
 10
2624.293007011168
 20
889.6056639479425
 30
0.0000000000156319
 11
2624.293007011168
 21
726.3063477623868
 31
0.0000000000177636
210
0.7071067811865466
220
-0.4082482904638622
230
0.5773502691896276
  0
LINE
  5
D7CF
330
18
100
AcDbEntity
  8
1：主線
100
AcDbLine
 10
2624.293007011168
 20
726.3063477623868
 30
0.0000000000177636
 11
2585.402134045903
 21
703.8526917868816
 31
0.0000000000240696
210
0.7071067811865466
220
-0.4082482904638622
230
0.5773502691896276
  0
LINE
  5
D7D0
330
18
100
AcDbEntity
  8
1：主線
100
AcDbLine
 10
2528.833591550982
 20
671.192828549762
 30
0.0000000000182077
 11
2489.942718585711
 21
648.7391725742449
 31
0.0000000000227374
210
0.7071067811865466
220
-0.4082482904638622
230
0.5773502691896276
  0
LINE
  5
D7D1
330
18
100
AcDbEntity
  8
1：主線
100
AcDbLine
 10
2489.942718585711
 20
648.7391725742449
 30
0.0000000000227374
 11
2489.942718585716
 21
763.048693904137
 31
0.0000000000253131
210
0.7071067811865466
220
-0.4082482904638622
230
0.5773502691896276
  0
LINE
  5
D7D2
330
18
100
AcDbEntity
  8
1：主線
100
AcDbLine
 10
2489.942718585716
 20
763.048693904137
 30
0.0000000000253131
 11
2528.833591550976
 21
785.5023498796541
 31
0.0000000000264677
210
0.7071067811865466
220
-0.4082482904638622
230
0.5773502691896276
  0
LINE
  5
D7D3
330
18
100
AcDbEntity
  8
1：主線
100
AcDbLine
 10
2528.833591550976
 20
785.5023498796541
 30
0.0000000000264677
 11
2528.833591550982
 21
671.192828549762
 31
0.0000000000182077
210
0.7071067811865466
220
-0.4082482904638622
230
0.5773502691896276
  0
LINE
  5
D7D4
330
18
100
AcDbEntity
  8
1：主線
100
AcDbLine
 10
2624.293007011168
 20
897.7706297572026
 30
0.0000000000159872
 11
2585.402134045909
 21
875.3169737816975
 31
0.0000000000165201
210
0.7071067811865466
220
-0.4082482904638622
230
0.5773502691896276
  0
LINE
  5
D7D5
330
18
100
AcDbEntity
  8
1：主線
100
AcDbLine
 10
2585.402134045909
 20
875.3169737816975
 30
0.0000000000165201
 11
2585.402134045909
 21
916.1418028280891
 31
0.0000000000206946
210
0.7071067811865466
220
-0.4082482904638622
230
0.5773502691896276
  0
LINE
  5
D7D6
330
18
100
AcDbEntity
  8
1：主線
100
AcDbLine
 10
2585.402134045909
 20
916.1418028280891
 30
0.0000000000206946
 11
2624.293007011168
 21
938.5954588035943
 31
0.0000000000182965
210
0.7071067811865466
220
-0.4082482904638622
230
0.5773502691896276
  0
LINE
  5
D7D7
330
18
100
AcDbEntity
  8
1：主線
100
AcDbLine
 10
2624.293007011168
 20
938.5954588035943
 30
0.0000000000182965
 11
2624.293007011168
 21
897.7706297572026
 31
0.0000000000159872
210
0.7071067811865466
220
-0.4082482904638622
230
0.5773502691896276
  0
LINE
  5
D7D8
330
18
100
AcDbEntity
  8
1：主線
100
AcDbLine
 10
2585.402134045903
 20
924.306768637372
 30
0.0000000000192735
 11
2585.402134045909
 21
1038.616289967241
 31
0.0000000000161648
210
0.7071067811865466
220
-0.4082482904638622
230
0.5773502691896276
  0
LINE
  5
D7D9
330
18
100
AcDbEntity
  8
1：主線
100
AcDbLine
 10
2585.402134045909
 20
1038.616289967241
 30
0.0000000000161648
 11
2624.293007011163
 21
1061.069945942757
 31
0.0000000000269118
210
0.7071067811865466
220
-0.4082482904638622
230
0.5773502691896276
  0
LINE
  5
D7DA
330
18
100
AcDbEntity
  8
1：主線
100
AcDbLine
 10
2624.293007011163
 20
1061.069945942757
 30
0.0000000000269118
 11
2624.293007011163
 21
946.7604246128772
 31
0.0000000000186517
210
0.7071067811865466
220
-0.4082482904638622
230
0.5773502691896276
  0
LINE
  5
D7DB
330
18
100
AcDbEntity
  8
1：主線
100
AcDbLine
 10
2624.293007011163
 20
946.7604246128772
 30
0.0000000000186517
 11
2585.402134045903
 21
924.306768637372
 31
0.0000000000192735
210
0.7071067811865466
220
-0.4082482904638622
230
0.5773502691896276
  0
LINE
  5
D7DC
330
18
100
AcDbEntity
  8
1：主線
100
AcDbLine
 10
2528.833591550982
 20
793.667315688925
 30
0.0000000000193623
 11
2489.942718585711
 21
771.2136597133971
 31
0.000000000023892
210
0.7071067811865466
220
-0.4082482904638622
230
0.5773502691896276
  0
LINE
  5
D7DD
330
18
100
AcDbEntity
  8
1：主線
100
AcDbLine
 10
2489.942718585711
 20
771.2136597133971
 30
0.000000000023892
 11
2489.942718585711
 21
812.0384887598007
 31
0.0000000000262901
210
0.7071067811865466
220
-0.4082482904638622
230
0.5773502691896276
  0
LINE
  5
D7DE
330
18
100
AcDbEntity
  8
1：主線
100
AcDbLine
 10
2489.942718585711
 20
812.0384887598007
 30
0.0000000000262901
 11
2528.833591550982
 21
834.4921447353058
 31
0.0000000000235367
210
0.7071067811865466
220
-0.4082482904638622
230
0.5773502691896276
  0
LINE
  5
D7DF
330
18
100
AcDbEntity
  8
1：主線
100
AcDbLine
 10
2528.833591550982
 20
834.4921447353058
 30
0.0000000000235367
 11
2528.833591550982
 21
793.667315688925
 31
0.0000000000193623
210
0.7071067811865466
220
-0.4082482904638622
230
0.5773502691896276
  0
LINE
  5
D7E0
330
18
100
AcDbEntity
  8
1：主線
100
AcDbLine
 10
2468.729515150123
 20
599.7493777185932
 30
0.0000000000203393
 11
2645.506210446755
 21
701.8114503345609
 31
0.0000000000278888
210
0.7071067811865466
220
-0.4082482904638622
230
0.5773502691896276
  0
LINE
  5
D7E1
330
18
100
AcDbEntity
  8
1：主線
100
AcDbLine
 10
2645.506210446755
 20
701.8114503345609
 30
0.0000000000278888
 11
2645.506210446755
 21
1110.059740798432
 31
0.0000000000240696
210
0.7071067811865466
220
-0.4082482904638622
230
0.5773502691896276
  0
LINE
  5
D7E2
330
18
100
AcDbEntity
  8
1：主線
100
AcDbLine
 10
2645.506210446755
 20
1110.059740798432
 30
0.0000000000240696
 11
2468.729515150118
 21
1007.997668182464
 31
0.0000000000278888
210
0.7071067811865466
220
-0.4082482904638622
230
0.5773502691896276
  0
LINE
  5
D7E3
330
18
100
AcDbEntity
  8
1：主線
100
AcDbLine
 10
2468.729515150123
 20
599.7493777185932
 30
0.0000000000203393
 11
2468.729515150118
 21
1007.997668182464
 31
0.0000000000278888
210
0.7071067811865466
220
-0.4082482904638622
230
0.5773502691896276
  0
LINE
  5
D7E4
330
18
100
AcDbEntity
  8
1：主線
100
AcDbLine
 10
2468.729515150123
 20
1212.121813414389
 30
0.0000000000193623
 11
2291.952819853484
 21
1110.059740798432
 31
0.0000000000245137
210
0.7071067811865466
220
-0.4082482904638622
230
0.5773502691896276
  0
LINE
  5
D7E5
330
18
100
AcDbEntity
  8
1：主線
100
AcDbLine
 10
2291.952819853479
 20
701.8114503345609
 30
0.0000000000283329
 11
2291.952819853484
 21
1110.059740798432
 31
0.0000000000245137
210
0.7071067811865466
220
-0.4082482904638622
230
0.5773502691896276
  0
LINE
  5
D7E6
330
18
100
AcDbEntity
  8
1：主線
100
AcDbLine
 10
2468.729515150118
 20
1007.997668182464
 30
0.0000000000278888
 11
2291.952819853484
 21
1110.059740798432
 31
0.0000000000245137
210
0.7071067811865466
220
-0.4082482904638622
230
0.5773502691896276
  0
LINE
  5
D7E7
330
18
100
AcDbEntity
  8
1：主線
100
AcDbLine
 10
2645.506210446755
 20
1110.059740798432
 30
0.0000000000240696
 11
2468.729515150123
 21
1212.121813414389
 31
0.0000000000193623
210
0.7071067811865466
220
-0.4082482904638622
230
0.5773502691896276
  0
LINE
  5
D7E8
330
18
100
AcDbEntity
  8
1：主線
100
AcDbLine
 10
2468.729515150123
 20
599.7493777185932
 30
0.0000000000203393
 11
2291.952819853479
 21
701.8114503345609
 31
0.0000000000283329
210
0.7071067811865466
220
-0.4082482904638622
230
0.5773502691896276
  0
LINE
  5
D7E9
330
18
100
AcDbEntity
  8
1：主線
100
AcDbLine
 10
2557.117862798439
 20
809.997247307468
 30
0.0000000000176748
 11
2550.04679498657
 21
814.0797302121095
 31
0.0000000000262013
210
0.7071067811865466
220
-0.4082482904638622
230
0.5773502691896276
  0
LINE
  5
D7EA
330
18
100
AcDbEntity
  8
1：主線
100
AcDbLine
 10
2550.04679498657
 20
814.0797302121095
 30
0.0000000000262013
 11
2535.904659362846
 21
805.9147644028385
 31
0.0000000000193623
210
0.7071067811865466
220
-0.4082482904638622
230
0.5773502691896276
  0
LINE
  5
D7EB
330
18
100
AcDbEntity
  8
1：主線
100
AcDbLine
 10
2578.331066234033
 20
699.7702088822402
 30
0.0000000000283329
 11
2571.259998422173
 21
703.8526917868708
 31
0.0000000000254019
210
0.7071067811865466
220
-0.4082482904638622
230
0.5773502691896276
  0
LINE
  5
D7EC
330
18
100
AcDbEntity
  8
1：主線
100
AcDbLine
 10
2571.259998422173
 20
703.8526917868708
 30
0.0000000000254019
 11
2535.904659362846
 21
683.4402772636744
 31
0.0000000000182077
210
0.7071067811865466
220
-0.4082482904638622
230
0.5773502691896276
  0
LINE
  5
D7ED
330
18
100
AcDbEntity
  8
1：主線
100
AcDbLine
 10
2571.259998422173
 20
858.9870421631426
 30
0.0000000000264677
 11
2571.259998422173
 21
703.8526917868708
 31
0.0000000000254019
210
0.7071067811865466
220
-0.4082482904638622
230
0.5773502691896276
  0
LINE
  5
D7EE
330
18
100
AcDbEntity
  8
1：主線
100
AcDbLine
 10
2528.833591550988
 20
867.1520079724146
 30
0.0000000000177636
 11
2521.762523739112
 21
871.2344908770669
 31
0.0000000000206057
210
0.7071067811865466
220
-0.4082482904638622
230
0.5773502691896276
  0
LINE
  5
D7EF
330
18
100
AcDbEntity
  8
1：主線
100
AcDbLine
 10
2521.762523739112
 20
871.2344908770669
 30
0.0000000000206057
 11
2521.762523739112
 21
846.7395934492301
 31
0.000000000024869
210
0.7071067811865466
220
-0.4082482904638622
230
0.5773502691896276
  0
LINE
  5
D7F0
330
18
100
AcDbEntity
  8
1：主線
100
AcDbLine
 10
2528.833591550982
 20
842.6571105445768
 30
0.0000000000163425
 11
2521.762523739112
 21
846.7395934492301
 31
0.000000000024869
210
0.7071067811865466
220
-0.4082482904638622
230
0.5773502691896276
  0
LINE
  5
D7F1
330
18
100
AcDbEntity
  8
1：主線
100
AcDbLine
 10
2535.90465936284
 20
871.234490877056
 30
0.000000000024869
 11
2528.833591550982
 21
875.3169737816975
 31
0.0000000000163425
210
0.7071067811865466
220
-0.4082482904638622
230
0.5773502691896276
  0
LINE
  5
D7F2
330
18
100
AcDbEntity
  8
1：主線
100
AcDbLine
 10
2528.833591550982
 20
875.3169737816975
 30
0.0000000000163425
 11
2521.762523739112
 21
871.2344908770669
 31
0.0000000000206057
210
0.7071067811865466
220
-0.4082482904638622
230
0.5773502691896276
  0
LINE
  5
D7F3
330
18
100
AcDbEntity
  8
1：主線
100
AcDbLine
 10
2578.331066234039
 20
871.234490877056
 30
0.0000000000207834
 11
2571.259998422173
 21
875.3169737816975
 31
0.0000000000179412
210
0.7071067811865466
220
-0.4082482904638622
230
0.5773502691896276
  0
LINE
  5
D7F4
330
18
100
AcDbEntity
  8
1：主線
100
AcDbLine
 10
2571.259998422173
 20
875.3169737816975
 30
0.0000000000179412
 11
2535.904659362852
 21
854.9045592585011
 31
0.0000000000164313
210
0.7071067811865466
220
-0.4082482904638622
230
0.5773502691896276
  0
LINE
  5
D7F5
330
18
100
AcDbEntity
  8
1：主線
100
AcDbLine
 10
2571.259998422173
 20
907.9768370188062
 30
0.0000000000292211
 11
2571.259998422173
 21
875.3169737816975
 31
0.0000000000179412
210
0.7071067811865466
220
-0.4082482904638622
230
0.5773502691896276
  0
LINE
  5
D7F6
330
18
100
AcDbEntity
  8
1：主線
100
AcDbLine
 10
2557.117862798439
 20
899.8118712095234
 30
0.0000000000206057
 11
2550.046794986581
 21
903.8943541141648
 31
0.0000000000177636
210
0.7071067811865466
220
-0.4082482904638622
230
0.5773502691896276
  0
LINE
  5
D7F7
330
18
100
AcDbEntity
  8
1：主線
100
AcDbLine
 10
2557.117862798439
 20
907.9768370188062
 30
0.000000000024869
 11
2550.046794986575
 21
912.0593199234477
 31
0.0000000000220268
210
0.7071067811865466
220
-0.4082482904638622
230
0.5773502691896276
  0
LINE
  5
D7F8
330
18
100
AcDbEntity
  8
1：主線
100
AcDbLine
 10
2550.046794986575
 20
912.0593199234477
 30
0.0000000000220268
 11
2550.046794986581
 21
903.8943541141648
 31
0.0000000000177636
210
0.7071067811865466
220
-0.4082482904638622
230
0.5773502691896276
  0
LINE
  5
D7F9
330
18
100
AcDbEntity
  8
1：主線
100
AcDbLine
 10
2578.331066234044
 20
920.2242857327187
 30
0.0000000000195399
 11
2571.259998422185
 21
924.3067686373601
 31
0.0000000000166978
210
0.7071067811865466
220
-0.4082482904638622
230
0.5773502691896276
  0
LINE
  5
D7FA
330
18
100
AcDbEntity
  8
1：主線
100
AcDbLine
 10
2571.259998422185
 20
924.3067686373601
 30
0.0000000000166978
 11
2550.046794986575
 21
912.0593199234477
 31
0.0000000000220268
210
0.7071067811865466
220
-0.4082482904638622
230
0.5773502691896276
  0
LINE
  5
D7FB
330
18
100
AcDbEntity
  8
1：主線
100
AcDbLine
 10
2571.259998422173
 20
1030.451324157958
 30
0.0000000000246914
 11
2571.259998422185
 21
924.3067686373601
 31
0.0000000000166978
210
0.7071067811865466
220
-0.4082482904638622
230
0.5773502691896276
  0
LINE
  5
D7FC
330
18
100
AcDbEntity
  8
1：主線
100
AcDbLine
 10
2521.762523739112
 20
846.7395934492301
 30
0.000000000024869
 11
2489.942718585716
 21
828.3684203783545
 31
0.0000000000138556
210
0.7071067811865466
220
-0.4082482904638622
230
0.5773502691896276
  0
LINE
  5
D7FD
330
18
100
AcDbEntity
  8
1：主線
100
AcDbLine
 10
2624.293007011168
 20
726.3063477623868
 30
0.0000000000177636
 11
2617.221939199298
 21
730.3888306670282
 31
0.0000000000262901
210
0.7071067811865466
220
-0.4082482904638622
230
0.5773502691896276
  0
LINE
  5
D7FE
330
18
100
AcDbEntity
  8
1：主線
100
AcDbLine
 10
2617.221939199298
 20
730.3888306670282
 30
0.0000000000262901
 11
2585.402134045903
 21
712.0176575961536
 31
0.0000000000283329
210
0.7071067811865466
220
-0.4082482904638622
230
0.5773502691896276
  0
LINE
  5
D7FF
330
18
100
AcDbEntity
  8
1：主線
100
AcDbLine
 10
2617.221939199304
 20
885.5231810432892
 30
0.0000000000159872
 11
2617.221939199298
 21
730.3888306670282
 31
0.0000000000262901
210
0.7071067811865466
220
-0.4082482904638622
230
0.5773502691896276
  0
LINE
  5
D800
330
18
100
AcDbEntity
  8
1：主線
100
AcDbLine
 10
2528.833591550982
 20
671.192828549762
 30
0.0000000000182077
 11
2521.762523739118
 21
675.2753114544143
 31
0.0000000000210498
210
0.7071067811865466
220
-0.4082482904638622
230
0.5773502691896276
  0
LINE
  5
D801
330
18
100
AcDbEntity
  8
1：主線
100
AcDbLine
 10
2521.762523739118
 20
675.2753114544143
 30
0.0000000000210498
 11
2489.942718585716
 21
656.9041383835278
 31
0.0000000000213163
210
0.7071067811865466
220
-0.4082482904638622
230
0.5773502691896276
  0
LINE
  5
D802
330
18
100
AcDbEntity
  8
1：主線
100
AcDbLine
 10
2521.762523739118
 20
781.4198669750126
 30
0.0000000000136779
 11
2521.762523739118
 21
675.2753114544143
 31
0.0000000000210498
210
0.7071067811865466
220
-0.4082482904638622
230
0.5773502691896276
  0
LINE
  5
D803
330
18
100
AcDbEntity
  8
1：主線
100
AcDbLine
 10
2624.293007011168
 20
897.7706297572026
 30
0.0000000000159872
 11
2617.221939199298
 21
901.8531126618441
 31
0.0000000000244249
210
0.7071067811865466
220
-0.4082482904638622
230
0.5773502691896276
  0
LINE
  5
D804
330
18
100
AcDbEntity
  8
1：主線
100
AcDbLine
 10
2617.221939199298
 20
901.8531126618441
 30
0.0000000000244249
 11
2585.402134045903
 21
883.4819395909804
 31
0.0000000000264677
210
0.7071067811865466
220
-0.4082482904638622
230
0.5773502691896276
  0
LINE
  5
D805
330
18
100
AcDbEntity
  8
1：主線
100
AcDbLine
 10
2617.221939199298
 20
934.5129758989637
 30
0.0000000000225597
 11
2617.221939199298
 21
901.8531126618441
 31
0.0000000000244249
210
0.7071067811865466
220
-0.4082482904638622
230
0.5773502691896276
  0
LINE
  5
D806
330
18
100
AcDbEntity
  8
1：主線
100
AcDbLine
 10
2624.293007011163
 20
946.7604246128772
 30
0.0000000000186517
 11
2617.221939199298
 21
950.8429075175186
 31
0.0000000000271783
210
0.7071067811865466
220
-0.4082482904638622
230
0.5773502691896276
  0
LINE
  5
D807
330
18
100
AcDbEntity
  8
1：主線
100
AcDbLine
 10
2617.221939199298
 20
950.8429075175186
 30
0.0000000000271783
 11
2585.402134045903
 21
932.4717344466321
 31
0.0000000000235367
210
0.7071067811865466
220
-0.4082482904638622
230
0.5773502691896276
  0
LINE
  5
D808
330
18
100
AcDbEntity
  8
1：主線
100
AcDbLine
 10
2617.221939199298
 20
1056.987463038116
 30
0.0000000000198064
 11
2617.221939199298
 21
950.8429075175186
 31
0.0000000000271783
210
0.7071067811865466
220
-0.4082482904638622
230
0.5773502691896276
  0
LINE
  5
D809
330
18
100
AcDbEntity
  8
1：主線
100
AcDbLine
 10
2528.833591550982
 20
793.667315688925
 30
0.0000000000193623
 11
2521.762523739112
 21
797.7497985935665
 31
0.0000000000278
210
0.7071067811865466
220
-0.4082482904638622
230
0.5773502691896276
  0
LINE
  5
D80A
330
18
100
AcDbEntity
  8
1：主線
100
AcDbLine
 10
2521.762523739112
 20
797.7497985935665
 30
0.0000000000278
 11
2489.942718585716
 21
779.37862552268
 31
0.0000000000167866
210
0.7071067811865466
220
-0.4082482904638622
230
0.5773502691896276
  0
LINE
  5
D80B
330
18
100
AcDbEntity
  8
1：主線
100
AcDbLine
 10
2521.762523739118
 20
830.4096618306644
 30
0.0000000000164313
 11
2521.762523739112
 21
797.7497985935665
 31
0.0000000000278
210
0.7071067811865466
220
-0.4082482904638622
230
0.5773502691896276
  0
LINE
  5
D80C
330
18
100
AcDbEntity
  8
1：主線
100
AcDbLine
 10
2513.27951515011
 20
625.4703322109904
 30
0.0000000000246914
 11
2513.279515150115
 21
587.5019290046807
 31
0.0000000000173195
210
0.7071067811865466
220
-0.4082482904638622
230
0.5773502691896276
  0
LINE
  5
D80D
330
18
100
AcDbEntity
  8
1：主線
100
AcDbLine
 10
2424.179515150125
 20
625.4703322109904
 30
0.0000000000241585
 11
2424.179515150131
 21
587.5019290046688
 31
0.0000000000167866
210
0.7071067811865466
220
-0.4082482904638622
230
0.5773502691896276
  0
ELLIPSE
  5
D80E
330
18
100
AcDbEntity
  8
1：主線
100
AcDbEllipse
 10
2468.729515150123
 20
587.5019290046688
 30
0.000000000020961
 11
44.54999999999317
 21
0.0000000000000788
 31
-0.0000000000000155
210
-0.0000000000000003
220
-0.0000000000000002
230
-1.0
 40
0.5773502691896246
 41
-0.0000000000000689
 42
3.141592653589723
  0
ENDSEC
  0
SECTION
  2
OBJECTS
  0
DICTIONARY
  5
C
330
0
100
AcDbDictionary
281
     1
  3
ACAD_CIP_PREVIOUS_PRODUCT_INFO
350
57FF
  3
ACAD_COLOR
350
57DF
  3
ACAD_DETAILVIEWSTYLE
350
57F8
  3
ACAD_GROUP
350
D
  3
ACAD_LAYOUT
350
75E
  3
ACAD_MATERIAL
350
57AD
  3
ACAD_MLEADERSTYLE
350
57F4
  3
ACAD_MLINESTYLE
350
1B
  3
ACAD_PLOTSETTINGS
350
75F
  3
ACAD_PLOTSTYLENAME
350
75C
  3
ACAD_SCALELIST
350
57E2
  3
ACAD_SECTIONVIEWSTYLE
350
57F6
  3
ACAD_TABLESTYLE
350
57E0
  3
ACAD_VISUALSTYLE
350
57C6
  3
AcadDim
350
2413
  3
ACDB_RECOMPOSE_DATA
350
D828
  3
ACDBVARIABLEDICTIONARY
350
33
  3
AEC_PROPERTY_SET_DEFS
350
BDB1
  3
CONTENTDICTIONARY
350
23
  0
DICTIONARY
  5
5826
330
8
100
AcDbDictionary
280
     1
281
     1
  0
DICTIONARY
  5
2886
330
2
100
AcDbDictionary
280
     1
281
     1
  3
ACAD_LAYERSTATES
360
46A0
  0
DICTIONARY
  5
5800
330
E
100
AcDbDictionary
280
     1
281
     1
  3
ADSK_XREC_LAYER_RECONCILED
360
5801
  0
DICTIONARY
  5
5804
330
32C
100
AcDbDictionary
280
     1
281
     1
  3
ADSK_XREC_LAYER_RECONCILED
360
5805
  0
DICTIONARY
  5
D0AF
330
D0AE
100
AcDbDictionary
280
     1
281
     1
  0
DICTIONARY
  5
D0DE
330
D0DD
100
AcDbDictionary
280
     1
281
     1
  0
DICTIONARY
  5
D109
330
D108
100
AcDbDictionary
280
     1
281
     1
  0
DICTIONARY
  5
5B07
330
18
100
AcDbDictionary
280
     1
281
     1
  3
ACAD_SORTENTS
360
5B08
  0
XRECORD
  5
57FF
102
{ACAD_REACTORS
330
C
102
}
330
C
100
AcDbXrecord
280
     1
300
ACDLT
300
2014
300
ACDLT_F_S
  0
DICTIONARY
  5
57DF
102
{ACAD_REACTORS
330
C
102
}
330
C
100
AcDbDictionary
281
     1
  0
DICTIONARY
  5
57F8
102
{ACAD_REACTORS
330
C
102
}
330
C
100
AcDbDictionary
281
     1
  3
Imperial24
350
A70A
  3
Metric50
350
57F9
  0
DICTIONARY
  5
D
102
{ACAD_REACTORS
330
C
102
}
330
C
100
AcDbDictionary
281
     1
  0
DICTIONARY
  5
75E
102
{ACAD_REACTORS
330
C
102
}
330
C
100
AcDbDictionary
281
     1
  3
Model
350
760
  3
ﾚｲｱｳﾄ1
350
761
  0
DICTIONARY
  5
57AD
102
{ACAD_REACTORS
330
C
102
}
330
C
100
AcDbDictionary
281
     1
  3
ByBlock
350
57B6
  3
ByLayer
350
57AE
  3
Global
350
57BE
  0
DICTIONARY
  5
57F4
102
{ACAD_REACTORS
330
C
102
}
330
C
100
AcDbDictionary
281
     1
  3
Standard
350
57F5
  0
DICTIONARY
  5
1B
102
{ACAD_REACTORS
330
C
102
}
330
C
100
AcDbDictionary
281
     1
  3
STANDARD
350
1C
  0
DICTIONARY
  5
75F
102
{ACAD_REACTORS
330
C
102
}
330
C
100
AcDbDictionary
281
     1
  3
オブA3
350
5884
  3
オブA3PDF
350
5885
  3
オブA3PDFカラー
350
5889
  3
オブA4
350
5887
  3
オブA4PDF
350
5886
  3
オブA4裏
350
5888
  0
ACDBDICTIONARYWDFLT
  5
75C
102
{ACAD_REACTORS
330
C
102
}
330
C
100
AcDbDictionary
281
     1
  3
Normal
350
75D
100
AcDbDictionaryWithDefault
340
75D
  0
DICTIONARY
  5
57E2
102
{ACAD_REACTORS
330
C
102
}
330
C
100
AcDbDictionary
281
     1
  3
A0
350
57E3
  3
A1
350
57E4
  3
A2
350
57E5
  3
A3
350
57E6
  3
A4
350
57E7
  3
A5
350
57E8
  3
A6
350
57E9
  3
A7
350
57EA
  3
A8
350
57EB
  3
A9
350
57EC
  3
B0
350
57ED
  3
B1
350
57EE
  3
B2
350
57EF
  3
B3
350
57F0
  3
B4
350
57F1
  3
B5
350
57F2
  3
B6
350
57F3
  0
DICTIONARY
  5
57F6
102
{ACAD_REACTORS
330
C
102
}
330
C
100
AcDbDictionary
281
     1
  3
Imperial24
350
A709
  3
Metric50
350
57F7
  0
DICTIONARY
  5
57E0
102
{ACAD_REACTORS
330
C
102
}
330
C
100
AcDbDictionary
281
     1
  3
Standard
350
57E1
  0
DICTIONARY
  5
57C6
102
{ACAD_REACTORS
330
C
102
}
330
C
100
AcDbDictionary
281
     1
  3
2dWireframe
350
57CC
  3
Basic
350
57CB
  3
Brighten
350
57D2
  3
ColorChange
350
57D6
  3
Conceptual
350
57CF
  3
Dim
350
57D1
  3
EdgeColorOff
350
57DE
  3
Facepattern
350
57D5
  3
Flat
350
57C7
  3
FlatWithEdges
350
57C8
  3
Gouraud
350
57C9
  3
GouraudWithEdges
350
57CA
  3
Hidden
350
57CE
  3
JitterOff
350
57DC
  3
Linepattern
350
57D4
  3
OverhangOff
350
57DD
  3
Realistic
350
57D0
  3
Shaded
350
57DB
  3
Shaded with edges
350
57DA
  3
Shades of Gray
350
57D7
  3
Sketchy
350
57D8
  3
Thicken
350
57D3
  3
Wireframe
350
57CD
  3
X-Ray
350
57D9
  0
XRECORD
  5
2413
102
{ACAD_REACTORS
330
C
102
}
330
C
100
AcDbXrecord
280
     1
 90
   990106
  3
OPEN
 60
     0
 61
     0
 62
     1
 63
     3
 64
     1
 65
     0
 66
     0
 67
     3
 68
     1
 69
     0
 70
     0
 71
     0
 72
     0
 40
0.0
170
     2
  0
XRECORD
  5
D828
102
{ACAD_REACTORS
330
C
102
}
330
C
100
AcDbXrecord
280
     1
 90
        1
330
57E1
330
57F7
330
57F9
330
A709
330
A70A
330
D0E7
  0
DICTIONARY
  5
33
102
{ACAD_REACTORS
330
C
102
}
330
C
100
AcDbDictionary
281
     1
  3
CANNOSCALE
350
587B
  3
CMLEADERSTYLE
350
5878
  3
CTABLESTYLE
350
5877
  3
CVIEWDETAILSTYLE
350
5879
  3
CVIEWSECTIONSTYLE
350
587A
  3
DIMADEC
350
34
  3
DIMASSOC
350
23F7
  3
INDEXCTL
350
587C
  3
LAYEREVAL
350
D09C
  3
LAYERNOTIFY
350
D09D
  3
LIGHTINGUNITS
350
D09B
  3
MSLTSCALE
350
D09A
  3
SORTENTS
350
1383
  0
DICTIONARY
  5
BDB1
102
{ACAD_REACTORS
330
C
102
}
330
C
100
AcDbDictionary
281
     1
  0
DICTIONARY
  5
23
102
{ACAD_REACTORS
330
C
102
}
330
C
100
AcDbDictionary
281
     1
  0
DICTIONARY
  5
46A0
102
{ACAD_REACTORS
330
2886
102
}
330
2886
100
AcDbDictionary
281
     1
  0
XRECORD
  5
5801
102
{ACAD_REACTORS
330
5800
102
}
330
5800
100
AcDbXrecord
280
     1
290
     1
  0
XRECORD
  5
5805
102
{ACAD_REACTORS
330
5804
102
}
330
5804
100
AcDbXrecord
280
     1
290
     1
  0
SORTENTSTABLE
  5
5B08
102
{ACAD_REACTORS
330
5B07
102
}
330
5B07
100
AcDbSortentsTable
330
18
331
7A27
  5
7A27
  0
ACDBDETAILVIEWSTYLE
  5
A70A
102
{ACAD_XDICTIONARY
360
D0A5
102
}
102
{ACAD_REACTORS
330
57F8
102
}
330
57F8
100
AcDbModelDocViewStyle
 70
     0
  3
Imperial24
290
     0
100
AcDbDetailViewStyle
 70
     0
 71
     0
 90
        3
 71
     1
340
F
 62
   256
 40
0.24
340
0
 62
   256
 40
0.24
300

 40
0.36
280
     3
 71
     2
340
14
 90
       25
 62
   256
 71
     3
340
F
 62
   256
 40
0.24
 90
        1
 40
0.75
 90
        1
300
%<\AcVar ViewType \f "%tc1">% %<\AcVar ViewDetailId>%\PSCALE %<\AcVar ViewScale \f "%sn">%
 71
     4
340
14
 90
       25
 62
   256
340
14
 90
       25
 62
   256
280
     0
  0
ACDBDETAILVIEWSTYLE
  5
57F9
102
{ACAD_XDICTIONARY
360
D0A1
102
}
102
{ACAD_REACTORS
330
57F8
102
}
330
57F8
100
AcDbModelDocViewStyle
 70
     0
  3
Metric50
290
     0
100
AcDbDetailViewStyle
 70
     0
 71
     0
 90
        3
 71
     1
340
F
 62
   256
 40
5.0
340
0
 62
   256
 40
5.0
300

 40
0.0
280
     1
 71
     2
340
14
 90
       25
 62
   256
 71
     3
340
F
 62
   256
 40
5.0
 90
        0
 40
15.0
 90
        1
300
%<\AcVar ViewDetailId>% (%<\AcVar ViewScale \f "%sn">%)
 71
     4
340
14
 90
       25
 62
   256
340
14
 90
       25
 62
   256
280
     0
  0
LAYOUT
  5
760
102
{ACAD_REACTORS
330
75E
102
}
330
75E
100
AcDbPlotSettings
  1

  2
KONICA MINOLTA C364SeriesPCL
  4
A3
  6

 40
5.027082920074462
 41
5.027069091796875
 42
5.027099609375
 43
5.027069091796875
 44
296.9259948730469
 45
419.9466552734373
 46
0.8104534522212246
 47
0.844643083534379
 48
0.6602245427074767
 49
2.274885139995582
140
11080.66022454271
141
15602.27488513999
142
1.0
143
4.0
 70
  3748
 72
     1
 73
     1
 74
     1
  7
TAGAI1.CTB
 75
     0
147
0.2027157928435555
 76
     0
 77
     2
 78
   300
148
0.0342067849396699
149
0.0064483113992537
100
AcDbLayout
  1
Model
 70
     1
 71
     0
 10
0.0
 20
0.0
 11
12.0
 21
9.0
 12
0.0
 22
0.0
 32
0.0
 14
0.0
 24
0.0
 34
0.0
 15
0.0
 25
0.0
 35
0.0
146
0.0
 13
0.0
 23
0.0
 33
0.0
 16
1.0
 26
0.0
 36
0.0
 17
0.0
 27
1.0
 37
0.0
 76
     0
330
18
331
57AB
1001
ACAD_PSEXT
1000
KONICA MINOLTA C364SeriesPCL
1000
KONICA MINOLTA C364SeriesPCL
1000
IP_192.168.21.25
1000

1070
     0
  0
LAYOUT
  5
761
102
{ACAD_REACTORS
330
75E
102
}
330
75E
100
AcDbPlotSettings
  1

  2
Canon LASER SHOT LBP-850
  4

  6

 40
0.0
 41
0.0
 42
0.0
 43
0.0
 44
0.0
 45
0.0
 46
0.0
 47
0.0
 48
0.0
 49
0.0
140
0.0
141
0.0
142
1.0
143
1.0
 70
   688
 72
     0
 73
     0
 74
     5
  7
tagai1.ctb
 75
    16
147
1.0
 76
     0
 77
     2
 78
   300
148
0.0
149
0.0
100
AcDbLayout
  1
ﾚｲｱｳﾄ1
 70
     1
 71
     1
 10
0.0
 20
0.0
 11
420.0
 21
297.0
 12
0.0
 22
0.0
 32
0.0
 14
1.000000000000000E+20
 24
1.000000000000000E+20
 34
1.000000000000000E+20
 15
-1.000000000000000E+20
 25
-1.000000000000000E+20
 35
-1.000000000000000E+20
146
0.0
 13
0.0
 23
0.0
 33
0.0
 16
1.0
 26
0.0
 36
0.0
 17
0.0
 27
1.0
 37
0.0
 76
     0
330
15
  0
MATERIAL
  5
57B6
102
{ACAD_XDICTIONARY
360
57B7
102
}
102
{ACAD_REACTORS
330
57AD
102
}
330
57AD
100
AcDbMaterial
  1
ByBlock
 72
     0
 43
0.0208333333333333
 43
0.0
 43
0.0
 43
0.0
 43
0.0
 43
0.0208333333333333
 43
0.0
 43
0.0
 43
0.0
 43
0.0
 43
1.0
 43
0.0
 43
0.0
 43
0.0
 43
0.0
 43
1.0
 77
     0
 47
0.0208333333333333
 47
0.0
 47
0.0
 47
0.0
 47
0.0
 47
0.0208333333333333
 47
0.0
 47
0.0
 47
0.0
 47
0.0
 47
1.0
 47
0.0
 47
0.0
 47
0.0
 47
0.0
 47
1.0
171
     0
 49
0.0208333333333333
 49
0.0
 49
0.0
 49
0.0
 49
0.0
 49
0.0208333333333333
 49
0.0
 49
0.0
 49
0.0
 49
0.0
 49
1.0
 49
0.0
 49
0.0
 49
0.0
 49
0.0
 49
1.0
175
     0
142
0.0208333333333333
142
0.0
142
0.0
142
0.0
142
0.0
142
0.0208333333333333
142
0.0
142
0.0
142
0.0
142
0.0
142
1.0
142
0.0
142
0.0
142
0.0
142
0.0
142
1.0
179
     0
144
0.0208333333333333
144
0.0
144
0.0
144
0.0
144
0.0
144
0.0208333333333333
144
0.0
144
0.0
144
0.0
144
0.0
144
1.0
144
0.0
144
0.0
144
0.0
144
0.0
144
1.0
147
0.0208333333333333
147
0.0
147
0.0
147
0.0
147
0.0
147
0.0208333333333333
147
0.0
147
0.0
147
0.0
147
0.0
147
1.0
147
0.0
147
0.0
147
0.0
147
0.0
147
1.0
  0
MATERIAL
  5
57AE
102
{ACAD_XDICTIONARY
360
57AF
102
}
102
{ACAD_REACTORS
330
57AD
102
}
330
57AD
100
AcDbMaterial
  1
ByLayer
 72
     0
 43
0.0208333333333333
 43
0.0
 43
0.0
 43
0.0
 43
0.0
 43
0.0208333333333333
 43
0.0
 43
0.0
 43
0.0
 43
0.0
 43
1.0
 43
0.0
 43
0.0
 43
0.0
 43
0.0
 43
1.0
 77
     0
 47
0.0208333333333333
 47
0.0
 47
0.0
 47
0.0
 47
0.0
 47
0.0208333333333333
 47
0.0
 47
0.0
 47
0.0
 47
0.0
 47
1.0
 47
0.0
 47
0.0
 47
0.0
 47
0.0
 47
1.0
171
     0
 49
0.0208333333333333
 49
0.0
 49
0.0
 49
0.0
 49
0.0
 49
0.0208333333333333
 49
0.0
 49
0.0
 49
0.0
 49
0.0
 49
1.0
 49
0.0
 49
0.0
 49
0.0
 49
0.0
 49
1.0
175
     0
142
0.0208333333333333
142
0.0
142
0.0
142
0.0
142
0.0
142
0.0208333333333333
142
0.0
142
0.0
142
0.0
142
0.0
142
1.0
142
0.0
142
0.0
142
0.0
142
0.0
142
1.0
179
     0
144
0.0208333333333333
144
0.0
144
0.0
144
0.0
144
0.0
144
0.0208333333333333
144
0.0
144
0.0
144
0.0
144
0.0
144
1.0
144
0.0
144
0.0
144
0.0
144
0.0
144
1.0
147
0.0208333333333333
147
0.0
147
0.0
147
0.0
147
0.0
147
0.0208333333333333
147
0.0
147
0.0
147
0.0
147
0.0
147
1.0
147
0.0
147
0.0
147
0.0
147
0.0
147
1.0
  0
MATERIAL
  5
57BE
102
{ACAD_XDICTIONARY
360
57BF
102
}
102
{ACAD_REACTORS
330
57AD
102
}
330
57AD
100
AcDbMaterial
  1
Global
 72
     0
 43
0.0208333333333333
 43
0.0
 43
0.0
 43
0.0
 43
0.0
 43
0.0208333333333333
 43
0.0
 43
0.0
 43
0.0
 43
0.0
 43
1.0
 43
0.0
 43
0.0
 43
0.0
 43
0.0
 43
1.0
 77
     0
 47
0.0208333333333333
 47
0.0
 47
0.0
 47
0.0
 47
0.0
 47
0.0208333333333333
 47
0.0
 47
0.0
 47
0.0
 47
0.0
 47
1.0
 47
0.0
 47
0.0
 47
0.0
 47
0.0
 47
1.0
171
     0
 49
0.0208333333333333
 49
0.0
 49
0.0
 49
0.0
 49
0.0
 49
0.0208333333333333
 49
0.0
 49
0.0
 49
0.0
 49
0.0
 49
1.0
 49
0.0
 49
0.0
 49
0.0
 49
0.0
 49
1.0
175
     0
142
0.0208333333333333
142
0.0
142
0.0
142
0.0
142
0.0
142
0.0208333333333333
142
0.0
142
0.0
142
0.0
142
0.0
142
1.0
142
0.0
142
0.0
142
0.0
142
0.0
142
1.0
179
     0
144
0.0208333333333333
144
0.0
144
0.0
144
0.0
144
0.0
144
0.0208333333333333
144
0.0
144
0.0
144
0.0
144
0.0
144
1.0
144
0.0
144
0.0
144
0.0
144
0.0
144
1.0
147
0.0208333333333333
147
0.0
147
0.0
147
0.0
147
0.0
147
0.0208333333333333
147
0.0
147
0.0
147
0.0
147
0.0
147
1.0
147
0.0
147
0.0
147
0.0
147
0.0
147
1.0
  0
MLEADERSTYLE
  5
57F5
102
{ACAD_REACTORS
330
57F4
102
}
330
57F4
100
AcDbMLeaderStyle
179
     2
170
     2
171
     1
172
     0
 90
        2
 40
0.0
 41
0.0
173
     1
 91
-1056964608
340
12
 92
       -2
290
     1
 42
2.0
291
     1
 43
0.36
  3
Standard
 44
4.0
300

342
F
174
     1
178
     6
175
     1
176
     0
 93
-1056964608
 45
4.0
292
     0
297
     0
 46
4.0
 94
-1056964608
 47
1.0
 49
1.0
140
1.0
293
     1
141
0.0
294
     1
177
     0
142
1.0
295
     0
296
     0
143
0.125
271
     0
272
     9
273
     9
298
     1
  0
MLINESTYLE
  5
1C
102
{ACAD_REACTORS
330
1B
102
}
330
1B
100
AcDbMlineStyle
  2
STANDARD
 70
     0
  3

 62
   256
 51
90.0
 52
90.0
 71
     2
 49
0.5
 62
   256
  6
BYLAYER
 49
-0.5
 62
   256
  6
BYLAYER
  0
PLOTSETTINGS
  5
5884
102
{ACAD_REACTORS
330
75F
102
}
330
75F
100
AcDbPlotSettings
  1
オブA3
  2
EPSON LP-S3000
  4
A3
  6

 40
5.873749732971191
 41
5.873747825622557
 42
5.873748779296875
 43
5.873748779296875
 44
297.0106506347656
 45
419.9466552734373
 46
0.0
 47
0.0
 48
0.6602245427074767
 49
2.274885139995582
140
11080.66022454271
141
15602.27488513999
142
1.0
143
1.000009796045915
 70
  1716
 72
     1
 73
     1
 74
     1
  7
TAGAI1.CTB
 75
     0
147
0.9999902040500462
 76
     0
 77
     2
 78
   300
148
0.0062252642686644
149
0.0087050081928055
  0
PLOTSETTINGS
  5
5885
102
{ACAD_REACTORS
330
75F
102
}
330
75F
100
AcDbPlotSettings
  1
オブA3PDF
  2
Adobe PDF
  4
A3
  6

 40
3.174999952316283
 41
3.174999952316283
 42
3.17498779296875
 43
3.17498779296875
 44
297.0318298339844
 45
420.1583251953125
 46
0.7618695942057912
 47
0.0
 48
0.6602245427074767
 49
2.274885139995582
140
11080.66022454271
141
15602.27488513999
142
1.0
143
0.9864847522617806
 70
  3764
 72
     1
 73
     1
 74
     1
  7
TAGAI1.CTB
 75
     0
147
1.013700412203262
 76
     0
 77
     2
 78
   300
148
0.0186822558410995
149
-0.0043545630755943
1001
ACAD_PSEXT
1000
Adobe PDF
1000
Adobe PDF Converter
1000
My Documents
1000

1070
     0
  0
PLOTSETTINGS
  5
5889
102
{ACAD_REACTORS
330
75F
102
}
330
75F
100
AcDbPlotSettings
  1
オブA3PDFカラー
  2
Adobe PDF
  4
A3
  6

 40
3.174999952316283
 41
3.174999952316283
 42
3.17498779296875
 43
3.17498779296875
 44
297.0318298339844
 45
420.1583251953125
 46
0.7618695942057912
 47
0.0
 48
0.6602245427074767
 49
2.274885139995582
140
11080.66022454271
141
15602.27488513999
142
1.0
143
0.9864847522617806
 70
  3732
 72
     1
 73
     1
 74
     1
  7
TAGAI1.CTB
 75
     0
147
1.013700412203262
 76
     0
 77
     2
 78
   300
148
0.0186822558410995
149
-0.0043545630755943
1001
ACAD_PSEXT
1000
Adobe PDF
1000
Adobe PDF Converter
1000
My Documents
1000

1070
     0
  0
PLOTSETTINGS
  5
5887
102
{ACAD_REACTORS
330
75F
102
}
330
75F
100
AcDbPlotSettings
  1
オブA4
  2
EPSON LP-S3000
  4
A4
  6

 40
5.873749732971191
 41
5.873747825622557
 42
5.873748779296875
 43
5.873748779296875
 44
209.9733276367186
 45
297.0106506347656
 46
0.0
 47
0.8
 48
0.6602245427074767
 49
2.274885139995582
140
11080.66022454271
141
15602.27488513999
142
1.0
143
1.439081479612396
 70
  1716
 72
     1
 73
     1
 74
     1
  7
TAGAI1.CTB
 75
     0
147
0.6948876864632718
 76
     0
 77
     2
 78
   300
148
0.0062252642686644
149
0.0087050081928055
  0
PLOTSETTINGS
  5
5886
102
{ACAD_REACTORS
330
75F
102
}
330
75F
100
AcDbPlotSettings
  1
オブA4PDF
  2
Adobe PDF
  4
A4
  6

 40
3.174999952316283
 41
3.174999952316283
 42
3.175003051757812
 43
3.17498779296875
 44
209.9733276367186
 45
297.0318298339844
 46
0.2513475533557994
 47
0.0
 48
0.6602245427074767
 49
2.274885139995582
140
11080.66022454271
141
15602.27488513999
142
1.0
143
1.404338201244389
 70
  3764
 72
     1
 73
     1
 74
     1
  7
TAGAI1.CTB
 75
     0
147
0.7120791837136498
 76
     0
 77
     2
 78
   300
148
0.0186822558410995
149
-0.0043545630755943
1001
ACAD_PSEXT
1000
Adobe PDF
1000
Adobe PDF Converter
1000
My Documents
1000

1070
     0
  0
PLOTSETTINGS
  5
5888
102
{ACAD_REACTORS
330
75F
102
}
330
75F
100
AcDbPlotSettings
  1
オブA4裏
  2
EPSON LP-S3000.pc3
  4
A4
  6

 40
5.873749732971191
 41
5.873747825622557
 42
5.873748779296875
 43
5.873748779296875
 44
209.9733276367186
 45
297.0106506347656
 46
0.0
 47
0.8
 48
0.6602245427074767
 49
2.274885139995582
140
11080.66022454271
141
15602.27488513999
142
1.0
143
1.439081479612396
 70
  1716
 72
     1
 73
     1
 74
     1
  7
TAGAI1.CTB
 75
     0
147
0.6948876864632718
 76
     0
 77
     2
 78
   300
148
0.0062252642686644
149
0.0087050081928055
  0
ACDBPLACEHOLDER
  5
75D
102
{ACAD_REACTORS
330
75C
102
}
330
75C
  0
SCALE
  5
57E3
102
{ACAD_REACTORS
330
57E2
102
}
330
57E2
100
AcDbScale
 70
     0
300
1:1
140
1.0
141
1.0
290
     1
  0
SCALE
  5
57E4
102
{ACAD_REACTORS
330
57E2
102
}
330
57E2
100
AcDbScale
 70
     0
300
1:2
140
1.0
141
2.0
290
     0
  0
SCALE
  5
57E5
102
{ACAD_REACTORS
330
57E2
102
}
330
57E2
100
AcDbScale
 70
     0
300
1:4
140
1.0
141
4.0
290
     0
  0
SCALE
  5
57E6
102
{ACAD_REACTORS
330
57E2
102
}
330
57E2
100
AcDbScale
 70
     0
300
1:5
140
1.0
141
5.0
290
     0
  0
SCALE
  5
57E7
102
{ACAD_REACTORS
330
57E2
102
}
330
57E2
100
AcDbScale
 70
     0
300
1:8
140
1.0
141
8.0
290
     0
  0
SCALE
  5
57E8
102
{ACAD_REACTORS
330
57E2
102
}
330
57E2
100
AcDbScale
 70
     0
300
1:10
140
1.0
141
10.0
290
     0
  0
SCALE
  5
57E9
102
{ACAD_REACTORS
330
57E2
102
}
330
57E2
100
AcDbScale
 70
     0
300
1:16
140
1.0
141
16.0
290
     0
  0
SCALE
  5
57EA
102
{ACAD_REACTORS
330
57E2
102
}
330
57E2
100
AcDbScale
 70
     0
300
1:20
140
1.0
141
20.0
290
     0
  0
SCALE
  5
57EB
102
{ACAD_REACTORS
330
57E2
102
}
330
57E2
100
AcDbScale
 70
     0
300
1:30
140
1.0
141
30.0
290
     0
  0
SCALE
  5
57EC
102
{ACAD_REACTORS
330
57E2
102
}
330
57E2
100
AcDbScale
 70
     0
300
1:40
140
1.0
141
40.0
290
     0
  0
SCALE
  5
57ED
102
{ACAD_REACTORS
330
57E2
102
}
330
57E2
100
AcDbScale
 70
     0
300
1:50
140
1.0
141
50.0
290
     0
  0
SCALE
  5
57EE
102
{ACAD_REACTORS
330
57E2
102
}
330
57E2
100
AcDbScale
 70
     0
300
1:100
140
1.0
141
100.0
290
     0
  0
SCALE
  5
57EF
102
{ACAD_REACTORS
330
57E2
102
}
330
57E2
100
AcDbScale
 70
     0
300
2:1
140
2.0
141
1.0
290
     0
  0
SCALE
  5
57F0
102
{ACAD_REACTORS
330
57E2
102
}
330
57E2
100
AcDbScale
 70
     0
300
4:1
140
4.0
141
1.0
290
     0
  0
SCALE
  5
57F1
102
{ACAD_REACTORS
330
57E2
102
}
330
57E2
100
AcDbScale
 70
     0
300
8:1
140
8.0
141
1.0
290
     0
  0
SCALE
  5
57F2
102
{ACAD_REACTORS
330
57E2
102
}
330
57E2
100
AcDbScale
 70
     0
300
10:1
140
10.0
141
1.0
290
     0
  0
SCALE
  5
57F3
102
{ACAD_REACTORS
330
57E2
102
}
330
57E2
100
AcDbScale
 70
     0
300
100:1
140
100.0
141
1.0
290
     0
  0
ACDBSECTIONVIEWSTYLE
  5
A709
102
{ACAD_XDICTIONARY
360
D0A3
102
}
102
{ACAD_REACTORS
330
57F6
102
}
330
57F6
100
AcDbModelDocViewStyle
 70
     0
  3
Imperial24
290
     0
100
AcDbSectionViewStyle
 70
     0
 71
     0
 90
       78
 71
     1
340
F
 62
   256
 40
0.24
340
0
340
0
 62
   256
 40
0.24
300
I, O, Q, S, X, Z
 40
0.48
 90
        3
 40
0.18
 90
        1
 71
     2
340
14
 90
       25
 62
   256
340
14
 90
       50
 62
   256
 40
0.24
 40
0.0
 40
0.24
 71
     3
340
F
 62
   256
 40
0.24
 90
        1
 40
0.75
 90
        1
300
%<\AcVar ViewType \f "%tc1">% %<\AcVar ViewSectionStartId>%-%<\AcVar ViewSectionEndId>%\PSCALE %<\AcVar ViewScale \f "%sn">%
 71
     4
 62
   256
 62
   257
300
ANSI31
 40
1.0
 90
        0
290
     0
290
     0
 90
        6
 40
0.0
 40
1.570796326794896
 40
0.2617993877991494
 40
1.308996938995747
 40
-0.2617993877991494
 40
1.832595714594045
  0
ACDBSECTIONVIEWSTYLE
  5
57F7
102
{ACAD_XDICTIONARY
360
D09F
102
}
102
{ACAD_REACTORS
330
57F6
102
}
330
57F6
100
AcDbModelDocViewStyle
 70
     0
  3
Metric50
290
     0
100
AcDbSectionViewStyle
 70
     0
 71
     0
 90
      102
 71
     1
340
F
 62
   256
 40
5.0
340
0
340
0
 62
   256
 40
5.0
300
I, O, Q, S, X, Z
 40
10.0
 90
        0
 40
2.5
 90
        0
 71
     2
340
14
 90
       25
 62
   256
340
14
 90
       50
 62
   256
 40
5.0
 40
2.5
 40
5.0
 71
     3
340
F
 62
   256
 40
5.0
 90
        0
 40
15.0
 90
        1
300
%<\AcVar ViewSectionStartId>%-%<\AcVar ViewSectionEndId>% (%<\AcVar ViewScale \f "%sn">%)
 71
     4
 62
   256
 62
   257
300
ANSI31
 40
1.0
 90
        0
290
     0
290
     0
 90
        6
 40
0.0
 40
1.570796326794896
 40
0.2617993877991494
 40
1.308996938995747
 40
-0.2617993877991494
 40
1.832595714594045
  0
TABLESTYLE
  5
57E1
102
{ACAD_XDICTIONARY
360
5822
102
}
102
{ACAD_REACTORS
330
57E0
102
}
330
57E0
100
AcDbTableStyle
280
     0
  3
Standard
 70
     0
 71
     0
 40
1.5
 41
1.5
280
     0
281
     0
  7
STANDARD
140
4.5
170
     2
 62
     0
 63
     7
283
     0
 90
      512
 91
        0
  1

274
    -2
284
     1
 64
     0
275
    -2
285
     1
 65
     0
276
    -2
286
     1
 66
     0
277
    -2
287
     1
 67
     0
278
    -2
288
     1
 68
     0
279
    -2
289
     1
 69
     0
  7
STANDARD
140
6.0
170
     5
 62
     0
 63
     7
283
     0
 90
      512
 91
        0
  1

274
    -2
284
     1
 64
     0
275
    -2
285
     1
 65
     0
276
    -2
286
     1
 66
     0
277
    -2
287
     1
 67
     0
278
    -2
288
     1
 68
     0
279
    -2
289
     1
 69
     0
  7
STANDARD
140
4.5
170
     5
 62
     0
 63
     7
283
     0
 90
      512
 91
        0
  1

274
    -2
284
     1
 64
     0
275
    -2
285
     1
 65
     0
276
    -2
286
     1
 66
     0
277
    -2
287
     1
 67
     0
278
    -2
288
     1
 68
     0
279
    -2
289
     1
 69
     0
  0
VISUALSTYLE
  5
57CC
102
{ACAD_REACTORS
330
57C6
102
}
330
57C6
100
AcDbVisualStyle
  2
2dWireframe
 70
     4
177
     3
291
     0
 70
    58
 90
        0
176
     1
 90
        2
176
     1
 90
        0
176
     1
 90
        0
176
     1
 40
0.6
176
     1
 40
30.0
176
     1
 62
     7
176
     1
 90
        1
176
     1
 90
        4
176
     1
 62
     7
176
     1
 62
   257
176
     1
 90
        1
176
     1
 90
        1
176
     1
 40
1.0
176
     1
 90
        0
176
     1
 62
   257
176
     1
 40
1.0
176
     1
 90
        1
176
     1
 90
        6
176
     1
 90
        2
176
     1
 62
     7
176
     1
 90
        5
176
     1
 90
        0
176
     1
 90
        0
176
     1
290
     0
176
     1
 90
        1
176
     1
 40
0.0
176
     1
 90
        0
176
     1
290
     1
176
     1
290
     1
176
     1
290
     0
176
     1
290
     0
176
     1
290
     0
176
     1
290
     0
176
     1
290
     0
176
     1
290
     0
176
     1
290
     0
176
     1
 90
       50
176
     1
 40
0.0
176
     1
 40
1.0
176
     1
 90
        0
176
     1
 62
    18
176
     1
 90
       50
176
     1
 90
        3
176
     1
 62
     5
420
      255
176
     1
290
     0
176
     1
 90
       50
176
     1
 90
       50
176
     1
 90
       50
176
     1
290
     0
176
     1
 90
       50
176
     1
 62
   256
176
     0
 40
1.0
176
     0
 90
        2
176
     1
  1
strokes_ogs.tif
176
     1
290
     0
176
     1
 40
1.0
176
     1
 40
1.0
176
     1
  0
VISUALSTYLE
  5
57CB
102
{ACAD_REACTORS
330
57C6
102
}
330
57C6
100
AcDbVisualStyle
  2
Basic
 70
     7
177
     3
291
     1
 70
    58
 90
        1
176
     1
 90
        0
176
     1
 90
        1
176
     1
 90
        0
176
     1
 40
0.6
176
     1
 40
30.0
176
     1
 62
     7
176
     1
 90
        0
176
     1
 90
        4
176
     1
 62
     7
176
     1
 62
   257
176
     1
 90
        1
176
     1
 90
        1
176
     1
 40
1.0
176
     1
 90
        8
176
     1
 62
     7
176
     1
 40
1.0
176
     1
 90
        1
176
     1
 90
        6
176
     1
 90
        2
176
     1
 62
     7
176
     1
 90
        5
176
     1
 90
        0
176
     1
 90
        0
176
     1
290
     0
176
     1
 90
        1
176
     1
 40
0.0
176
     1
 90
        0
176
     1
290
     0
176
     1
290
     1
176
     1
290
     1
176
     1
290
     0
176
     1
290
     0
176
     1
290
     0
176
     1
290
     0
176
     1
290
     0
176
     1
290
     0
176
     1
 90
       50
176
     1
 40
0.0
176
     1
 40
1.0
176
     1
 90
        0
176
     1
 62
    18
176
     1
 90
       50
176
     1
 90
        3
176
     1
 62
     5
420
      255
176
     1
290
     0
176
     1
 90
       50
176
     1
 90
       50
176
     1
 90
       50
176
     1
290
     0
176
     1
 90
       50
176
     1
 62
   256
176
     0
 40
1.0
176
     0
 90
        2
176
     1
  1
strokes_ogs.tif
176
     1
290
     0
176
     1
 40
1.0
176
     1
 40
1.0
176
     1
  0
VISUALSTYLE
  5
57D2
102
{ACAD_REACTORS
330
57C6
102
}
330
57C6
100
AcDbVisualStyle
  2
Brighten
 70
    12
177
     3
291
     1
 70
    58
 90
        2
176
     1
 90
        2
176
     1
 90
        0
176
     1
 90
        0
176
     1
 40
0.6
176
     1
 40
30.0
176
     1
 62
     7
176
     1
 90
        1
176
     1
 90
        4
176
     1
 62
     7
176
     1
 62
   257
176
     1
 90
        1
176
     1
 90
        1
176
     1
 40
1.0
176
     1
 90
        8
176
     1
 62
     7
176
     1
 40
1.0
176
     1
 90
        1
176
     1
 90
        6
176
     1
 90
        2
176
     1
 62
     7
176
     1
 90
        5
176
     1
 90
        0
176
     1
 90
        0
176
     1
290
     0
176
     1
 90
        1
176
     1
 40
50.0
176
     1
 90
        0
176
     1
290
     0
176
     1
290
     1
176
     1
290
     1
176
     1
290
     0
176
     1
290
     0
176
     1
290
     0
176
     1
290
     0
176
     1
290
     0
176
     1
290
     0
176
     1
 90
       50
176
     1
 40
0.0
176
     1
 40
1.0
176
     1
 90
        0
176
     1
 62
    18
176
     1
 90
       50
176
     1
 90
        3
176
     1
 62
     5
420
      255
176
     1
290
     0
176
     1
 90
       50
176
     1
 90
       50
176
     1
 90
       50
176
     1
290
     0
176
     1
 90
       50
176
     1
 62
   256
176
     0
 40
1.0
176
     0
 90
        2
176
     1
  1
strokes_ogs.tif
176
     1
290
     0
176
     1
 40
1.0
176
     1
 40
1.0
176
     1
  0
VISUALSTYLE
  5
57D6
102
{ACAD_REACTORS
330
57C6
102
}
330
57C6
100
AcDbVisualStyle
  2
ColorChange
 70
    16
177
     3
291
     1
 70
    58
 90
        2
176
     1
 90
        2
176
     1
 90
        3
176
     1
 90
        0
176
     1
 40
0.6
176
     1
 40
30.0
176
     1
 62
     8
176
     1
 90
        1
176
     1
 90
        4
176
     1
 62
     7
176
     1
 62
   257
176
     1
 90
        1
176
     1
 90
        1
176
     1
 40
1.0
176
     1
 90
        8
176
     1
 62
     8
176
     1
 40
1.0
176
     1
 90
        1
176
     1
 90
        6
176
     1
 90
        2
176
     1
 62
     7
176
     1
 90
        5
176
     1
 90
        0
176
     1
 90
        0
176
     1
290
     0
176
     1
 90
        1
176
     1
 40
0.0
176
     1
 90
        0
176
     1
290
     0
176
     1
290
     1
176
     1
290
     1
176
     1
290
     0
176
     1
290
     0
176
     1
290
     0
176
     1
290
     0
176
     1
290
     0
176
     1
290
     0
176
     1
 90
       50
176
     1
 40
0.0
176
     1
 40
1.0
176
     1
 90
        0
176
     1
 62
    18
176
     1
 90
       50
176
     1
 90
        3
176
     1
 62
     5
420
      255
176
     1
290
     0
176
     1
 90
       50
176
     1
 90
       50
176
     1
 90
       50
176
     1
290
     0
176
     1
 90
       50
176
     1
 62
   256
176
     0
 40
1.0
176
     0
 90
        2
176
     1
  1
strokes_ogs.tif
176
     1
290
     0
176
     1
 40
1.0
176
     1
 40
1.0
176
     1
  0
VISUALSTYLE
  5
57CF
102
{ACAD_REACTORS
330
57C6
102
}
330
57C6
100
AcDbVisualStyle
  2
Conceptual
 70
     9
177
     3
291
     0
 70
    58
 90
        3
176
     1
 90
        2
176
     1
 90
        0
176
     1
 90
        0
176
     1
 40
0.6
176
     1
 40
30.0
176
     1
 62
     7
176
     1
 90
        2
176
     1
 90
        2
176
     1
 62
     7
176
     1
 62
   257
176
     1
 90
        1
176
     1
 90
        1
176
     1
 40
179.0
176
     1
 90
        8
176
     1
 62
     7
176
     1
 40
1.0
176
     1
 90
        1
176
     1
 90
        6
176
     1
 90
        2
176
     1
 62
     7
176
     1
 90
        3
176
     1
 90
        0
176
     1
 90
        0
176
     1
290
     0
176
     1
 90
        1
176
     1
 40
0.0
176
     1
 90
        0
176
     1
290
     0
176
     1
290
     1
176
     1
290
     1
176
     1
290
     0
176
     1
290
     0
176
     1
290
     0
176
     1
290
     0
176
     1
290
     0
176
     1
290
     0
176
     1
 90
       50
176
     1
 40
0.0
176
     1
 40
1.0
176
     1
 90
        0
176
     1
 62
    18
176
     1
 90
       50
176
     1
 90
        3
176
     1
 62
     5
420
      255
176
     1
290
     0
176
     1
 90
       50
176
     1
 90
       50
176
     1
 90
       50
176
     1
290
     0
176
     1
 90
       50
176
     1
 62
   256
176
     0
 40
1.0
176
     0
 90
        2
176
     1
  1
strokes_ogs.tif
176
     1
290
     0
176
     1
 40
1.0
176
     1
 40
1.0
176
     1
  0
VISUALSTYLE
  5
57D1
102
{ACAD_REACTORS
330
57C6
102
}
330
57C6
100
AcDbVisualStyle
  2
Dim
 70
    11
177
     3
291
     1
 70
    58
 90
        2
176
     1
 90
        2
176
     1
 90
        0
176
     1
 90
        0
176
     1
 40
0.6
176
     1
 40
30.0
176
     1
 62
     7
176
     1
 90
        1
176
     1
 90
        4
176
     1
 62
     7
176
     1
 62
   257
176
     1
 90
        1
176
     1
 90
        1
176
     1
 40
1.0
176
     1
 90
        8
176
     1
 62
     7
176
     1
 40
1.0
176
     1
 90
        1
176
     1
 90
        6
176
     1
 90
        2
176
     1
 62
     7
176
     1
 90
        5
176
     1
 90
        0
176
     1
 90
        0
176
     1
290
     0
176
     1
 90
        1
176
     1
 40
-50.0
176
     1
 90
        0
176
     1
290
     0
176
     1
290
     1
176
     1
290
     1
176
     1
290
     0
176
     1
290
     0
176
     1
290
     0
176
     1
290
     0
176
     1
290
     0
176
     1
290
     0
176
     1
 90
       50
176
     1
 40
0.0
176
     1
 40
1.0
176
     1
 90
        0
176
     1
 62
    18
176
     1
 90
       50
176
     1
 90
        3
176
     1
 62
     5
420
      255
176
     1
290
     0
176
     1
 90
       50
176
     1
 90
       50
176
     1
 90
       50
176
     1
290
     0
176
     1
 90
       50
176
     1
 62
   256
176
     0
 40
1.0
176
     0
 90
        2
176
     1
  1
strokes_ogs.tif
176
     1
290
     0
176
     1
 40
1.0
176
     1
 40
1.0
176
     1
  0
VISUALSTYLE
  5
57DE
102
{ACAD_REACTORS
330
57C6
102
}
330
57C6
100
AcDbVisualStyle
  2
EdgeColorOff
 70
    22
177
     3
291
     1
 70
    58
 90
        2
176
     0
 90
        2
176
     0
 90
        0
176
     0
 90
        0
176
     0
 40
0.6
176
     0
 40
30.0
176
     0
 62
     7
176
     0
 90
        1
176
     0
 90
        4
176
     0
 62
     7
176
     0
 62
   257
176
     0
 90
        1
176
     0
 90
        1
176
     0
 40
1.0
176
     0
 90
        8
176
     2
 62
     7
176
     0
 40
1.0
176
     0
 90
        1
176
     0
 90
        6
176
     0
 90
        2
176
     0
 62
     7
176
     0
 90
        5
176
     0
 90
        0
176
     0
 90
        0
176
     0
290
     0
176
     0
 90
        1
176
     0
 40
0.0
176
     0
 90
        0
176
     0
290
     0
176
     0
290
     1
176
     0
290
     1
176
     0
290
     0
176
     0
290
     0
176
     0
290
     0
176
     0
290
     0
176
     0
290
     0
176
     0
290
     0
176
     0
 90
       50
176
     0
 40
0.0
176
     0
 40
1.0
176
     0
 90
        0
176
     0
 62
    18
176
     0
 90
       50
176
     0
 90
        3
176
     0
 62
     5
420
      255
176
     0
290
     0
176
     0
 90
       50
176
     0
 90
       50
176
     0
 90
       50
176
     0
290
     0
176
     0
 90
       50
176
     0
 62
   256
176
     0
 40
1.0
176
     0
 90
        2
176
     0
  1
strokes_ogs.tif
176
     0
290
     0
176
     0
 40
1.0
176
     0
 40
1.0
176
     0
  0
VISUALSTYLE
  5
57D5
102
{ACAD_REACTORS
330
57C6
102
}
330
57C6
100
AcDbVisualStyle
  2
Facepattern
 70
    15
177
     3
291
     1
 70
    58
 90
        2
176
     1
 90
        2
176
     1
 90
        0
176
     1
 90
        0
176
     1
 40
0.6
176
     1
 40
30.0
176
     1
 62
     7
176
     1
 90
        1
176
     1
 90
        4
176
     1
 62
     7
176
     1
 62
   257
176
     1
 90
        1
176
     1
 90
        1
176
     1
 40
1.0
176
     1
 90
        8
176
     1
 62
     7
176
     1
 40
1.0
176
     1
 90
        1
176
     1
 90
        6
176
     1
 90
        2
176
     1
 62
     7
176
     1
 90
        5
176
     1
 90
        0
176
     1
 90
        0
176
     1
290
     0
176
     1
 90
        1
176
     1
 40
0.0
176
     1
 90
        0
176
     1
290
     0
176
     1
290
     1
176
     1
290
     1
176
     1
290
     0
176
     1
290
     0
176
     1
290
     0
176
     1
290
     0
176
     1
290
     0
176
     1
290
     0
176
     1
 90
       50
176
     1
 40
0.0
176
     1
 40
1.0
176
     1
 90
        0
176
     1
 62
    18
176
     1
 90
       50
176
     1
 90
        3
176
     1
 62
     5
420
      255
176
     1
290
     0
176
     1
 90
       50
176
     1
 90
       50
176
     1
 90
       50
176
     1
290
     0
176
     1
 90
       50
176
     1
 62
   256
176
     0
 40
1.0
176
     0
 90
        2
176
     1
  1
strokes_ogs.tif
176
     1
290
     0
176
     1
 40
1.0
176
     1
 40
1.0
176
     1
  0
VISUALSTYLE
  5
57C7
102
{ACAD_REACTORS
330
57C6
102
}
330
57C6
100
AcDbVisualStyle
  2
Flat
 70
     0
177
     3
291
     1
 70
    58
 90
        2
176
     1
 90
        1
176
     1
 90
        1
176
     1
 90
        2
176
     1
 40
0.6
176
     1
 40
30.0
176
     1
 62
     7
176
     1
 90
        0
176
     1
 90
        0
176
     1
 62
     7
176
     1
 62
   257
176
     1
 90
        1
176
     1
 90
        1
176
     1
 40
1.0
176
     1
 90
        8
176
     1
 62
     7
176
     1
 40
1.0
176
     1
 90
        1
176
     1
 90
        6
176
     1
 90
        2
176
     1
 62
     7
176
     1
 90
        5
176
     1
 90
        0
176
     1
 90
        0
176
     1
290
     0
176
     1
 90
       13
176
     1
 40
0.0
176
     1
 90
        0
176
     1
290
     0
176
     1
290
     1
176
     1
290
     1
176
     1
290
     0
176
     1
290
     0
176
     1
290
     0
176
     1
290
     0
176
     1
290
     0
176
     1
290
     0
176
     1
 90
       50
176
     1
 40
0.0
176
     1
 40
1.0
176
     1
 90
        0
176
     1
 62
    18
176
     1
 90
       50
176
     1
 90
        3
176
     1
 62
     5
420
      255
176
     1
290
     0
176
     1
 90
       50
176
     1
 90
       50
176
     1
 90
       50
176
     1
290
     0
176
     1
 90
       50
176
     1
 62
   256
176
     0
 40
1.0
176
     0
 90
        2
176
     1
  1
strokes_ogs.tif
176
     1
290
     0
176
     1
 40
1.0
176
     1
 40
1.0
176
     1
  0
VISUALSTYLE
  5
57C8
102
{ACAD_REACTORS
330
57C6
102
}
330
57C6
100
AcDbVisualStyle
  2
FlatWithEdges
 70
     1
177
     3
291
     1
 70
    58
 90
        2
176
     1
 90
        1
176
     1
 90
        1
176
     1
 90
        2
176
     1
 40
0.6
176
     1
 40
30.0
176
     1
 62
     7
176
     1
 90
        1
176
     1
 90
        0
176
     1
 62
     7
176
     1
 62
   257
176
     1
 90
        1
176
     1
 90
        1
176
     1
 40
1.0
176
     1
 90
        0
176
     1
 62
   257
176
     1
 40
1.0
176
     1
 90
        1
176
     1
 90
        6
176
     1
 90
        2
176
     1
 62
     7
176
     1
 90
        5
176
     1
 90
        0
176
     1
 90
        0
176
     1
290
     0
176
     1
 90
       13
176
     1
 40
0.0
176
     1
 90
        0
176
     1
290
     0
176
     1
290
     1
176
     1
290
     1
176
     1
290
     0
176
     1
290
     0
176
     1
290
     0
176
     1
290
     0
176
     1
290
     0
176
     1
290
     0
176
     1
 90
       50
176
     1
 40
0.0
176
     1
 40
1.0
176
     1
 90
        0
176
     1
 62
    18
176
     1
 90
       50
176
     1
 90
        3
176
     1
 62
     5
420
      255
176
     1
290
     0
176
     1
 90
       50
176
     1
 90
       50
176
     1
 90
       50
176
     1
290
     0
176
     1
 90
       50
176
     1
 62
   256
176
     0
 40
1.0
176
     0
 90
        2
176
     1
  1
strokes_ogs.tif
176
     1
290
     0
176
     1
 40
1.0
176
     1
 40
1.0
176
     1
  0
VISUALSTYLE
  5
57C9
102
{ACAD_REACTORS
330
57C6
102
}
330
57C6
100
AcDbVisualStyle
  2
Gouraud
 70
     2
177
     3
291
     1
 70
    58
 90
        2
176
     1
 90
        2
176
     1
 90
        1
176
     1
 90
        2
176
     1
 40
0.6
176
     1
 40
30.0
176
     1
 62
     7
176
     1
 90
        0
176
     1
 90
        0
176
     1
 62
     7
176
     1
 62
   257
176
     1
 90
        1
176
     1
 90
        1
176
     1
 40
1.0
176
     1
 90
        0
176
     1
 62
     7
176
     1
 40
1.0
176
     1
 90
        1
176
     1
 90
        6
176
     1
 90
        2
176
     1
 62
     7
176
     1
 90
        5
176
     1
 90
        0
176
     1
 90
        0
176
     1
290
     0
176
     1
 90
       13
176
     1
 40
0.0
176
     1
 90
        0
176
     1
290
     0
176
     1
290
     1
176
     1
290
     1
176
     1
290
     0
176
     1
290
     0
176
     1
290
     0
176
     1
290
     0
176
     1
290
     0
176
     1
290
     0
176
     1
 90
       50
176
     1
 40
0.0
176
     1
 40
1.0
176
     1
 90
        0
176
     1
 62
    18
176
     1
 90
       50
176
     1
 90
        3
176
     1
 62
     5
420
      255
176
     1
290
     0
176
     1
 90
       50
176
     1
 90
       50
176
     1
 90
       50
176
     1
290
     0
176
     1
 90
       50
176
     1
 62
   256
176
     0
 40
1.0
176
     0
 90
        2
176
     1
  1
strokes_ogs.tif
176
     1
290
     0
176
     1
 40
1.0
176
     1
 40
1.0
176
     1
  0
VISUALSTYLE
  5
57CA
102
{ACAD_REACTORS
330
57C6
102
}
330
57C6
100
AcDbVisualStyle
  2
GouraudWithEdges
 70
     3
177
     3
291
     1
 70
    58
 90
        2
176
     1
 90
        2
176
     1
 90
        1
176
     1
 90
        2
176
     1
 40
0.6
176
     1
 40
30.0
176
     1
 62
     7
176
     1
 90
        1
176
     1
 90
        0
176
     1
 62
     7
176
     1
 62
   257
176
     1
 90
        1
176
     1
 90
        1
176
     1
 40
1.0
176
     1
 90
        0
176
     1
 62
   257
176
     1
 40
1.0
176
     1
 90
        1
176
     1
 90
        6
176
     1
 90
        2
176
     1
 62
     7
176
     1
 90
        5
176
     1
 90
        0
176
     1
 90
        0
176
     1
290
     0
176
     1
 90
       13
176
     1
 40
0.0
176
     1
 90
        0
176
     1
290
     0
176
     1
290
     1
176
     1
290
     1
176
     1
290
     0
176
     1
290
     0
176
     1
290
     0
176
     1
290
     0
176
     1
290
     0
176
     1
290
     0
176
     1
 90
       50
176
     1
 40
0.0
176
     1
 40
1.0
176
     1
 90
        0
176
     1
 62
    18
176
     1
 90
       50
176
     1
 90
        3
176
     1
 62
     5
420
      255
176
     1
290
     0
176
     1
 90
       50
176
     1
 90
       50
176
     1
 90
       50
176
     1
290
     0
176
     1
 90
       50
176
     1
 62
   256
176
     0
 40
1.0
176
     0
 90
        2
176
     1
  1
strokes_ogs.tif
176
     1
290
     0
176
     1
 40
1.0
176
     1
 40
1.0
176
     1
  0
VISUALSTYLE
  5
57CE
102
{ACAD_REACTORS
330
57C6
102
}
330
57C6
100
AcDbVisualStyle
  2
Hidden
 70
     6
177
     3
291
     0
 70
    58
 90
        1
176
     1
 90
        2
176
     1
 90
        2
176
     1
 90
        0
176
     1
 40
0.6
176
     1
 40
30.0
176
     1
 62
     7
176
     1
 90
        2
176
     1
 90
        2
176
     1
 62
     7
176
     1
 62
   257
176
     1
 90
        2
176
     1
 90
        1
176
     1
 40
40.0
176
     1
 90
        0
176
     1
 62
   257
176
     1
 40
1.0
176
     1
 90
        1
176
     1
 90
        6
176
     1
 90
        2
176
     1
 62
     7
176
     1
 90
        3
176
     1
 90
        0
176
     1
 90
        0
176
     1
290
     0
176
     1
 90
        1
176
     1
 40
0.0
176
     1
 90
        0
176
     1
290
     0
176
     1
290
     1
176
     1
290
     1
176
     1
290
     0
176
     1
290
     0
176
     1
290
     0
176
     1
290
     0
176
     1
290
     0
176
     1
290
     0
176
     1
 90
       50
176
     1
 40
0.0
176
     1
 40
1.0
176
     1
 90
        0
176
     1
 62
    18
176
     1
 90
       50
176
     1
 90
        3
176
     1
 62
     5
420
      255
176
     1
290
     0
176
     1
 90
       50
176
     1
 90
       50
176
     1
 90
       50
176
     1
290
     0
176
     1
 90
       50
176
     1
 62
   256
176
     0
 40
1.0
176
     0
 90
        2
176
     1
  1
strokes_ogs.tif
176
     1
290
     0
176
     1
 40
1.0
176
     1
 40
1.0
176
     1
  0
VISUALSTYLE
  5
57DC
102
{ACAD_REACTORS
330
57C6
102
}
330
57C6
100
AcDbVisualStyle
  2
JitterOff
 70
    20
177
     3
291
     1
 70
    58
 90
        2
176
     0
 90
        2
176
     0
 90
        0
176
     0
 90
        0
176
     0
 40
0.6
176
     0
 40
30.0
176
     0
 62
     7
176
     0
 90
        1
176
     0
 90
        4
176
     0
 62
     7
176
     0
 62
   257
176
     0
 90
        1
176
     0
 90
        1
176
     0
 40
1.0
176
     0
 90
       10
176
     2
 62
     7
176
     0
 40
1.0
176
     0
 90
        1
176
     0
 90
        6
176
     0
 90
        2
176
     0
 62
     7
176
     0
 90
        5
176
     0
 90
        0
176
     0
 90
        0
176
     0
290
     0
176
     0
 90
        1
176
     0
 40
0.0
176
     0
 90
        0
176
     0
290
     0
176
     0
290
     1
176
     0
290
     1
176
     0
290
     0
176
     0
290
     0
176
     0
290
     0
176
     0
290
     0
176
     0
290
     0
176
     0
290
     0
176
     0
 90
       50
176
     0
 40
0.0
176
     0
 40
1.0
176
     0
 90
        0
176
     0
 62
    18
176
     0
 90
       50
176
     0
 90
        3
176
     0
 62
     5
420
      255
176
     0
290
     0
176
     0
 90
       50
176
     0
 90
       50
176
     0
 90
       50
176
     0
290
     0
176
     0
 90
       50
176
     0
 62
   256
176
     0
 40
1.0
176
     0
 90
        2
176
     0
  1
strokes_ogs.tif
176
     0
290
     0
176
     0
 40
1.0
176
     0
 40
1.0
176
     0
  0
VISUALSTYLE
  5
57D4
102
{ACAD_REACTORS
330
57C6
102
}
330
57C6
100
AcDbVisualStyle
  2
Linepattern
 70
    14
177
     3
291
     1
 70
    58
 90
        2
176
     1
 90
        2
176
     1
 90
        0
176
     1
 90
        0
176
     1
 40
0.6
176
     1
 40
30.0
176
     1
 62
     7
176
     1
 90
        1
176
     1
 90
        4
176
     1
 62
     7
176
     1
 62
   257
176
     1
 90
        7
176
     1
 90
        7
176
     1
 40
1.0
176
     1
 90
        8
176
     1
 62
     7
176
     1
 40
1.0
176
     1
 90
        1
176
     1
 90
        6
176
     1
 90
        2
176
     1
 62
     7
176
     1
 90
        5
176
     1
 90
        0
176
     1
 90
        0
176
     1
290
     0
176
     1
 90
        1
176
     1
 40
0.0
176
     1
 90
        0
176
     1
290
     0
176
     1
290
     1
176
     1
290
     1
176
     1
290
     0
176
     1
290
     0
176
     1
290
     0
176
     1
290
     0
176
     1
290
     0
176
     1
290
     0
176
     1
 90
       50
176
     1
 40
0.0
176
     1
 40
1.0
176
     1
 90
        0
176
     1
 62
    18
176
     1
 90
       50
176
     1
 90
        3
176
     1
 62
     5
420
      255
176
     1
290
     0
176
     1
 90
       50
176
     1
 90
       50
176
     1
 90
       50
176
     1
290
     0
176
     1
 90
       50
176
     1
 62
   256
176
     0
 40
1.0
176
     0
 90
        2
176
     1
  1
strokes_ogs.tif
176
     1
290
     0
176
     1
 40
1.0
176
     1
 40
1.0
176
     1
  0
VISUALSTYLE
  5
57DD
102
{ACAD_REACTORS
330
57C6
102
}
330
57C6
100
AcDbVisualStyle
  2
OverhangOff
 70
    21
177
     3
291
     1
 70
    58
 90
        2
176
     0
 90
        2
176
     0
 90
        0
176
     0
 90
        0
176
     0
 40
0.6
176
     0
 40
30.0
176
     0
 62
     7
176
     0
 90
        1
176
     0
 90
        4
176
     0
 62
     7
176
     0
 62
   257
176
     0
 90
        1
176
     0
 90
        1
176
     0
 40
1.0
176
     0
 90
        9
176
     2
 62
     7
176
     0
 40
1.0
176
     0
 90
        1
176
     0
 90
        6
176
     0
 90
        2
176
     0
 62
     7
176
     0
 90
        5
176
     0
 90
        0
176
     0
 90
        0
176
     0
290
     0
176
     0
 90
        1
176
     0
 40
0.0
176
     0
 90
        0
176
     0
290
     0
176
     0
290
     1
176
     0
290
     1
176
     0
290
     0
176
     0
290
     0
176
     0
290
     0
176
     0
290
     0
176
     0
290
     0
176
     0
290
     0
176
     0
 90
       50
176
     0
 40
0.0
176
     0
 40
1.0
176
     0
 90
        0
176
     0
 62
    18
176
     0
 90
       50
176
     0
 90
        3
176
     0
 62
     5
420
      255
176
     0
290
     0
176
     0
 90
       50
176
     0
 90
       50
176
     0
 90
       50
176
     0
290
     0
176
     0
 90
       50
176
     0
 62
   256
176
     0
 40
1.0
176
     0
 90
        2
176
     0
  1
strokes_ogs.tif
176
     0
290
     0
176
     0
 40
1.0
176
     0
 40
1.0
176
     0
  0
VISUALSTYLE
  5
57D0
102
{ACAD_REACTORS
330
57C6
102
}
330
57C6
100
AcDbVisualStyle
  2
Realistic
 70
     8
177
     3
291
     0
 70
    58
 90
        2
176
     1
 90
        2
176
     1
 90
        0
176
     1
 90
        2
176
     1
 40
0.6
176
     1
 40
30.0
176
     1
 62
     7
176
     1
 90
        0
176
     1
 90
        0
176
     1
 62
     7
176
     1
 62
   257
176
     1
 90
        1
176
     1
 90
        1
176
     1
 40
1.0
176
     1
 90
        8
176
     1
 62
   257
176
     1
 40
1.0
176
     1
 90
        1
176
     1
 90
        6
176
     1
 90
        2
176
     1
 62
     7
176
     1
 90
        3
176
     1
 90
        0
176
     1
 90
        0
176
     1
290
     0
176
     1
 90
       13
176
     1
 40
0.0
176
     1
 90
        0
176
     1
290
     0
176
     1
290
     1
176
     1
290
     1
176
     1
290
     0
176
     1
290
     0
176
     1
290
     0
176
     1
290
     0
176
     1
290
     0
176
     1
290
     0
176
     1
 90
       50
176
     1
 40
0.0
176
     1
 40
1.0
176
     1
 90
        0
176
     1
 62
    18
176
     1
 90
       50
176
     1
 90
        3
176
     1
 62
     5
420
      255
176
     1
290
     0
176
     1
 90
       50
176
     1
 90
       50
176
     1
 90
       50
176
     1
290
     0
176
     1
 90
       50
176
     1
 62
   256
176
     0
 40
1.0
176
     0
 90
        2
176
     1
  1
strokes_ogs.tif
176
     1
290
     0
176
     1
 40
1.0
176
     1
 40
1.0
176
     1
  0
VISUALSTYLE
  5
57DB
102
{ACAD_REACTORS
330
57C6
102
}
330
57C6
100
AcDbVisualStyle
  2
Shaded
 70
    27
177
     3
291
     0
 70
    58
 90
        2
176
     1
 90
        2
176
     1
 90
        1
176
     1
 90
        2
176
     1
 40
0.6
176
     1
 40
30.0
176
     1
 62
     7
176
     1
 90
        0
176
     1
 90
        4
176
     1
 62
     7
176
     1
 62
   257
176
     1
 90
        1
176
     1
 90
        1
176
     1
 40
1.0
176
     1
 90
        8
176
     1
 62
   257
176
     1
 40
1.0
176
     1
 90
        1
176
     1
 90
        6
176
     1
 90
        2
176
     1
 62
     8
176
     1
 90
        3
176
     1
 90
        0
176
     1
 90
        0
176
     1
290
     0
176
     1
 90
        5
176
     1
 40
0.0
176
     1
 90
        0
176
     1
290
     0
176
     1
290
     1
176
     1
290
     1
176
     1
290
     0
176
     1
290
     0
176
     1
290
     0
176
     1
290
     0
176
     1
290
     0
176
     1
290
     0
176
     1
 90
       50
176
     1
 40
0.0
176
     1
 40
1.0
176
     1
 90
        0
176
     1
 62
    18
176
     1
 90
       50
176
     1
 90
        3
176
     1
 62
     5
420
      255
176
     1
290
     0
176
     1
 90
       50
176
     1
 90
       50
176
     1
 90
       50
176
     1
290
     0
176
     1
 90
       50
176
     1
 62
   256
176
     0
 40
1.0
176
     0
 90
        2
176
     1
  1
strokes_ogs.tif
176
     1
290
     0
176
     1
 40
1.0
176
     1
 40
1.0
176
     1
  0
VISUALSTYLE
  5
57DA
102
{ACAD_REACTORS
330
57C6
102
}
330
57C6
100
AcDbVisualStyle
  2
Shaded with edges
 70
    26
177
     3
291
     0
 70
    58
 90
        2
176
     1
 90
        2
176
     1
 90
        1
176
     1
 90
        2
176
     1
 40
0.6
176
     1
 40
30.0
176
     1
 62
     7
176
     1
 90
        1
176
     1
 90
       10
176
     1
 62
     7
176
     1
 62
   257
176
     1
 90
        2
176
     1
 90
        1
176
     1
 40
1.0
176
     1
 90
        8
176
     1
 62
   257
176
     1
 40
1.0
176
     1
 90
        1
176
     1
 90
        6
176
     1
 90
        2
176
     1
 62
     7
176
     1
 90
        3
176
     1
 90
        0
176
     1
 90
        0
176
     1
290
     0
176
     1
 90
        5
176
     1
 40
0.0
176
     1
 90
        0
176
     1
290
     0
176
     1
290
     1
176
     1
290
     1
176
     1
290
     0
176
     1
290
     0
176
     1
290
     0
176
     1
290
     0
176
     1
290
     0
176
     1
290
     0
176
     1
 90
       50
176
     1
 40
0.0
176
     1
 40
1.0
176
     1
 90
        0
176
     1
 62
    18
176
     1
 90
       50
176
     1
 90
        3
176
     1
 62
     5
420
      255
176
     1
290
     0
176
     1
 90
       50
176
     1
 90
       50
176
     1
 90
       50
176
     1
290
     0
176
     1
 90
       50
176
     1
 62
   256
176
     0
 40
1.0
176
     0
 90
        2
176
     1
  1
strokes_ogs.tif
176
     1
290
     0
176
     1
 40
1.0
176
     1
 40
1.0
176
     1
  0
VISUALSTYLE
  5
57D7
102
{ACAD_REACTORS
330
57C6
102
}
330
57C6
100
AcDbVisualStyle
  2
Shades of Gray
 70
    23
177
     3
291
     0
 70
    58
 90
        2
176
     1
 90
        2
176
     1
 90
        3
176
     1
 90
        0
176
     1
 40
0.6
176
     1
 40
30.0
176
     1
 62
     7
176
     1
 90
        2
176
     1
 90
        2
176
     1
 62
     7
176
     1
 62
     7
176
     1
 90
        1
176
     1
 90
        1
176
     1
 40
40.0
176
     1
 90
        8
176
     1
 62
     7
176
     1
 40
1.0
176
     1
 90
        1
176
     1
 90
        6
176
     1
 90
        2
176
     1
 62
     7
176
     1
 90
        3
176
     1
 90
        0
176
     1
 90
        0
176
     1
290
     0
176
     1
 90
        1
176
     1
 40
0.0
176
     1
 90
        0
176
     1
290
     0
176
     1
290
     1
176
     1
290
     1
176
     1
290
     0
176
     1
290
     0
176
     1
290
     0
176
     1
290
     0
176
     1
290
     0
176
     1
290
     0
176
     1
 90
       50
176
     1
 40
0.0
176
     1
 40
1.0
176
     1
 90
        0
176
     1
 62
    18
176
     1
 90
       50
176
     1
 90
        3
176
     1
 62
     5
420
      255
176
     1
290
     0
176
     1
 90
       50
176
     1
 90
       50
176
     1
 90
       50
176
     1
290
     0
176
     1
 90
       50
176
     1
 62
   256
176
     0
 40
1.0
176
     0
 90
        2
176
     1
  1
strokes_ogs.tif
176
     1
290
     0
176
     1
 40
1.0
176
     1
 40
1.0
176
     1
  0
VISUALSTYLE
  5
57D8
102
{ACAD_REACTORS
330
57C6
102
}
330
57C6
100
AcDbVisualStyle
  2
Sketchy
 70
    24
177
     3
291
     0
 70
    58
 90
        1
176
     1
 90
        2
176
     1
 90
        2
176
     1
 90
        0
176
     1
 40
0.6
176
     1
 40
30.0
176
     1
 62
     7
176
     1
 90
        2
176
     1
 90
        2
176
     1
 62
     7
176
     1
 62
     7
176
     1
 90
        1
176
     1
 90
        1
176
     1
 40
40.0
176
     1
 90
       11
176
     1
 62
     7
176
     1
 40
1.0
176
     1
 90
        1
176
     1
 90
        6
176
     1
 90
        2
176
     1
 62
     7
176
     1
 90
        6
176
     1
 90
        0
176
     1
 90
        0
176
     1
290
     0
176
     1
 90
        1
176
     1
 40
0.0
176
     1
 90
        0
176
     1
290
     0
176
     1
290
     1
176
     1
290
     1
176
     1
290
     0
176
     1
290
     0
176
     1
290
     0
176
     1
290
     0
176
     1
290
     0
176
     1
290
     0
176
     1
 90
       50
176
     1
 40
0.0
176
     1
 40
1.0
176
     1
 90
        0
176
     1
 62
    18
176
     1
 90
       50
176
     1
 90
        3
176
     1
 62
     5
420
      255
176
     1
290
     0
176
     1
 90
       50
176
     1
 90
       50
176
     1
 90
       50
176
     1
290
     0
176
     1
 90
       50
176
     1
 62
   256
176
     0
 40
1.0
176
     0
 90
        2
176
     1
  1
strokes_ogs.tif
176
     1
290
     0
176
     1
 40
1.0
176
     1
 40
1.0
176
     1
  0
VISUALSTYLE
  5
57D3
102
{ACAD_REACTORS
330
57C6
102
}
330
57C6
100
AcDbVisualStyle
  2
Thicken
 70
    13
177
     3
291
     1
 70
    58
 90
        2
176
     1
 90
        2
176
     1
 90
        0
176
     1
 90
        0
176
     1
 40
0.6
176
     1
 40
30.0
176
     1
 62
     7
176
     1
 90
        1
176
     1
 90
        4
176
     1
 62
     7
176
     1
 62
   257
176
     1
 90
        1
176
     1
 90
        1
176
     1
 40
1.0
176
     1
 90
       12
176
     1
 62
     7
176
     1
 40
1.0
176
     1
 90
        1
176
     1
 90
        6
176
     1
 90
        2
176
     1
 62
     7
176
     1
 90
        5
176
     1
 90
        0
176
     1
 90
        0
176
     1
290
     0
176
     1
 90
        1
176
     1
 40
0.0
176
     1
 90
        0
176
     1
290
     0
176
     1
290
     1
176
     1
290
     1
176
     1
290
     0
176
     1
290
     0
176
     1
290
     0
176
     1
290
     0
176
     1
290
     0
176
     1
290
     0
176
     1
 90
       50
176
     1
 40
0.0
176
     1
 40
1.0
176
     1
 90
        0
176
     1
 62
    18
176
     1
 90
       50
176
     1
 90
        3
176
     1
 62
     5
420
      255
176
     1
290
     0
176
     1
 90
       50
176
     1
 90
       50
176
     1
 90
       50
176
     1
290
     0
176
     1
 90
       50
176
     1
 62
   256
176
     0
 40
1.0
176
     0
 90
        2
176
     1
  1
strokes_ogs.tif
176
     1
290
     0
176
     1
 40
1.0
176
     1
 40
1.0
176
     1
  0
VISUALSTYLE
  5
57CD
102
{ACAD_REACTORS
330
57C6
102
}
330
57C6
100
AcDbVisualStyle
  2
Wireframe
 70
     5
177
     3
291
     0
 70
    58
 90
        0
176
     1
 90
        2
176
     1
 90
        0
176
     1
 90
        0
176
     1
 40
0.6
176
     1
 40
30.0
176
     1
 62
     7
176
     1
 90
        1
176
     1
 90
        4
176
     1
 62
     7
176
     1
 62
   257
176
     1
 90
        1
176
     1
 90
        1
176
     1
 40
1.0
176
     1
 90
        0
176
     1
 62
   257
176
     1
 40
1.0
176
     1
 90
        1
176
     1
 90
        6
176
     1
 90
        2
176
     1
 62
     7
176
     1
 90
        3
176
     1
 90
        0
176
     1
 90
        0
176
     1
290
     0
176
     1
 90
        1
176
     1
 40
0.0
176
     1
 90
        0
176
     1
290
     0
176
     1
290
     1
176
     1
290
     1
176
     1
290
     0
176
     1
290
     0
176
     1
290
     0
176
     1
290
     0
176
     1
290
     0
176
     1
290
     0
176
     1
 90
       50
176
     1
 40
0.0
176
     1
 40
1.0
176
     1
 90
        0
176
     1
 62
    18
176
     1
 90
       50
176
     1
 90
        3
176
     1
 62
     5
420
      255
176
     1
290
     0
176
     1
 90
       50
176
     1
 90
       50
176
     1
 90
       50
176
     1
290
     0
176
     1
 90
       50
176
     1
 62
   256
176
     0
 40
1.0
176
     0
 90
        2
176
     1
  1
strokes_ogs.tif
176
     1
290
     0
176
     1
 40
1.0
176
     1
 40
1.0
176
     1
  0
VISUALSTYLE
  5
57D9
102
{ACAD_REACTORS
330
57C6
102
}
330
57C6
100
AcDbVisualStyle
  2
X-Ray
 70
    25
177
     3
291
     0
 70
    58
 90
        2
176
     1
 90
        2
176
     1
 90
        1
176
     1
 90
        1
176
     1
 40
0.5
176
     1
 40
30.0
176
     1
 62
     7
176
     1
 90
        1
176
     1
 90
        0
176
     1
 62
     7
176
     1
 62
   257
176
     1
 90
        1
176
     1
 90
        1
176
     1
 40
1.0
176
     1
 90
        8
176
     1
 62
     7
176
     1
 40
1.0
176
     1
 90
        1
176
     1
 90
        6
176
     1
 90
        2
176
     1
 62
     7
176
     1
 90
        3
176
     1
 90
        0
176
     1
 90
        0
176
     1
290
     0
176
     1
 90
       13
176
     1
 40
0.0
176
     1
 90
        0
176
     1
290
     0
176
     1
290
     1
176
     1
290
     1
176
     1
290
     0
176
     1
290
     0
176
     1
290
     0
176
     1
290
     0
176
     1
290
     0
176
     1
290
     0
176
     1
 90
       50
176
     1
 40
0.0
176
     1
 40
1.0
176
     1
 90
        0
176
     1
 62
    18
176
     1
 90
       50
176
     1
 90
        3
176
     1
 62
     5
420
      255
176
     1
290
     0
176
     1
 90
       50
176
     1
 90
       50
176
     1
 90
       50
176
     1
290
     0
176
     1
 90
       50
176
     1
 62
   256
176
     0
 40
1.0
176
     0
 90
        2
176
     1
  1
strokes_ogs.tif
176
     1
290
     0
176
     1
 40
1.0
176
     1
 40
1.0
176
     1
  0
DICTIONARYVAR
  5
587B
102
{ACAD_REACTORS
330
33
102
}
330
33
100
DictionaryVariables
280
     0
  1
1:1
  0
DICTIONARYVAR
  5
5878
102
{ACAD_REACTORS
330
33
102
}
330
33
100
DictionaryVariables
280
     0
  1
STANDARD
  0
DICTIONARYVAR
  5
5877
102
{ACAD_REACTORS
330
33
102
}
330
33
100
DictionaryVariables
280
     0
  1
STANDARD
  0
DICTIONARYVAR
  5
5879
102
{ACAD_REACTORS
330
33
102
}
330
33
100
DictionaryVariables
280
     0
  1
Metric50
  0
DICTIONARYVAR
  5
587A
102
{ACAD_REACTORS
330
33
102
}
330
33
100
DictionaryVariables
280
     0
  1
Metric50
  0
DICTIONARYVAR
  5
34
102
{ACAD_REACTORS
330
33
102
}
330
33
100
DictionaryVariables
280
     0
  1
0
  0
DICTIONARYVAR
  5
23F7
102
{ACAD_REACTORS
330
33
102
}
330
33
100
DictionaryVariables
280
     0
  1
1
  0
DICTIONARYVAR
  5
587C
102
{ACAD_REACTORS
330
33
102
}
330
33
100
DictionaryVariables
280
     0
  1
0
  0
DICTIONARYVAR
  5
D09C
102
{ACAD_REACTORS
330
33
102
}
330
33
100
DictionaryVariables
280
     0
  1
1
  0
DICTIONARYVAR
  5
D09D
102
{ACAD_REACTORS
330
33
102
}
330
33
100
DictionaryVariables
280
     0
  1
15
  0
DICTIONARYVAR
  5
D09B
102
{ACAD_REACTORS
330
33
102
}
330
33
100
DictionaryVariables
280
     0
  1
0
  0
DICTIONARYVAR
  5
D09A
102
{ACAD_REACTORS
330
33
102
}
330
33
100
DictionaryVariables
280
     0
  1
0
  0
DICTIONARYVAR
  5
1383
102
{ACAD_REACTORS
330
33
102
}
330
33
100
DictionaryVariables
280
     0
  1
96
  0
DICTIONARY
  5
D0A5
330
A70A
100
AcDbDictionary
280
     1
281
     1
  3
ACAD_XREC_ROUNDTRIP
360
D827
  0
DICTIONARY
  5
D0A1
330
57F9
100
AcDbDictionary
280
     1
281
     1
  3
ACAD_XREC_ROUNDTRIP
360
D825
  0
DICTIONARY
  5
57B7
330
57B6
100
AcDbDictionary
280
     1
281
     1
  3
BUMPTILE
360
57B9
  3
DIFFUSETILE
360
57B8
  3
OPACITYTILE
360
57BC
  3
REFLECTIONTILE
360
57BB
  3
REFRACTIONTILE
360
57BD
  3
SPECULARTILE
360
57BA
  0
DICTIONARY
  5
57AF
330
57AE
100
AcDbDictionary
280
     1
281
     1
  3
BUMPTILE
360
57B1
  3
DIFFUSETILE
360
57B0
  3
OPACITYTILE
360
57B4
  3
REFLECTIONTILE
360
57B3
  3
REFRACTIONTILE
360
57B5
  3
SPECULARTILE
360
57B2
  0
DICTIONARY
  5
57BF
330
57BE
100
AcDbDictionary
280
     1
281
     1
  3
BUMPTILE
360
57C1
  3
DIFFUSETILE
360
57C0
  3
OPACITYTILE
360
57C4
  3
REFLECTIONTILE
360
57C3
  3
REFRACTIONTILE
360
57C5
  3
SPECULARTILE
360
57C2
  0
DICTIONARY
  5
D0A3
330
A709
100
AcDbDictionary
280
     1
281
     1
  3
ACAD_XREC_ROUNDTRIP
360
D826
  0
DICTIONARY
  5
D09F
330
57F7
100
AcDbDictionary
280
     1
281
     1
  3
ACAD_XREC_ROUNDTRIP
360
D824
  0
DICTIONARY
  5
5822
330
57E1
100
AcDbDictionary
280
     1
281
     1
  3
ACAD_ROUNDTRIP_2008_TABLESTYLE_CELLSTYLEMAP
360
D823
  0
XRECORD
  5
D827
102
{ACAD_REACTORS
330
D0A5
102
}
330
D0A5
100
AcDbXrecord
280
     1
102
DISPLAYNAME
  1
Imperial24
102
FLAGS
 90
        0
  0
XRECORD
  5
D825
102
{ACAD_REACTORS
330
D0A1
102
}
330
D0A1
100
AcDbXrecord
280
     1
102
DISPLAYNAME
  1
Metric50
102
FLAGS
 90
        0
  0
XRECORD
  5
57B9
102
{ACAD_REACTORS
330
57B7
102
}
330
57B7
100
AcDbXrecord
280
     1
270
     1
271
     1
  0
XRECORD
  5
57B8
102
{ACAD_REACTORS
330
57B7
102
}
330
57B7
100
AcDbXrecord
280
     1
270
     1
271
     1
  0
XRECORD
  5
57BC
102
{ACAD_REACTORS
330
57B7
102
}
330
57B7
100
AcDbXrecord
280
     1
270
     1
271
     1
  0
XRECORD
  5
57BB
102
{ACAD_REACTORS
330
57B7
102
}
330
57B7
100
AcDbXrecord
280
     1
270
     1
271
     1
  0
XRECORD
  5
57BD
102
{ACAD_REACTORS
330
57B7
102
}
330
57B7
100
AcDbXrecord
280
     1
270
     1
271
     1
  0
XRECORD
  5
57BA
102
{ACAD_REACTORS
330
57B7
102
}
330
57B7
100
AcDbXrecord
280
     1
270
     1
271
     1
  0
XRECORD
  5
57B1
102
{ACAD_REACTORS
330
57AF
102
}
330
57AF
100
AcDbXrecord
280
     1
270
     1
271
     1
  0
XRECORD
  5
57B0
102
{ACAD_REACTORS
330
57AF
102
}
330
57AF
100
AcDbXrecord
280
     1
270
     1
271
     1
  0
XRECORD
  5
57B4
102
{ACAD_REACTORS
330
57AF
102
}
330
57AF
100
AcDbXrecord
280
     1
270
     1
271
     1
  0
XRECORD
  5
57B3
102
{ACAD_REACTORS
330
57AF
102
}
330
57AF
100
AcDbXrecord
280
     1
270
     1
271
     1
  0
XRECORD
  5
57B5
102
{ACAD_REACTORS
330
57AF
102
}
330
57AF
100
AcDbXrecord
280
     1
270
     1
271
     1
  0
XRECORD
  5
57B2
102
{ACAD_REACTORS
330
57AF
102
}
330
57AF
100
AcDbXrecord
280
     1
270
     1
271
     1
  0
XRECORD
  5
57C1
102
{ACAD_REACTORS
330
57BF
102
}
330
57BF
100
AcDbXrecord
280
     1
270
     1
271
     1
  0
XRECORD
  5
57C0
102
{ACAD_REACTORS
330
57BF
102
}
330
57BF
100
AcDbXrecord
280
     1
270
     1
271
     1
  0
XRECORD
  5
57C4
102
{ACAD_REACTORS
330
57BF
102
}
330
57BF
100
AcDbXrecord
280
     1
270
     1
271
     1
  0
XRECORD
  5
57C3
102
{ACAD_REACTORS
330
57BF
102
}
330
57BF
100
AcDbXrecord
280
     1
270
     1
271
     1
  0
XRECORD
  5
57C5
102
{ACAD_REACTORS
330
57BF
102
}
330
57BF
100
AcDbXrecord
280
     1
270
     1
271
     1
  0
XRECORD
  5
57C2
102
{ACAD_REACTORS
330
57BF
102
}
330
57BF
100
AcDbXrecord
280
     1
270
     1
271
     1
  0
XRECORD
  5
D826
102
{ACAD_REACTORS
330
D0A3
102
}
330
D0A3
100
AcDbXrecord
280
     1
102
DISPLAYNAME
  1
Imperial24
102
FLAGS
 90
        0
  0
XRECORD
  5
D824
102
{ACAD_REACTORS
330
D09F
102
}
330
D09F
100
AcDbXrecord
280
     1
102
DISPLAYNAME
  1
Metric50
102
FLAGS
 90
        0
  0
CELLSTYLEMAP
  5
D823
102
{ACAD_REACTORS
330
5822
102
}
330
5822
100
AcDbCellStyleMap
 90
        3
300
CELLSTYLE
  1
TABLEFORMAT_BEGIN
 90
        5
170
     1
 91
        0
 92
    32768
 62
   257
 93
        1
300
CONTENTFORMAT
  1
CONTENTFORMAT_BEGIN
 90
        0
 91
        0
 92
      512
 93
        0
300

 40
0.0
140
1.0
 94
        5
 62
     0
340
F
144
6.0
309
CONTENTFORMAT_END
171
     1
301
MARGIN
  1
CELLMARGIN_BEGIN
 40
1.5
 40
1.5
 40
1.5
 40
1.5
 40
0.18
 40
0.18
309
CELLMARGIN_END
 94
        6
 95
        1
302
GRIDFORMAT
  1
GRIDFORMAT_BEGIN
 90
        0
 91
        1
 62
     0
 92
       -2
340
0
 93
        0
 40
1.125
309
GRIDFORMAT_END
 95
        2
302
GRIDFORMAT
  1
GRIDFORMAT_BEGIN
 90
        0
 91
        1
 62
     0
 92
       -2
340
0
 93
        0
 40
1.125
309
GRIDFORMAT_END
 95
        4
302
GRIDFORMAT
  1
GRIDFORMAT_BEGIN
 90
        0
 91
        1
 62
     0
 92
       -2
340
0
 93
        0
 40
1.125
309
GRIDFORMAT_END
 95
        8
302
GRIDFORMAT
  1
GRIDFORMAT_BEGIN
 90
        0
 91
        1
 62
     0
 92
       -2
340
0
 93
        0
 40
1.125
309
GRIDFORMAT_END
 95
       16
302
GRIDFORMAT
  1
GRIDFORMAT_BEGIN
 90
        0
 91
        1
 62
     0
 92
       -2
340
0
 93
        0
 40
1.125
309
GRIDFORMAT_END
 95
       32
302
GRIDFORMAT
  1
GRIDFORMAT_BEGIN
 90
        0
 91
        1
 62
     0
 92
       -2
340
0
 93
        0
 40
1.125
309
GRIDFORMAT_END
309
TABLEFORMAT_END
  1
CELLSTYLE_BEGIN
 90
        1
 91
        1
300
_TITLE
309
CELLSTYLE_END
300
CELLSTYLE
  1
TABLEFORMAT_BEGIN
 90
        5
170
     1
 91
        0
 92
        0
 62
   257
 93
        1
300
CONTENTFORMAT
  1
CONTENTFORMAT_BEGIN
 90
        0
 91
        0
 92
      512
 93
        0
300

 40
0.0
140
1.0
 94
        5
 62
     0
340
F
144
4.5
309
CONTENTFORMAT_END
171
     1
301
MARGIN
  1
CELLMARGIN_BEGIN
 40
1.5
 40
1.5
 40
1.5
 40
1.5
 40
0.18
 40
0.18
309
CELLMARGIN_END
 94
        6
 95
        1
302
GRIDFORMAT
  1
GRIDFORMAT_BEGIN
 90
        0
 91
        1
 62
     0
 92
       -2
340
0
 93
        0
 40
1.125
309
GRIDFORMAT_END
 95
        2
302
GRIDFORMAT
  1
GRIDFORMAT_BEGIN
 90
        0
 91
        1
 62
     0
 92
       -2
340
0
 93
        0
 40
1.125
309
GRIDFORMAT_END
 95
        4
302
GRIDFORMAT
  1
GRIDFORMAT_BEGIN
 90
        0
 91
        1
 62
     0
 92
       -2
340
0
 93
        0
 40
1.125
309
GRIDFORMAT_END
 95
        8
302
GRIDFORMAT
  1
GRIDFORMAT_BEGIN
 90
        0
 91
        1
 62
     0
 92
       -2
340
0
 93
        0
 40
1.125
309
GRIDFORMAT_END
 95
       16
302
GRIDFORMAT
  1
GRIDFORMAT_BEGIN
 90
        0
 91
        1
 62
     0
 92
       -2
340
0
 93
        0
 40
1.125
309
GRIDFORMAT_END
 95
       32
302
GRIDFORMAT
  1
GRIDFORMAT_BEGIN
 90
        0
 91
        1
 62
     0
 92
       -2
340
0
 93
        0
 40
1.125
309
GRIDFORMAT_END
309
TABLEFORMAT_END
  1
CELLSTYLE_BEGIN
 90
        2
 91
        1
300
_HEADER
309
CELLSTYLE_END
300
CELLSTYLE
  1
TABLEFORMAT_BEGIN
 90
        5
170
     1
 91
        0
 92
        0
 62
   257
 93
        1
300
CONTENTFORMAT
  1
CONTENTFORMAT_BEGIN
 90
        0
 91
        0
 92
      512
 93
        0
300

 40
0.0
140
1.0
 94
        2
 62
     0
340
F
144
4.5
309
CONTENTFORMAT_END
171
     1
301
MARGIN
  1
CELLMARGIN_BEGIN
 40
1.5
 40
1.5
 40
1.5
 40
1.5
 40
0.18
 40
0.18
309
CELLMARGIN_END
 94
        6
 95
        1
302
GRIDFORMAT
  1
GRIDFORMAT_BEGIN
 90
        0
 91
        1
 62
     0
 92
       -2
340
0
 93
        0
 40
1.125
309
GRIDFORMAT_END
 95
        2
302
GRIDFORMAT
  1
GRIDFORMAT_BEGIN
 90
        0
 91
        1
 62
     0
 92
       -2
340
0
 93
        0
 40
1.125
309
GRIDFORMAT_END
 95
        4
302
GRIDFORMAT
  1
GRIDFORMAT_BEGIN
 90
        0
 91
        1
 62
     0
 92
       -2
340
0
 93
        0
 40
1.125
309
GRIDFORMAT_END
 95
        8
302
GRIDFORMAT
  1
GRIDFORMAT_BEGIN
 90
        0
 91
        1
 62
     0
 92
       -2
340
0
 93
        0
 40
1.125
309
GRIDFORMAT_END
 95
       16
302
GRIDFORMAT
  1
GRIDFORMAT_BEGIN
 90
        0
 91
        1
 62
     0
 92
       -2
340
0
 93
        0
 40
1.125
309
GRIDFORMAT_END
 95
       32
302
GRIDFORMAT
  1
GRIDFORMAT_BEGIN
 90
        0
 91
        1
 62
     0
 92
       -2
340
0
 93
        0
 40
1.125
309
GRIDFORMAT_END
309
TABLEFORMAT_END
  1
CELLSTYLE_BEGIN
 90
        3
 91
        2
300
_DATA
309
CELLSTYLE_END
  0
ENDSEC
  0
SECTION
  2
ACDSDATA
 70
     2
 71
     6
  0
ACDSSCHEMA
 90
        0
  1
AcDb_Thumbnail_Schema
  2
AcDbDs::ID
280
    10
 91
        8
  2
Thumbnail_Data
280
    15
 91
        0
101
ACDSRECORD
 95
        0
 90
        1
  2
AcDbDs::TreatedAsObjectData
280
     1
291
     1
101
ACDSRECORD
 95
        0
 90
        2
  2
AcDbDs::Legacy
280
     1
291
     1
101
ACDSRECORD
  1
AcDbDs::ID
 90
        3
  2
AcDs:Indexable
280
     1
291
     1
101
ACDSRECORD
  1
AcDbDs::ID
 90
        4
  2
AcDbDs::HandleAttribute
280
     7
282
     1
  0
ACDSSCHEMA
 90
        1
  1
AcDbDs::TreatedAsObjectDataSchema
  2
AcDbDs::TreatedAsObjectData
280
     1
 91
        0
  0
ACDSSCHEMA
 90
        2
  1
AcDbDs::LegacySchema
  2
AcDbDs::Legacy
280
     1
 91
        0
  0
ACDSSCHEMA
 90
        3
  1
AcDbDs::IndexedPropertySchema
  2
AcDs:Indexable
280
     1
 91
        0
  0
ACDSSCHEMA
 90
        4
  1
AcDbDs::HandleAttributeSchema
  2
AcDbDs::HandleAttribute
280
     7
 91
        1
284
     1
  0
ACDSRECORD
 90
        0
  2
AcDbDs::ID
280
    10
320
760
  2
Thumbnail_Data
280
    15
 94
     1915
310
89504E470D0A1A0A0000000D4948445200000100000000890803000000F46416F000000300504C5445000000000000C8C8C80000000000000000000000000000000000000000000000000000330000660000990000CC0000FF0033000033330033660033990033CC0033FF0066000066330066660066990066CC0066FF0099
310
000099330099660099990099CC0099FF00CC0000CC3300CC6600CC9900CCCC00CCFF00FF0000FF3300FF6600FF9900FFCC00FFFF3300003300333300663300993300CC3300FF3333003333333333663333993333CC3333FF3366003366333366663366993366CC3366FF3399003399333399663399993399CC3399FF33CC00
310
33CC3333CC6633CC9933CCCC33CCFF33FF0033FF3333FF6633FF9933FFCC33FFFF6600006600336600666600996600CC6600FF6633006633336633666633996633CC6633FF6666006666336666666666996666CC6666FF6699006699336699666699996699CC6699FF66CC0066CC3366CC6666CC9966CCCC66CCFF66FF0066
310
FF3366FF6666FF9966FFCC66FFFF9900009900339900669900999900CC9900FF9933009933339933669933999933CC9933FF9966009966339966669966999966CC9966FF9999009999339999669999999999CC9999FF99CC0099CC3399CC6699CC9999CCCC99CCFF99FF0099FF3399FF6699FF9999FFCC99FFFFCC0000CC00
310
33CC0066CC0099CC00CCCC00FFCC3300CC3333CC3366CC3399CC33CCCC33FFCC6600CC6633CC6666CC6699CC66CCCC66FFCC9900CC9933CC9966CC9999CC99CCCC99FFCCCC00CCCC33CCCC66CCCC99CCCCCCCCCCFFCCFF00CCFF33CCFF66CCFF99CCFFCCCCFFFFFF0000FF0033FF0066FF0099FF00CCFF00FFFF3300FF3333
310
FF3366FF3399FF33CCFF33FFFF6600FF6633FF6666FF6699FF66CCFF66FFFF9900FF9933FF9966FF9999FF99CCFF99FFFFCC00FFCC33FFCC66FFCC99FFCCCCFFCCFFFFFF00FFFF33FFFF66FFFF99FFFFCCFFFFFF0000000D0D0D1A1A1A2828283535354343435050505D5D5D6B6B6B787878868686939393A1A1A1AEAEAEBB
310
BBBBC9C9C9D6D6D6E4E4E4F1F1F1FFFFFF00000000000000000000000000000000000000000000000000000000000008F1915C000002EC4944415478DAED9DC96EC3300C44F9FFFF3BF7A2682C53ABADB4689299210AF4E0F830CF2445915E226C2F3588CBC7F79FB2FCF44F55BE2A8246B31A82815E2904B84B45E6F22B21
310
588BA447702D10DAF2B99D007FC989F4F2F322D8954486E0193944089E954282E037321810E0A5A7BF8503E04527BF8F07FC26078023049E5F05C09203F05FE7BD6D12DC7382F26B1E003B0872BB906A19C4AE7C3600779CA0ED965200C07D04989FFAC900701341FD3B2600B5B45BF2830BC0F524A8F312360017A9A04FFD
310
7C001671D0073F2580591CD42B3F358091EE467E90036811B4F2831F409D0D7B320A00525218ED1B150074DBDD9C28253CA0AE0D6496C1AACC2F02DB2429930330DCF119800118800118005D47681700C0D513DC04F08340DC03A40100844DD1BB00502EBE2400818E5096D80F8E4AF07376858BFE2900900278DCED8146E2
310
2004580B2154CA0A915521C404E070FCD4FF79947AD34208209B0EA7DC17A9D49B7840F9355308A002D07B40EA0A83743A8C94DF4E06C72C3490E5934E87AB7D4E0300E771D23AE0DCE58C96C17280B7103A054E0104692598A69ED5351E8400A5073C16F59202E34CF1480B45E412902D0472E8C751E69C004AE1C30AA0AD
310
04EB65F0384E0CA0D9053695E0B9001203A84B1C347B01010F385D7D321DAE1D8217C06A19142884D6758004802ACA1380D426510400E4FB49E500882C836B0F90062051095E854068878001188001188001507784F601F04E876F01E01A8D45F43DC12580EE79828F0730697A4D3D80F4050AF73D6070FAE70388E85A1E03
310
0000D90B14468F85AE4663C0EC5C2204EB9E209BFC318209004EF95D2CAF9320A3FCCE09C6D361AADCB746309C0E135FFEC99258F504F9E50F92E1E64B660853C1E85E61766B1E145E1CE345304D0B2162C3CD8ED6371680EE06E110B31A80E0574690DE19DA9481321E70DC27C5D1FB7B2A04AA8DA1740ED00510066000AA
310
00765F374BED03B2DF9B43DF0AB6D96C369BCD66B3D96C369BCD66E3335C98011880011880EDFFEC0BC47EBBF8D5E7523B0000000049454E44AE426082D745DDAAAF652081617CEC9900A6869610B4EBF58B81323B55EE390678F52B71B09E2B8A9003C67A5F69A9E12586D9D238008C9B9CAD5D402C00DDA606E35E8066DC
310
631606C0A35FD1FC6A44F1FFD12EFF271704B8D929FC39044FAF87E8EA20F766B8F66FF3235496EEED7F880E4C95E0D6C728898D9CE6202DC1D14C47A92957BB64394C6F2CF9139EB1DC293EDF69927C2A4878C436424C66FC471C24BDD340D30FD7CB8320F90D575A72F7CBCACACACACACACACACACACACACACACACACACACA
310
CA4C86E330518CE78C21C64C33FA73460E37AEDDF2382E0C26F71FC0F108E8DFD3088516E796D620371878B98CF3960B0780E3497A2782F3A26102E0DC8F7DBD230680AEC5CE76EC157022E85F782A007708D02B6BE2EC995BEC8AC0B463963F97B9B55A5C0A9AC4FFDA0A4001280005A0EC17F603D2ED74BC1E8C29800000
310
000049454E44AE426082
  0
ENDSEC
  0
EOF
