  0
SECTION
  2
HEADER
  9
$ACADVER
  1
AC1027
  9
$ACADMAINTVER
 70
    55
  9
$DWGCODEPAGE
  3
ANSI_932
  9
$LASTSAVEDBY
  1
User
  9
$REQUIREDVERSIONS
160
                 0
  9
$INSBASE
 10
0.0
 20
0.0
 30
0.0
  9
$EXTMIN
 10
-117.0034781622274
 20
-11.5653069391443
 30
-0.0015258207003583
  9
$EXTMAX
 10
267.9666145704298
 20
171.7484441492106
 30
0.0000000349246037
  9
$LIMMIN
 10
0.0
 20
0.0
  9
$LIMMAX
 10
420.0
 20
297.0
  9
$ORTHOMODE
 70
     0
  9
$REGENMODE
 70
     1
  9
$FILLMODE
 70
     1
  9
$QTEXTMODE
 70
     0
  9
$MIRRTEXT
 70
     0
  9
$LTSCALE
 40
0.75
  9
$ATTMODE
 70
     1
  9
$TEXTSIZE
 40
3.5
  9
$TRACEWID
 40
1.0
  9
$TEXTSTYLE
  7
Standard
  9
$CLAYER
  8
0
  9
$CELTYPE
  6
ByLayer
  9
$CECOLOR
 62
   256
  9
$CELTSCALE
 40
1.0
  9
$DISPSILH
 70
     0
  9
$DIMSCALE
 40
1.0
  9
$DIMASZ
 40
3.5
  9
$DIMEXO
 40
2.0
  9
$DIMDLI
 40
9.899494936611665
  9
$DIMRND
 40
0.0
  9
$DIMDLE
 40
0.0
  9
$DIMEXE
 40
2.0
  9
$DIMTP
 40
0.1
  9
$DIMTM
 40
0.1000000001
  9
$DIMTXT
 40
3.5
  9
$DIMCEN
 40
0.0
  9
$DIMTSZ
 40
0.0
  9
$DIMTOL
 70
     0
  9
$DIMLIM
 70
     0
  9
$DIMTIH
 70
     0
  9
$DIMTOH
 70
     0
  9
$DIMSE1
 70
     0
  9
$DIMSE2
 70
     0
  9
$DIMTAD
 70
     1
  9
$DIMZIN
 70
    12
  9
$DIMBLK
  1

  9
$DIMASO
 70
     1
  9
$DIMSHO
 70
     1
  9
$DIMPOST
  1

  9
$DIMAPOST
  1
in
  9
$DIMALT
 70
     0
  9
$DIMALTD
 70
     4
  9
$DIMALTF
 40
0.0393701
  9
$DIMLFAC
 40
1.0
  9
$DIMTOFL
 70
     1
  9
$DIMTVP
 40
0.0
  9
$DIMTIX
 70
     0
  9
$DIMSOXD
 70
     0
  9
$DIMSAH
 70
     0
  9
$DIMBLK1
  1

  9
$DIMBLK2
  1

  9
$DIMSTYLE
  2
ISO-25
  9
$DIMCLRD
 70
   256
  9
$DIMCLRE
 70
   256
  9
$DIMCLRT
 70
   256
  9
$DIMTFAC
 40
0.7140000000000001
  9
$DIMGAP
 40
1.5
  9
$DIMJUST
 70
     0
  9
$DIMSD1
 70
     0
  9
$DIMSD2
 70
     0
  9
$DIMTOLJ
 70
     0
  9
$DIMTZIN
 70
    12
  9
$DIMALTZ
 70
    12
  9
$DIMALTTZ
 70
    12
  9
$DIMUPT
 70
     0
  9
$DIMDEC
 70
     2
  9
$DIMTDEC
 70
     2
  9
$DIMALTU
 70
     2
  9
$DIMALTTD
 70
     4
  9
$DIMTXSTY
  7
Standard
  9
$DIMAUNIT
 70
     0
  9
$DIMADEC
 70
     2
  9
$DIMALTRND
 40
0.0
  9
$DIMAZIN
 70
     3
  9
$DIMDSEP
 70
    46
  9
$DIMATFIT
 70
     3
  9
$DIMFRAC
 70
     0
  9
$DIMLDRBLK
  1

  9
$DIMLUNIT
 70
     2
  9
$DIMLWD
 70
    -2
  9
$DIMLWE
 70
    -2
  9
$DIMTMOVE
 70
     0
  9
$DIMFXL
 40
1.0
  9
$DIMFXLON
 70
     0
  9
$DIMJOGANG
 40
0.7853981633974483
  9
$DIMTFILL
 70
     0
  9
$DIMTFILLCLR
 70
     0
  9
$DIMARCSYM
 70
     0
  9
$DIMLTYPE
  6

  9
$DIMLTEX1
  6

  9
$DIMLTEX2
  6

  9
$DIMTXTDIRECTION
 70
     0
  9
$LUNITS
 70
     2
  9
$LUPREC
 70
     4
  9
$SKETCHINC
 40
1.0
  9
$FILLETRAD
 40
0.0
  9
$AUNITS
 70
     0
  9
$AUPREC
 70
     0
  9
$MENU
  1
.
  9
$ELEVATION
 40
0.0
  9
$PELEVATION
 40
0.0
  9
$THICKNESS
 40
0.0
  9
$LIMCHECK
 70
     0
  9
$CHAMFERA
 40
0.0
  9
$CHAMFERB
 40
0.0
  9
$CHAMFERC
 40
0.0
  9
$CHAMFERD
 40
0.0
  9
$SKPOLY
 70
     0
  9
$TDCREATE
 40
2459249.566227442
  9
$TDUCREATE
 40
2459249.191227442
  9
$TDUPDATE
 40
2459249.567456296
  9
$TDUUPDATE
 40
2459249.192456296
  9
$TDINDWG
 40
0.0012120370
  9
$TDUSRTIMER
 40
0.0012120370
  9
$USRTIMER
 70
     1
  9
$ANGBASE
 50
0.0
  9
$ANGDIR
 70
     0
  9
$PDMODE
 70
     0
  9
$PDSIZE
 40
0.0
  9
$PLINEWID
 40
0.0
  9
$SPLFRAME
 70
     0
  9
$SPLINETYPE
 70
     6
  9
$SPLINESEGS
 70
     8
  9
$HANDSEED
  5
247
  9
$SURFTAB1
 70
     6
  9
$SURFTAB2
 70
     6
  9
$SURFTYPE
 70
     6
  9
$SURFU
 70
     6
  9
$SURFV
 70
     6
  9
$UCSBASE
  2

  9
$UCSNAME
  2

  9
$UCSORG
 10
0.0
 20
0.0
 30
0.0
  9
$UCSXDIR
 10
1.0
 20
0.0
 30
0.0
  9
$UCSYDIR
 10
0.0
 20
1.0
 30
0.0
  9
$UCSORTHOREF
  2

  9
$UCSORTHOVIEW
 70
     0
  9
$UCSORGTOP
 10
0.0
 20
0.0
 30
0.0
  9
$UCSORGBOTTOM
 10
0.0
 20
0.0
 30
0.0
  9
$UCSORGLEFT
 10
0.0
 20
0.0
 30
0.0
  9
$UCSORGRIGHT
 10
0.0
 20
0.0
 30
0.0
  9
$UCSORGFRONT
 10
0.0
 20
0.0
 30
0.0
  9
$UCSORGBACK
 10
0.0
 20
0.0
 30
0.0
  9
$PUCSBASE
  2

  9
$PUCSNAME
  2

  9
$PUCSORG
 10
0.0
 20
0.0
 30
0.0
  9
$PUCSXDIR
 10
1.0
 20
0.0
 30
0.0
  9
$PUCSYDIR
 10
0.0
 20
1.0
 30
0.0
  9
$PUCSORTHOREF
  2

  9
$PUCSORTHOVIEW
 70
     0
  9
$PUCSORGTOP
 10
0.0
 20
0.0
 30
0.0
  9
$PUCSORGBOTTOM
 10
0.0
 20
0.0
 30
0.0
  9
$PUCSORGLEFT
 10
0.0
 20
0.0
 30
0.0
  9
$PUCSORGRIGHT
 10
0.0
 20
0.0
 30
0.0
  9
$PUCSORGFRONT
 10
0.0
 20
0.0
 30
0.0
  9
$PUCSORGBACK
 10
0.0
 20
0.0
 30
0.0
  9
$USERI1
 70
     0
  9
$USERI2
 70
     0
  9
$USERI3
 70
     0
  9
$USERI4
 70
     0
  9
$USERI5
 70
     0
  9
$USERR1
 40
0.0
  9
$USERR2
 40
0.0
  9
$USERR3
 40
0.0
  9
$USERR4
 40
0.0
  9
$USERR5
 40
0.0
  9
$WORLDVIEW
 70
     1
  9
$SHADEDGE
 70
     3
  9
$SHADEDIF
 70
    70
  9
$TILEMODE
 70
     1
  9
$MAXACTVP
 70
    64
  9
$PINSBASE
 10
0.0
 20
0.0
 30
0.0
  9
$PLIMCHECK
 70
     0
  9
$PEXTMIN
 10
1.000000000000000E+20
 20
1.000000000000000E+20
 30
1.000000000000000E+20
  9
$PEXTMAX
 10
-1.000000000000000E+20
 20
-1.000000000000000E+20
 30
-1.000000000000000E+20
  9
$PLIMMIN
 10
0.0
 20
0.0
  9
$PLIMMAX
 10
12.0
 20
9.0
  9
$UNITMODE
 70
     0
  9
$VISRETAIN
 70
     1
  9
$PLINEGEN
 70
     0
  9
$PSLTSCALE
 70
     1
  9
$TREEDEPTH
 70
  3020
  9
$CMLSTYLE
  2
Standard
  9
$CMLJUST
 70
     0
  9
$CMLSCALE
 40
20.0
  9
$PROXYGRAPHICS
 70
     1
  9
$MEASUREMENT
 70
     1
  9
$CELWEIGHT
370
    -1
  9
$ENDCAPS
280
     0
  9
$JOINSTYLE
280
     0
  9
$LWDISPLAY
290
     0
  9
$INSUNITS
 70
     4
  9
$HYPERLINKBASE
  1

  9
$STYLESHEET
  1

  9
$XEDIT
290
     1
  9
$CEPSNTYPE
380
     0
  9
$PSTYLEMODE
290
     1
  9
$FINGERPRINTGUID
  2
{445573A8-21B5-4C67-9079-BA913865F7FB}
  9
$VERSIONGUID
  2
{B532F13F-359F-4845-BD97-03C8F0317F7E}
  9
$EXTNAMES
290
     1
  9
$PSVPSCALE
 40
0.0
  9
$OLESTARTUP
290
     0
  9
$SORTENTS
280
   127
  9
$INDEXCTL
280
     0
  9
$HIDETEXT
280
     1
  9
$XCLIPFRAME
280
     0
  9
$HALOGAP
280
     0
  9
$OBSCOLOR
 70
   257
  9
$OBSLTYPE
280
     0
  9
$INTERSECTIONDISPLAY
280
     0
  9
$INTERSECTIONCOLOR
 70
   257
  9
$DIMASSOC
280
     2
  9
$PROJECTNAME
  1

  9
$CAMERADISPLAY
290
     0
  9
$LENSLENGTH
 40
50.0
  9
$CAMERAHEIGHT
 40
0.0
  9
$STEPSPERSEC
 40
2.0
  9
$STEPSIZE
 40
6.0
  9
$3DDWFPREC
 40
2.0
  9
$PSOLWIDTH
 40
5.0
  9
$PSOLHEIGHT
 40
80.0
  9
$LOFTANG1
 40
1.570796326794896
  9
$LOFTANG2
 40
1.570796326794896
  9
$LOFTMAG1
 40
0.0
  9
$LOFTMAG2
 40
0.0
  9
$LOFTPARAM
 70
     7
  9
$LOFTNORMALS
280
     1
  9
$LATITUDE
 40
37.795
  9
$LONGITUDE
 40
-122.394
  9
$NORTHDIRECTION
 40
0.0
  9
$TIMEZONE
 70
 -8000
  9
$LIGHTGLYPHDISPLAY
280
     1
  9
$TILEMODELIGHTSYNCH
280
     1
  9
$CMATERIAL
347
11
  9
$SOLIDHIST
280
     0
  9
$SHOWHIST
280
     1
  9
$DWFFRAME
280
     2
  9
$DGNFRAME
280
     0
  9
$REALWORLDSCALE
290
     1
  9
$INTERFERECOLOR
 62
     1
  9
$INTERFEREOBJVS
345
33
  9
$INTERFEREVPVS
346
30
  9
$CSHADOW
280
     0
  9
$SHADOWPLANELOCATION
 40
0.0
  0
ENDSEC
  0
SECTION
  2
CLASSES
  0
CLASS
  1
ACDBDICTIONARYWDFLT
  2
AcDbDictionaryWithDefault
  3
ObjectDBX Classes
 90
        0
 91
        1
280
     0
281
     0
  0
CLASS
  1
MATERIAL
  2
AcDbMaterial
  3
ObjectDBX Classes
 90
     1153
 91
        3
280
     0
281
     0
  0
CLASS
  1
VISUALSTYLE
  2
AcDbVisualStyle
  3
ObjectDBX Classes
 90
     4095
 91
       24
280
     0
281
     0
  0
CLASS
  1
SCALE
  2
AcDbScale
  3
ObjectDBX Classes
 90
     1153
 91
       17
280
     0
281
     0
  0
CLASS
  1
TABLESTYLE
  2
AcDbTableStyle
  3
ObjectDBX Classes
 90
     4095
 91
        1
280
     0
281
     0
  0
CLASS
  1
MLEADERSTYLE
  2
AcDbMLeaderStyle
  3
ACDB_MLEADERSTYLE_CLASS
 90
     4095
 91
        1
280
     0
281
     0
  0
CLASS
  1
ACDBSECTIONVIEWSTYLE
  2
AcDbSectionViewStyle
  3
ObjectDBX Classes
 90
     1025
 91
        2
280
     0
281
     0
  0
CLASS
  1
ACDBDETAILVIEWSTYLE
  2
AcDbDetailViewStyle
  3
ObjectDBX Classes
 90
     1025
 91
        2
280
     0
281
     0
  0
CLASS
  1
SORTENTSTABLE
  2
AcDbSortentsTable
  3
ObjectDBX Classes
 90
        0
 91
        2
280
     0
281
     0
  0
CLASS
  1
DICTIONARYVAR
  2
AcDbDictionaryVar
  3
ObjectDBX Classes
 90
        0
 91
        6
280
     0
281
     0
  0
CLASS
  1
CELLSTYLEMAP
  2
AcDbCellStyleMap
  3
ObjectDBX Classes
 90
     1152
 91
        1
280
     0
281
     0
  0
ENDSEC
  0
SECTION
  2
TABLES
  0
TABLE
  2
VPORT
  5
8
330
0
100
AcDbSymbolTable
 70
     1
  0
VPORT
  5
57
330
8
100
AcDbSymbolTableRecord
100
AcDbViewportTableRecord
  2
*Active
 70
     0
 10
0.0
 20
0.0
 11
1.0
 21
1.0
 12
75.48156820410117
 22
80.09156860503315
 13
0.0
 23
0.0
 14
0.5
 24
0.5
 15
0.5
 25
0.5
 16
0.0
 26
0.0
 36
1.0
 17
0.0
 27
0.0
 37
0.0
 40
207.1870480590613
 41
1.865577889447236
 42
50.0
 43
0.0
 44
0.0
 50
0.0
 51
0.0
 71
     0
 72
 20000
 73
     1
 74
     0
 75
     0
 76
     0
 77
     0
 78
     0
281
     0
 65
     1
110
0.0
120
0.0
130
0.0
111
1.0
121
0.0
131
0.0
112
0.0
122
1.0
132
0.0
 79
     0
146
0.0
348
2F
 60
     3
 61
     5
292
     1
282
     1
141
0.0
142
0.0
 63
   250
421
  3355443
1001
ACAD_NAV_VCDISPLAY
1070
     3
  0
ENDTAB
  0
TABLE
  2
LTYPE
  5
5
330
0
100
AcDbSymbolTable
 70
     2
  0
LTYPE
  5
5B
330
5
100
AcDbSymbolTableRecord
100
AcDbLinetypeTableRecord
  2
ByBlock
 70
     0
  3

 72
    65
 73
     0
 40
0.0
  0
LTYPE
  5
5C
330
5
100
AcDbSymbolTableRecord
100
AcDbLinetypeTableRecord
  2
ByLayer
 70
     0
  3

 72
    65
 73
     0
 40
0.0
  0
LTYPE
  5
5D
330
5
100
AcDbSymbolTableRecord
100
AcDbLinetypeTableRecord
  2
Continuous
 70
     0
  3
Solid line
 72
    65
 73
     0
 40
0.0
  0
ENDTAB
  0
TABLE
  2
LAYER
  5
2
102
{ACAD_XDICTIONARY
360
216
102
}
330
0
100
AcDbSymbolTable
 70
     7
  0
LAYER
  5
54
330
2
100
AcDbSymbolTableRecord
100
AcDbLayerTableRecord
  2
0
 70
     0
 62
     7
  6
Continuous
370
    -3
390
F
347
21
348
0
1001
AcAecLayerStandard
1000

1000

  0
LAYER
  5
79
330
2
100
AcDbSymbolTableRecord
100
AcDbLayerTableRecord
  2
Defpoints
 70
     0
 62
     7
  6
Continuous
290
     0
370
    -3
390
F
347
21
348
0
1001
AcAecLayerStandard
1000

1000

  0
LAYER
  5
88
330
2
100
AcDbSymbolTableRecord
100
AcDbLayerTableRecord
  2
可視
 70
     0
 62
     7
  6
Continuous
370
    50
390
F
347
21
348
0
  0
LAYER
  5
AA
330
2
100
AcDbSymbolTableRecord
100
AcDbLayerTableRecord
  2
細線
 70
     0
 62
     7
  6
Continuous
370
    35
390
F
347
21
348
0
  0
LAYER
  5
F5
330
2
100
AcDbSymbolTableRecord
100
AcDbLayerTableRecord
  2
Border
 70
     0
 62
     7
  6
Continuous
370
    25
390
F
347
21
348
0
1001
AcAecLayerStandard
1000

1000

1001
AcCmTransparency
1071
        0
  0
LAYER
  5
13E
330
2
100
AcDbSymbolTableRecord
100
AcDbLayerTableRecord
  2
TitleBlock
 70
     0
 62
     7
  6
Continuous
370
    35
390
F
347
21
348
0
1001
AcAecLayerStandard
1000

1000

1001
AcCmTransparency
1071
        0
  0
LAYER
  5
213
102
{ACAD_XDICTIONARY
360
214
102
}
330
2
100
AcDbSymbolTableRecord
100
AcDbLayerTableRecord
  2
7：文字
 70
     0
 62
     2
  6
Continuous
370
    -3
390
F
347
21
348
0
  0
ENDTAB
  0
TABLE
  2
STYLE
  5
3
330
0
100
AcDbSymbolTable
 70
     3
  0
STYLE
  5
55
330
3
100
AcDbSymbolTableRecord
100
AcDbTextStyleTableRecord
  2
Standard
 70
     0
 40
0.0
 41
1.0
 50
0.0
 71
     0
 42
3.5
  3
arial.ttf
  4

1001
ACAD
1000
Arial
1071
       34
  0
STYLE
  5
5A
330
3
100
AcDbSymbolTableRecord
100
AcDbTextStyleTableRecord
  2
Annotative
 70
     0
 40
0.0
 41
1.0
 50
0.0
 71
     0
 42
0.2
  3
txt
  4

1001
AcadAnnotative
1000
AnnotativeData
1002
{
1070
     1
1070
     1
1002
}
  0
STYLE
  5
7A
330
3
100
AcDbSymbolTableRecord
100
AcDbTextStyleTableRecord
  2
FusionTitle
 70
     0
 40
0.0
 41
1.0
 50
0.0
 71
     0
 42
2.5
  3
arial.ttf
  4

1001
ACAD
1000
Arial
1071
       34
  0
ENDTAB
  0
TABLE
  2
VIEW
  5
6
330
0
100
AcDbSymbolTable
 70
     0
  0
ENDTAB
  0
TABLE
  2
UCS
  5
7
330
0
100
AcDbSymbolTable
 70
     0
  0
ENDTAB
  0
TABLE
  2
APPID
  5
9
330
0
100
AcDbSymbolTable
 70
    13
  0
APPID
  5
56
330
9
100
AcDbSymbolTableRecord
100
AcDbRegAppTableRecord
  2
ACAD
 70
     0
  0
APPID
  5
5E
330
9
100
AcDbSymbolTableRecord
100
AcDbRegAppTableRecord
  2
AcadAnnotative
 70
     0
  0
APPID
  5
78
330
9
100
AcDbSymbolTableRecord
100
AcDbRegAppTableRecord
  2
ACAD_PSEXT
 70
     0
  0
APPID
  5
7C
330
9
100
AcDbSymbolTableRecord
100
AcDbRegAppTableRecord
  2
ACAD_DSTYLE_DIMJAG
 70
     0
  0
APPID
  5
7D
330
9
100
AcDbSymbolTableRecord
100
AcDbRegAppTableRecord
  2
ACAD_DSTYLE_DIMTALN
 70
     0
  0
APPID
  5
80
330
9
100
AcDbSymbolTableRecord
100
AcDbRegAppTableRecord
  2
ACAD_DSTYLE_DIMBREAK
 70
     0
  0
APPID
  5
F6
330
9
100
AcDbSymbolTableRecord
100
AcDbRegAppTableRecord
  2
AcAecLayerStandard
 70
     0
  0
APPID
  5
F7
330
9
100
AcDbSymbolTableRecord
100
AcDbRegAppTableRecord
  2
AcCmTransparency
 70
     0
  0
APPID
  5
13C
330
9
100
AcDbSymbolTableRecord
100
AcDbRegAppTableRecord
  2
AcDbDynamicBlockGUID
 70
     0
  0
APPID
  5
179
330
9
100
AcDbSymbolTableRecord
100
AcDbRegAppTableRecord
  2
FusionTitleBlock
 70
     0
  0
APPID
  5
1E7
330
9
100
AcDbSymbolTableRecord
100
AcDbRegAppTableRecord
  2
AcadAnnoPO
 70
     0
  0
APPID
  5
215
330
9
100
AcDbSymbolTableRecord
100
AcDbRegAppTableRecord
  2
ACAD_NAV_VCDISPLAY
 70
     0
  0
APPID
  5
21E
330
9
100
AcDbSymbolTableRecord
100
AcDbRegAppTableRecord
  2
ACAD_EXEMPT_FROM_CAD_STANDARDS
 70
     0
  0
ENDTAB
  0
TABLE
  2
DIMSTYLE
  5
A
330
0
100
AcDbSymbolTable
 70
     3
100
AcDbDimStyleTable
 71
     1
340
7F
  0
DIMSTYLE
105
58
330
A
100
AcDbSymbolTableRecord
100
AcDbDimStyleTableRecord
  2
Standard
 70
     0
 43
9.899494936611665
 78
    12
 79
     3
140
3.5
179
     2
271
     2
272
     2
284
    12
285
    12
286
    12
340
55
  0
DIMSTYLE
105
59
330
A
100
AcDbSymbolTableRecord
100
AcDbDimStyleTableRecord
  2
Annotative
 70
     0
 40
0.0
 41
2.5
 42
0.625
 43
9.899494936611665
 44
1.25
 73
     0
 74
     0
 77
     1
 78
    12
 79
     3
140
3.5
141
2.5
143
0.03937007874016
147
0.625
171
     3
172
     1
179
     2
271
     2
272
     2
274
     3
278
    44
283
     0
284
    12
285
    12
286
    12
340
55
1001
AcadAnnotative
1000
AnnotativeData
1002
{
1070
     1
1070
     1
1002
}
  0
DIMSTYLE
105
7F
330
A
100
AcDbSymbolTableRecord
100
AcDbDimStyleTableRecord
  2
ISO-25
 70
     0
  4
in
 41
3.5
 42
2.0
 43
9.899494936611665
 44
2.0
 47
0.1
 48
0.1000000001
 73
     0
 74
     0
 77
     1
 78
    12
 79
     3
140
3.5
141
0.0
143
0.0393701
146
0.7140000000000001
147
1.5
171
     4
172
     1
176
   256
177
   256
178
   256
179
     2
271
     2
272
     2
274
     4
283
     0
284
    12
285
    12
286
    12
340
55
1001
ACAD_DSTYLE_DIMBREAK
1070
   391
1040
3.5
1001
ACAD_DSTYLE_DIMJAG
1070
   388
1040
1.5
1001
ACAD_DSTYLE_DIMTALN
1070
   392
1070
     1
  0
ENDTAB
  0
TABLE
  2
BLOCK_RECORD
  5
1
330
0
100
AcDbSymbolTable
 70
     7
  0
BLOCK_RECORD
  5
70
102
{ACAD_XDICTIONARY
360
81
102
}
330
1
100
AcDbSymbolTableRecord
100
AcDbBlockTableRecord
  2
*Model_Space
340
73
 70
     0
280
     1
281
     0
  0
BLOCK_RECORD
  5
6C
330
1
100
AcDbSymbolTableRecord
100
AcDbBlockTableRecord
  2
*Paper_Space
340
6F
 70
     0
280
     1
281
     0
  0
BLOCK_RECORD
  5
74
330
1
100
AcDbSymbolTableRecord
100
AcDbBlockTableRecord
  2
*Paper_Space0
340
77
 70
     0
280
     1
281
     0
  0
BLOCK_RECORD
  5
85
330
1
100
AcDbSymbolTableRecord
100
AcDbBlockTableRecord
  2
CustomObjectsInViewport3_0
340
0
 70
     0
280
     1
281
     0
  0
BLOCK_RECORD
  5
BE
330
1
100
AcDbSymbolTableRecord
100
AcDbBlockTableRecord
  2
CustomObjectsInViewport5_0
340
0
 70
     0
280
     1
281
     0
  0
BLOCK_RECORD
  5
CB
330
1
100
AcDbSymbolTableRecord
100
AcDbBlockTableRecord
  2
CustomObjectsInViewport7_0
340
0
 70
     0
280
     1
281
     0
  0
BLOCK_RECORD
  5
F8
102
{ACAD_XDICTIONARY
360
F9
102
}
330
1
100
AcDbSymbolTableRecord
100
AcDbBlockTableRecord
  2
ISO_A3_SHEET
340
0
310
2800000020000000200000000100080000000000000400000000000000000000000000000000000000000000000080000080000000808000800000008000800080800000C0C0C000C0DCC000F0CAA6000020400000206000002080000020A0000020C0000020E00000400000004020000040400000406000004080000040A0
310
000040C0000040E00000600000006020000060400000606000006080000060A0000060C0000060E00000800000008020000080400000806000008080000080A0000080C0000080E00000A0000000A0200000A0400000A0600000A0800000A0A00000A0C00000A0E00000C0000000C0200000C0400000C0600000C0800000C0
310
A00000C0C00000C0E00000E0000000E0200000E0400000E0600000E0800000E0A00000E0C00000E0E00040000000400020004000400040006000400080004000A0004000C0004000E00040200000402020004020400040206000402080004020A0004020C0004020E000404000004040200040404000404060004040800040
310
40A0004040C0004040E00040600000406020004060400040606000406080004060A0004060C0004060E00040800000408020004080400040806000408080004080A0004080C0004080E00040A0000040A0200040A0400040A0600040A0800040A0A00040A0C00040A0E00040C0000040C0200040C0400040C0600040C08000
310
40C0A00040C0C00040C0E00040E0000040E0200040E0400040E0600040E0800040E0A00040E0C00040E0E00080000000800020008000400080006000800080008000A0008000C0008000E00080200000802020008020400080206000802080008020A0008020C0008020E00080400000804020008040400080406000804080
310
008040A0008040C0008040E00080600000806020008060400080606000806080008060A0008060C0008060E00080800000808020008080400080806000808080008080A0008080C0008080E00080A0000080A0200080A0400080A0600080A0800080A0A00080A0C00080A0E00080C0000080C0200080C0400080C0600080C0
310
800080C0A00080C0C00080C0E00080E0000080E0200080E0400080E0600080E0800080E0A00080E0C00080E0E000C0000000C0002000C0004000C0006000C0008000C000A000C000C000C000E000C0200000C0202000C0204000C0206000C0208000C020A000C020C000C020E000C0400000C0402000C0404000C0406000C0
310
408000C040A000C040C000C040E000C0600000C0602000C0604000C0606000C0608000C060A000C060C000C060E000C0800000C0802000C0804000C0806000C0808000C080A000C080C000C080E000C0A00000C0A02000C0A04000C0A06000C0A08000C0A0A000C0A0C000C0A0E000C0C00000C0C02000C0C04000C0C06000
310
C0C08000C0C0A000F0FBFF00A4A0A000808080000000FF0000FF000000FFFF00FF000000FF00FF00FFFF0000FFFFFF0049494949494949494949494949494949494949494949494949494949494949494949494949494949494949494949494949494949494949494949494949494949494949494949494949494949494949
310
494949494949494949494949494949494949494949494949494949494949494949494949494949494949494949494949494949494949494949494949494949494949494949494949494949494949494949494949494949494949494949494949494949494949494949494949494949494949FFFFFFFFFFFFFFFFFFFFFFFFFF
310
FFFFFFFFFFFFFFFFFFFFFFFFFFFFFFFFFF4949FF49FF494949494949494949494949FF494949494949494949494949FFFF49494949FF49494949494949494949494949494949494949494949494949FF49494949FFFF49494949494949494949494949494949494949494949494949FF4949494949FF494949494949494949
310
49494949494949494949494949494949FF4949494949FF49494949494949494949494949494949494949494949494949FF49494949FFFF49494949494949494949494949494949494949494949494949FF4949494949FF49494949494949494949494949494949494949494949494949FF4949494949FF4949494949494949
310
4949494949494949494949494949494949FF4949494949FF49494949494949494949494949494949494949494949494949FF49494949FFFF49494949494949494949494949494949494949494949494949FF4949494949FF49494949494949494949494949494949494949494949494949FF4949494949FF49494949494949
310
494949494949494949494949494949494949FF49494949FFFF49494949494949494949494949494949494949494949494949FF4949494949FF49494949494949494949494949494949494949494949494949FF4949494949FF49494949494949494949494949494949494949494949494949FF49494949FFFF494949494949
310
49494949494949494949494949494949494949FF4949494949FF49494949494949494949494949494949494949494949494949FF494949FF49FF494949494949494949494949FF494949494949494949494949FFFF4949FFFFFFFFFFFFFFFFFFFFFFFFFFFFFFFFFFFFFFFFFFFFFFFFFFFFFFFFFFFF49494949494949494949
310
49494949494949494949494949494949494949494949494949494949494949494949494949494949494949494949494949494949494949494949494949494949494949494949494949494949494949494949494949494949494949494949494949494949494949494949494949494949494949494949494949494949494949
310
4949494949494949494949494949494949494949494949494949494949494949494949494949494949494949494949494949494949494949
 70
     4
280
     1
281
     0
1001
AcDbDynamicBlockGUID
1000
{B4874B5E-8040-BF49-A9B6-B81412F7B0AC}
  0
BLOCK_RECORD
  5
13F
102
{ACAD_XDICTIONARY
360
140
102
}
330
1
100
AcDbSymbolTableRecord
100
AcDbBlockTableRecord
  2
ISO_TITLEBLOCK
340
0
310
2800000020000000200000000100080000000000000400000000000000000000000000000000000000000000000080000080000000808000800000008000800080800000C0C0C000C0DCC000F0CAA6000020400000206000002080000020A0000020C0000020E00000400000004020000040400000406000004080000040A0
310
000040C0000040E00000600000006020000060400000606000006080000060A0000060C0000060E00000800000008020000080400000806000008080000080A0000080C0000080E00000A0000000A0200000A0400000A0600000A0800000A0A00000A0C00000A0E00000C0000000C0200000C0400000C0600000C0800000C0
310
A00000C0C00000C0E00000E0000000E0200000E0400000E0600000E0800000E0A00000E0C00000E0E00040000000400020004000400040006000400080004000A0004000C0004000E00040200000402020004020400040206000402080004020A0004020C0004020E000404000004040200040404000404060004040800040
310
40A0004040C0004040E00040600000406020004060400040606000406080004060A0004060C0004060E00040800000408020004080400040806000408080004080A0004080C0004080E00040A0000040A0200040A0400040A0600040A0800040A0A00040A0C00040A0E00040C0000040C0200040C0400040C0600040C08000
310
40C0A00040C0C00040C0E00040E0000040E0200040E0400040E0600040E0800040E0A00040E0C00040E0E00080000000800020008000400080006000800080008000A0008000C0008000E00080200000802020008020400080206000802080008020A0008020C0008020E00080400000804020008040400080406000804080
310
008040A0008040C0008040E00080600000806020008060400080606000806080008060A0008060C0008060E00080800000808020008080400080806000808080008080A0008080C0008080E00080A0000080A0200080A0400080A0600080A0800080A0A00080A0C00080A0E00080C0000080C0200080C0400080C0600080C0
310
800080C0A00080C0C00080C0E00080E0000080E0200080E0400080E0600080E0800080E0A00080E0C00080E0E000C0000000C0002000C0004000C0006000C0008000C000A000C000C000C000E000C0200000C0202000C0204000C0206000C0208000C020A000C020C000C020E000C0400000C0402000C0404000C0406000C0
310
408000C040A000C040C000C040E000C0600000C0602000C0604000C0606000C0608000C060A000C060C000C060E000C0800000C0802000C0804000C0806000C0808000C080A000C080C000C080E000C0A00000C0A02000C0A04000C0A06000C0A08000C0A0A000C0A0C000C0A0E000C0C00000C0C02000C0C04000C0C06000
310
C0C08000C0C0A000F0FBFF00A4A0A000808080000000FF0000FF000000FFFF00FF000000FF00FF00FFFF0000FFFFFF0049494949494949494949494949494949494949494949494949494949494949494949494949494949494949494949494949494949494949494949494949494949494949494949494949494949494949
310
49494949494949494949494949494949494949494949494949494949494949494949494949494949494949494949494949494949494949494949494949494949494949494949494949494949494949494949494949494949494949494949494949494949494949494949494949494949494949494949494949494949494949
310
49494949494949494949494949494949494949494949494949494949494949494949494949494949494949494949494949494949494949494949494949494949494949494949494949494949494949494949494949494949494949494949494949494949494949494949494949494949494949494949494949494949494949
310
49494949494949494949494949494949494949494949494949494949494949494949494949494949494949494949494949494949FFFFFFFFFFFFFFFFFFFFFFFFFFFFFFFFFFFFFFFFFFFFFFFFFFFFFF4949494949FF4949494949494949FFFFFFFFFF49494949FFFFFFFFFFFFFFFFFFFF49494949FF4949494949494949FFFF
310
FFFFFF494949FFFFFFFFFFFFFFFFFFFF4949494949FF4949494949494949FFFFFFFFFF494949FFFFFFFFFFFFFFFFFFFF4949494949FF4949494949494949FFFFFFFFFFFFFFFFFFFFFFFFFFFFFFFFFFFF4949494949FFFFFFFFFFFFFFFFFFFFFFFFFFFFFFFFFFFFFFFFFFFFFFFFFFFFFF4949494949FFFFFF49FFFFFFFFFFFF
310
FFFFFFFFFFFFFFFFFFFFFFFFFFFFFFFFFFFFFFFF4949FFFFFFFFFFFFFFFFFFFFFFFFFFFFFFFFFFFFFFFFFFFFFFFFFFFFFF494949494949494949494949494949494949494949494949494949494949494949494949494949494949494949494949494949494949494949494949494949494949494949494949494949494949
310
49494949494949494949494949494949494949494949494949494949494949494949494949494949494949494949494949494949494949494949494949494949494949494949494949494949494949494949494949494949494949494949494949494949494949494949494949494949494949494949494949494949494949
310
49494949494949494949494949494949494949494949494949494949494949494949494949494949494949494949494949494949494949494949494949494949494949494949494949494949494949494949494949494949494949494949494949494949494949494949494949494949494949494949494949494949494949
310
4949494949494949494949494949494949494949494949494949494949494949494949494949494949494949494949494949494949494949
 70
     4
280
     1
281
     0
1001
AcDbDynamicBlockGUID
1000
{4E801ACD-8F25-234B-AE99-A1285D258BA6}
1001
FusionTitleBlock
1000
TitleBlock
  0
ENDTAB
  0
ENDSEC
  0
SECTION
  2
BLOCKS
  0
BLOCK
  5
71
330
70
100
AcDbEntity
  8
0
100
AcDbBlockBegin
  2
*Model_Space
 70
     0
 10
0.0
 20
0.0
 30
0.0
  3
*Model_Space
  1

  0
ENDBLK
  5
72
330
70
100
AcDbEntity
  8
0
100
AcDbBlockEnd
  0
BLOCK
  5
6D
330
6C
100
AcDbEntity
 67
     1
  8
0
100
AcDbBlockBegin
  2
*Paper_Space
 70
     0
 10
0.0
 20
0.0
 30
0.0
  3
*Paper_Space
  1

  0
ENDBLK
  5
6E
330
6C
100
AcDbEntity
 67
     1
  8
0
100
AcDbBlockEnd
  0
BLOCK
  5
75
330
74
100
AcDbEntity
 67
     1
  8
0
100
AcDbBlockBegin
  2
*Paper_Space0
 70
     0
 10
0.0
 20
0.0
 30
0.0
  3
*Paper_Space0
  1

  0
ENDBLK
  5
76
330
74
100
AcDbEntity
 67
     1
  8
0
100
AcDbBlockEnd
  0
BLOCK
  5
86
330
85
100
AcDbEntity
  8
0
100
AcDbBlockBegin
  2
CustomObjectsInViewport3_0
 70
     0
 10
0.0
 20
0.0
 30
0.0
  3
CustomObjectsInViewport3_0
  1

  0
ARC
  5
87
330
85
100
AcDbEntity
  8
可視
100
AcDbCircle
 10
-217.2921220423694
 20
165.8353048107702
 30
0.0000000000000835
 40
0.4500000000000018
210
0.0000000000000001
220
0.0
230
-1.0
100
AcDbArc
 50
250.1235594468669
 51
270.0
  0
ARC
  5
89
330
85
100
AcDbEntity
  8
可視
100
AcDbCircle
 10
-202.4498159092478
 20
165.8353048107702
 30
0.0000000000000816
 40
0.4500000000000018
210
0.0000000000000001
220
0.0
230
-1.0
100
AcDbArc
 50
270.0
 51
289.8764405531332
  0
LINE
  5
8A
330
85
100
AcDbEntity
  8
可視
100
AcDbLine
 10
202.2968191112444
 20
165.4121122071005
 30
-0.0000000000000568
 11
171.6179721778056
 21
176.5034339989808
 31
-0.0000000000000568
210
0.0
220
1.0
230
0.0
  0
LINE
  5
8B
330
85
100
AcDbEntity
  8
可視
100
AcDbLine
 10
217.4451188403728
 20
165.4121122071005
 30
-0.0000000000000568
 11
248.1239657738114
 21
176.5034339989809
 31
-0.0000000000000568
210
0.0
220
1.0
230
0.0
  0
ARC
  5
8C
330
85
100
AcDbEntity
  8
可視
100
AcDbCircle
 10
-247.9709689758081
 20
176.9266266026506
 30
0.0000000000000872
 40
0.4500000000000029
210
0.0000000000000001
220
0.0
230
-1.0
100
AcDbArc
 50
180.0
 51
250.1235594468669
  0
ARC
  5
8D
330
85
100
AcDbEntity
  8
可視
100
AcDbCircle
 10
-171.7709689758089
 20
176.9266266026505
 30
0.0000000000000779
 40
0.450000000000003
210
0.0000000000000001
220
0.0
230
-1.0
100
AcDbArc
 50
289.8764405531332
 51
0.0
  0
LINE
  5
8E
330
85
100
AcDbEntity
  8
可視
100
AcDbLine
 10
171.320968975809
 20
176.9266266026505
 30
-0.0000000000000568
 11
171.320968975809
 21
177.0318231189543
 31
-0.0000000000000568
210
0.0
220
1.0
230
0.0
  0
LINE
  5
8F
330
85
100
AcDbEntity
  8
可視
100
AcDbLine
 10
248.420968975808
 20
176.9266266026506
 30
-0.0000000000000568
 11
248.420968975808
 21
177.0318231189544
 31
-0.0000000000000568
210
0.0
220
1.0
230
0.0
  0
LINE
  5
90
330
85
100
AcDbEntity
  8
可視
100
AcDbLine
 10
170.8709689758083
 20
177.0318231189543
 30
-0.0000000000000568
 11
170.8709689758083
 21
180.0318231189543
 31
-0.0000000000000568
210
0.0
220
1.0
230
0.0
  0
LINE
  5
91
330
85
100
AcDbEntity
  8
可視
100
AcDbLine
 10
248.8709689758088
 20
177.0318231189544
 30
-0.0000000000000568
 11
248.8709689758088
 21
180.0318231189543
 31
-0.0000000000000568
210
0.0
220
1.0
230
0.0
  0
ARC
  5
92
330
85
100
AcDbEntity
  8
可視
100
AcDbCircle
 10
-209.8709689758083
 20
-100.284843547708
 30
0.0000000000000825
 40
283.0166666666628
210
0.0000000000000001
220
0.0
230
-1.0
100
AcDbArc
 50
82.07937633915088
 51
97.92062366084913
  0
LINE
  5
93
330
85
100
AcDbEntity
  8
可視
100
AcDbLine
 10
203.188468975809
 20
137.4853048107686
 30
-0.0000000000000568
 11
203.1884689758089
 21
161.4853048107686
 31
-0.0000000000000568
210
0.0
220
1.0
230
0.0
  0
LINE
  5
94
330
85
100
AcDbEntity
  8
可視
100
AcDbLine
 10
216.5534689758082
 20
137.4853048107686
 30
-0.0000000000000568
 11
216.5534689758082
 21
161.4853048107686
 31
-0.0000000000000568
210
0.0
220
1.0
230
0.0
  0
ARC
  5
95
330
85
100
AcDbEntity
  8
可視
100
AcDbCircle
 10
-216.9209689758077
 20
161.6353048107687
 30
0.0000000000000834
 40
0.1500000000000003
210
0.0000000000000001
220
0.0
230
-1.0
100
AcDbArc
 50
180.0
 51
270.0
  0
ARC
  5
96
330
85
100
AcDbEntity
  8
可視
100
AcDbCircle
 10
-202.8209689758094
 20
161.6353048107686
 30
0.0000000000000817
 40
0.1500000000000003
210
0.0000000000000001
220
0.0
230
-1.0
100
AcDbArc
 50
270.0
 51
0.0
  0
LINE
  5
97
330
85
100
AcDbEntity
  8
可視
100
AcDbLine
 10
202.6709689758094
 20
161.6353048107686
 30
-0.0000000000000568
 11
202.6709689758094
 21
162.6853048107686
 31
-0.0000000000000568
210
0.0
220
1.0
230
0.0
  0
LINE
  5
98
330
85
100
AcDbEntity
  8
可視
100
AcDbLine
 10
217.0709689758076
 20
161.6353048107686
 30
-0.0000000000000568
 11
217.0709689758076
 21
162.6853048107686
 31
-0.0000000000000568
210
0.0
220
1.0
230
0.0
  0
ARC
  5
99
330
85
100
AcDbEntity
  8
可視
100
AcDbCircle
 10
-216.9209689758077
 20
162.6853048107686
 30
0.0000000000000834
 40
0.1499999999999986
210
0.0000000000000001
220
0.0
230
-1.0
100
AcDbArc
 50
90.0
 51
180.0
  0
ARC
  5
9A
330
85
100
AcDbEntity
  8
可視
100
AcDbCircle
 10
-202.8209689758094
 20
162.6853048107686
 30
0.0000000000000817
 40
0.1499999999999986
210
0.0000000000000001
220
0.0
230
-1.0
100
AcDbArc
 50
0.0
 51
90.0
  0
ARC
  5
9B
330
85
100
AcDbEntity
  8
可視
100
AcDbCircle
 10
-215.7209689758078
 20
162.9853048107686
 30
0.0000000000000833
 40
0.1499999999999986
210
0.0000000000000001
220
0.0
230
-1.0
100
AcDbArc
 50
270.0
 51
0.0
  0
ARC
  5
9C
330
85
100
AcDbEntity
  8
可視
100
AcDbCircle
 10
-204.0209689758094
 20
162.9853048107686
 30
0.0000000000000818
 40
0.1499999999999986
210
0.0000000000000001
220
0.0
230
-1.0
100
AcDbArc
 50
180.0
 51
270.0
  0
LINE
  5
9D
330
85
100
AcDbEntity
  8
可視
100
AcDbLine
 10
204.1709689758095
 20
162.9853048107686
 30
-0.0000000000000568
 11
204.1709689758095
 21
163.885304810769
 31
-0.0000000000000568
210
0.0
220
1.0
230
0.0
  0
LINE
  5
9E
330
85
100
AcDbEntity
  8
可視
100
AcDbLine
 10
215.5709689758077
 20
162.9853048107686
 30
-0.0000000000000568
 11
215.5709689758077
 21
163.885304810769
 31
-0.0000000000000568
210
0.0
220
1.0
230
0.0
  0
ARC
  5
9F
330
85
100
AcDbEntity
  8
可視
100
AcDbCircle
 10
-215.7209689758076
 20
163.885304810769
 30
0.0000000000000833
 40
0.1500000000000003
210
0.0000000000000001
220
0.0
230
-1.0
100
AcDbArc
 50
0.0
 51
90.0
  0
ARC
  5
A0
330
85
100
AcDbEntity
  8
可視
100
AcDbCircle
 10
-204.0209689758095
 20
163.885304810769
 30
0.0000000000000818
 40
0.1500000000000003
210
0.0000000000000001
220
0.0
230
-1.0
100
AcDbArc
 50
90.0
 51
180.0
  0
ARC
  5
A1
330
85
100
AcDbEntity
  8
可視
100
AcDbCircle
 10
-217.2209689758074
 20
164.185304810769
 30
0.0000000000000834
 40
0.1500000000000003
210
0.0000000000000001
220
0.0
230
-1.0
100
AcDbArc
 50
180.0
 51
270.0
  0
ARC
  5
A2
330
85
100
AcDbEntity
  8
可視
100
AcDbCircle
 10
-202.5209689758097
 20
164.185304810769
 30
0.0000000000000816
 40
0.1500000000000003
210
0.0000000000000001
220
0.0
230
-1.0
100
AcDbArc
 50
270.0
 51
0.0
  0
LINE
  5
A3
330
85
100
AcDbEntity
  8
可視
100
AcDbLine
 10
202.3709689758097
 20
164.185304810769
 30
-0.0000000000000568
 11
202.3709689758097
 21
165.0853048107675
 31
-0.0000000000000568
210
0.0
220
1.0
230
0.0
  0
LINE
  5
A4
330
85
100
AcDbEntity
  8
可視
100
AcDbLine
 10
217.3709689758074
 20
164.185304810769
 30
-0.0000000000000568
 11
217.3709689758074
 21
165.0853048107675
 31
-0.0000000000000568
210
0.0
220
1.0
230
0.0
  0
ARC
  5
A5
330
85
100
AcDbEntity
  8
可視
100
AcDbCircle
 10
-217.2209689758074
 20
165.0853048107675
 30
0.0000000000000834
 40
0.1499999999999986
210
0.0000000000000001
220
0.0
230
-1.0
100
AcDbArc
 50
90.0
 51
180.0
  0
ARC
  5
A6
330
85
100
AcDbEntity
  8
可視
100
AcDbCircle
 10
-202.5209689758097
 20
165.0853048107675
 30
0.0000000000000816
 40
0.1499999999999986
210
0.0000000000000001
220
0.0
230
-1.0
100
AcDbArc
 50
0.0
 51
90.0
  0
LINE
  5
A7
330
85
100
AcDbEntity
  8
可視
100
AcDbLine
 10
202.3709689758089
 20
165.2353048107683
 30
-0.0000000000000568
 11
202.3709689758089
 21
165.3853048107683
 31
-0.0000000000000568
210
0.0
220
1.0
230
0.0
  0
LINE
  5
A8
330
85
100
AcDbEntity
  8
可視
100
AcDbLine
 10
217.3709689758083
 20
165.2353048107683
 30
-0.0000000000000568
 11
217.3709689758083
 21
165.3853048107684
 31
-0.0000000000000568
210
0.0
220
1.0
230
0.0
  0
LINE
  5
A9
330
85
100
AcDbEntity
  8
細線
100
AcDbLine
 10
217.4451188403728
 20
165.4121122071005
 30
-0.0000000000000568
 11
202.2968191112444
 21
165.4121122071005
 31
-0.0000000000000568
210
0.0
220
1.0
230
0.0
  0
LINE
  5
AB
330
85
100
AcDbEntity
  8
細線
100
AcDbLine
 10
248.1239657738114
 20
176.5034339989809
 30
-0.0000000000000568
 11
171.6179721778056
 21
176.5034339989809
 31
-0.0000000000000568
210
0.0
220
1.0
230
0.0
  0
LINE
  5
AC
330
85
100
AcDbEntity
  8
細線
100
AcDbLine
 10
248.420968975808
 20
176.9266266026505
 30
-0.0000000000000568
 11
171.320968975809
 21
176.9266266026505
 31
-0.0000000000000568
210
0.0
220
1.0
230
0.0
  0
LINE
  5
AD
330
85
100
AcDbEntity
  8
可視
100
AcDbLine
 10
248.8709689758088
 20
177.0318231189543
 30
-0.0000000000000568
 11
170.8709689758083
 21
177.0318231189543
 31
-0.0000000000000568
210
0.0
220
1.0
230
0.0
  0
LINE
  5
AE
330
85
100
AcDbEntity
  8
可視
100
AcDbLine
 10
248.8709689758088
 20
180.0318231189543
 30
-0.0000000000000568
 11
170.8709689758083
 21
180.0318231189543
 31
-0.0000000000000568
210
0.0
220
1.0
230
0.0
  0
LINE
  5
AF
330
85
100
AcDbEntity
  8
可視
100
AcDbLine
 10
216.5534689758082
 20
137.4853048107686
 30
-0.0000000000000568
 11
203.188468975809
 21
137.4853048107686
 31
-0.0000000000000568
210
0.0
220
1.0
230
0.0
  0
LINE
  5
B0
330
85
100
AcDbEntity
  8
可視
100
AcDbLine
 10
216.9209689758077
 20
161.4853048107686
 30
-0.0000000000000568
 11
202.8209689758094
 21
161.4853048107686
 31
-0.0000000000000568
210
0.0
220
1.0
230
0.0
  0
LINE
  5
B1
330
85
100
AcDbEntity
  8
細線
100
AcDbLine
 10
217.0709689758078
 20
161.6353048107686
 30
-0.0000000000000568
 11
202.6709689758094
 21
161.6353048107686
 31
-0.0000000000000568
210
0.0
220
1.0
230
0.0
  0
LINE
  5
B2
330
85
100
AcDbEntity
  8
細線
100
AcDbLine
 10
217.0709689758078
 20
162.6853048107686
 30
-0.0000000000000568
 11
202.6709689758094
 21
162.6853048107686
 31
-0.0000000000000568
210
0.0
220
1.0
230
0.0
  0
LINE
  5
B3
330
85
100
AcDbEntity
  8
可視
100
AcDbLine
 10
216.9209689758077
 20
162.8353048107686
 30
-0.0000000000000568
 11
202.8209689758094
 21
162.8353048107686
 31
-0.0000000000000568
210
0.0
220
1.0
230
0.0
  0
LINE
  5
B4
330
85
100
AcDbEntity
  8
細線
100
AcDbLine
 10
215.5709689758078
 20
162.9853048107686
 30
-0.0000000000000568
 11
204.1709689758094
 21
162.9853048107686
 31
-0.0000000000000568
210
0.0
220
1.0
230
0.0
  0
LINE
  5
B5
330
85
100
AcDbEntity
  8
細線
100
AcDbLine
 10
215.5709689758076
 20
163.885304810769
 30
-0.0000000000000568
 11
204.1709689758095
 21
163.885304810769
 31
-0.0000000000000568
210
0.0
220
1.0
230
0.0
  0
LINE
  5
B6
330
85
100
AcDbEntity
  8
可視
100
AcDbLine
 10
217.2209689758075
 20
164.035304810769
 30
-0.0000000000000568
 11
202.5209689758097
 21
164.035304810769
 31
-0.0000000000000568
210
0.0
220
1.0
230
0.0
  0
LINE
  5
B7
330
85
100
AcDbEntity
  8
細線
100
AcDbLine
 10
217.3709689758075
 20
164.185304810769
 30
-0.0000000000000568
 11
202.3709689758097
 21
164.185304810769
 31
-0.0000000000000568
210
0.0
220
1.0
230
0.0
  0
LINE
  5
B8
330
85
100
AcDbEntity
  8
細線
100
AcDbLine
 10
217.3709689758075
 20
165.0853048107675
 30
-0.0000000000000568
 11
202.3709689758097
 21
165.0853048107675
 31
-0.0000000000000568
210
0.0
220
1.0
230
0.0
  0
LINE
  5
B9
330
85
100
AcDbEntity
  8
可視
100
AcDbLine
 10
217.3709689758083
 20
165.2353048107683
 30
-0.0000000000000568
 11
202.3709689758089
 21
165.2353048107683
 31
-0.0000000000000568
210
0.0
220
1.0
230
0.0
  0
LINE
  5
BA
330
85
100
AcDbEntity
  8
可視
100
AcDbLine
 10
217.3709689758083
 20
165.3853048107684
 30
-0.0000000000000568
 11
202.3709689758089
 21
165.3853048107684
 31
-0.0000000000000568
210
0.0
220
1.0
230
0.0
  0
ENDBLK
  5
BB
330
85
100
AcDbEntity
  8
0
100
AcDbBlockEnd
  0
BLOCK
  5
BF
330
BE
100
AcDbEntity
  8
0
100
AcDbBlockBegin
  2
CustomObjectsInViewport5_0
 70
     0
 10
0.0
 20
0.0
 30
0.0
  3
CustomObjectsInViewport5_0
  1

  0
SPLINE
  5
C0
330
BE
100
AcDbEntity
  8
可視
100
AcDbSpline
210
-0.0000000000000001
220
-0.0000000000000068
230
1.0
 70
     8
 71
     3
 72
    12
 73
     8
 74
     0
 42
0.000000001
 43
0.0000000001
 40
5.190323386952904
 40
5.190323386952904
 40
5.190323386952904
 40
5.190323386952904
 40
5.201046661070407
 40
5.201046661070407
 40
5.522621930719197
 40
5.522621930719197
 40
5.805250900611068
 40
5.805250900611068
 40
5.805250900611068
 40
5.805250900611068
 10
116.453922360113
 20
109.1654005707882
 30
-0.0000000000000551
 10
116.5846919893759
 20
109.141488656703
 30
-0.0000000000001048
 10
116.7156810496642
 20
109.117981091792
 30
-0.000000000000103
 10
120.781409890568
 20
108.4020862525597
 30
-0.0000000000001492
 10
124.9075489211948
 20
108.0771650872566
 30
-0.0000000000001243
 10
132.6307834289744
 20
108.1876408872371
 30
-0.0000000000000835
 10
136.2305099593143
 20
108.535163987071
 30
-0.0000000000000959
 10
139.6771518344319
 20
109.1654005707883
 30
-0.0000000000001652
  0
LINE
  5
C1
330
BE
100
AcDbEntity
  8
可視
100
AcDbLine
 10
89.06553709727223
 20
130.6054857592931
 30
-0.0000000000002132
 11
89.06553709727223
 21
133.0581271338207
 31
-0.0000000000002238
210
0.0
220
0.8175471248425397
230
0.5758617009853121
  0
LINE
  5
C2
330
BE
100
AcDbEntity
  8
可視
100
AcDbLine
 10
167.0655370972729
 20
130.6054857592932
 30
-0.0000000000001776
 11
167.0655370972728
 21
133.0581271338208
 31
-0.000000000000135
210
0.0
220
0.8175471248425397
230
0.5758617009853121
  0
LINE
  5
C3
330
BE
100
AcDbEntity
  8
可視
100
AcDbLine
 10
121.383037097273
 20
98.27434341890304
 30
-0.0000000000001634
 11
121.3830370972729
 21
108.4669172215896
 31
-0.0000000000001812
210
0.0
220
0.8175471248425397
230
0.5758617009853121
  0
LINE
  5
C4
330
BE
100
AcDbEntity
  8
可視
100
AcDbLine
 10
134.7480370972721
 20
98.27434341890304
 30
-0.0000000000002007
 11
134.7480370972722
 21
108.4669172215896
 31
-0.0000000000001688
210
0.0
220
0.8175471248425397
230
0.5758617009853121
  0
ELLIPSE
  5
C5
330
BE
100
AcDbEntity
  8
可視
100
AcDbEllipse
 10
128.0655370972725
 20
130.6054857592931
 30
-0.0000000000002025
 11
39.00000000000029
 21
-0.0000000000000048
 31
0.0000000000000076
210
-0.0000000000000002
220
-0.0000000000000001
230
1.0
 40
0.5758617009853121
 41
3.141592653589941
 42
6.283185307179734
  0
ELLIPSE
  5
C6
330
BE
100
AcDbEntity
  8
可視
100
AcDbEllipse
 10
128.0655370972725
 20
133.0581271338208
 30
-0.0000000000002096
 11
39.00000000000028
 21
-0.0000000000000158
 31
0.0000000000000127
210
-0.0000000000000003
220
-0.0000000000000001
230
1.0
 40
0.5758617009853122
 41
-0.7853981633972984
 42
5.497787143782288
  0
ELLIPSE
  5
C7
330
BE
100
AcDbEntity
  8
可視
100
AcDbEllipse
 10
128.0655370972725
 20
98.27434341890308
 30
-0.0000000000002061
 11
6.68249999999966
 21
-0.0000000000000008
 31
0.0000000000000007
210
-0.0000000000000001
220
0.0000000000000001
230
1.0
 40
0.5758617009853118
 41
3.141592653589939
 42
6.283185307179732
  0
ENDBLK
  5
C8
330
BE
100
AcDbEntity
  8
0
100
AcDbBlockEnd
  0
BLOCK
  5
CC
330
CB
100
AcDbEntity
  8
0
100
AcDbBlockBegin
  2
CustomObjectsInViewport7_0
 70
     0
 10
0.0
 20
0.0
 30
0.0
  3
CustomObjectsInViewport7_0
  1

  0
SPLINE
  5
CD
330
CB
100
AcDbEntity
  8
可視
100
AcDbSpline
210
-0.0000000000000014
220
-0.0000000000000006
230
1.0
 70
     8
 71
     3
 72
    16
 73
    12
 74
     0
 42
0.000000001
 43
0.0000000001
 40
5.497787143782285
 40
5.497787143782285
 40
5.497787143782285
 40
5.497787143782285
 40
5.810474309798163
 40
5.810474309798163
 40
6.128249370659032
 40
6.128249370659032
 40
6.449928179004221
 40
6.449928179004221
 40
6.771842987865598
 40
6.771842987865598
 40
6.893493535550555
 40
6.893493535550555
 40
6.893493535550555
 40
6.893493535550555
 10
355.0002870035074
 20
220.5503476001544
 30
0.0000000000003411
 10
355.0002870035076
 20
218.182079140798
 30
0.0000000000003411
 10
354.3502950698039
 20
215.8164242854078
 30
0.0000000000002274
 10
351.8197328464292
 20
211.3088907289751
 30
0.0000000000003411
 10
349.9218606676434
 20
209.170251883155
 30
0.0000000000003411
 10
345.0574482884408
 20
205.3320211068154
 30
0.0000000000003411
 10
342.0780072070425
 20
203.6380389050228
 30
0.0000000000002274
 10
335.3529231894467
 20
200.8811247327548
 30
0.0000000000003411
 10
331.6076240695803
 20
199.8192685218714
 30
0.0000000000002274
 10
326.1805269703988
 20
198.8636635227802
 30
0.0000000000002274
 10
324.6647982390999
 20
198.6538492610815
 30
0.0000000000002274
 10
323.1327870035077
 20
198.4977821718984
 30
0.0000000000003411
  0
SPLINE
  5
CE
330
CB
100
AcDbEntity
  8
可視
100
AcDbSpline
210
-0.0000000000000025
220
-0.0000000000000031
230
1.0
 70
     8
 71
     3
 72
    16
 73
    12
 74
     0
 42
0.000000001
 43
0.0000000001
 40
7.243673405603809
 40
7.243673405603809
 40
7.243673405603809
 40
7.243673405603809
 40
7.414868965466419
 40
7.414868965466419
 40
7.736488003780251
 40
7.736488003780251
 40
8.058446739742683
 40
8.058446739742683
 40
8.379869883581948
 40
8.379869883581948
 40
8.639379797372079
 40
8.639379797372079
 40
8.639379797372079
 40
8.639379797372079
 10
309.7677870035082
 20
198.4977821718984
 30
0.0000000000003411
 10
307.6118285949013
 20
198.717411209476
 30
0.0000000000003411
 10
305.4881751262592
 20
199.0436013862155
 30
0.0000000000002274
 10
299.5557938251616
 20
200.276262075239
 30
0.0000000000002274
 10
295.9081243276032
 20
201.44258825663
 30
0.0000000000004547
 10
289.4229203774052
 20
204.3886087888387
 30
0.0000000000003411
 10
286.5870371921515
 20
206.1683417090001
 30
0.0000000000002274
 10
282.0243892536188
 20
210.1705395197585
 30
0.0000000000002274
 10
280.2958095528084
 20
212.392775615203
 30
0.0000000000003411
 10
278.3466694358915
 20
216.6204535638169
 30
0.0000000000002274
 10
277.9002870035084
 20
218.5848395444503
 30
0.0000000000003411
 10
277.9002870035084
 20
220.5503476001542
 30
0.0000000000003411
  0
LINE
  5
CF
330
CB
100
AcDbEntity
  8
可視
100
AcDbLine
 10
277.9002870035085
 20
220.5503476001542
 30
0.0000000000001137
 11
277.9002870035085
 21
220.6363507096018
 31
0.0000000000001137
210
0.0000000000000001
220
0.8175471248425399
230
-0.5758617009853119
  0
LINE
  5
D0
330
CB
100
AcDbEntity
  8
可視
100
AcDbLine
 10
355.0002870035075
 20
220.5503476001543
 30
0.0000000000001137
 11
355.0002870035075
 21
220.6363507096019
 31
0.0000000000002274
210
0.0000000000000001
220
0.8175471248425399
230
-0.5758617009853119
  0
LINE
  5
D1
330
CB
100
AcDbEntity
  8
可視
100
AcDbLine
 10
277.4502870035077
 20
220.6363507096018
 30
0.0000000000001137
 11
277.4502870035078
 21
223.0889920841294
 31
0.0000000000002274
210
0.0000000000000001
220
0.8175471248425399
230
-0.5758617009853119
  0
LINE
  5
D2
330
CB
100
AcDbEntity
  8
可視
100
AcDbLine
 10
355.4502870035083
 20
220.6363507096019
 30
0.0000000000002274
 11
355.4502870035082
 21
223.0889920841295
 31
0.0000000000001137
210
0.0000000000000001
220
0.8175471248425399
230
-0.5758617009853119
  0
LINE
  5
D3
330
CB
100
AcDbEntity
  8
可視
100
AcDbLine
 10
309.7677870035084
 20
188.3052083692117
 30
0.0000000000002274
 11
309.7677870035084
 21
207.9263393654327
 31
0.0000000000001137
210
0.0000000000000001
220
0.8175471248425399
230
-0.5758617009853119
  0
LINE
  5
D4
330
CB
100
AcDbEntity
  8
可視
100
AcDbLine
 10
323.1327870035077
 20
188.3052083692117
 30
0.0000000000001137
 11
323.1327870035077
 21
207.9263393654327
 31
0.0
210
0.0000000000000001
220
0.8175471248425399
230
-0.5758617009853119
  0
SPLINE
  5
D5
330
CB
100
AcDbEntity
  8
可視
100
AcDbSpline
210
0.000000000000935
220
-0.0000000000003635
230
1.0
 70
     8
 71
     3
 72
    10
 73
     6
 74
     0
 42
0.000000001
 43
0.0000000001
 40
5.497787143782285
 40
5.497787143782285
 40
5.497787143782285
 40
5.497787143782285
 40
5.805026056562841
 40
5.805026056562841
 40
5.873310652293675
 40
5.873310652293675
 40
5.873310652293675
 40
5.873310652293675
 10
323.6502870035072
 20
208.0489714341591
 30
0.0000000000003411
 10
323.6502870035072
 20
207.6065162456977
 30
0.0000000000002274
 10
323.5307555537791
 20
207.164817157511
 30
0.0000000000003411
 10
323.2505834072797
 20
206.6563153085191
 30
0.0000000000003411
 10
323.1942753586944
 20
206.5650740100806
 30
0.0000000000002274
 10
323.1327870035076
 20
206.4752567206178
 30
0.0000000000002274
  0
SPLINE
  5
D6
330
CB
100
AcDbEntity
  8
可視
100
AcDbSpline
210
0.0000000000003938
220
0.0000000000001469
230
1.0
 70
     8
 71
     3
 72
    10
 73
     6
 74
     0
 42
0.000000001
 43
0.0000000001
 40
8.263856288860688
 40
8.263856288860688
 40
8.263856288860688
 40
8.263856288860688
 40
8.381466759855674
 40
8.381466759855674
 40
8.639379797372079
 40
8.639379797372079
 40
8.639379797372079
 40
8.639379797372079
 10
309.7677870035084
 20
206.4752567206178
 30
0.0000000000002274
 10
309.6618820869334
 20
206.6299541835544
 30
0.0000000000002274
 10
309.5713523176599
 20
206.7888876637347
 30
0.0000000000003411
 10
309.3342593660894
 20
207.3064725603138
 30
0.0000000000003411
 10
309.2502870035088
 20
207.6775505077267
 30
0.0000000000002274
 10
309.2502870035088
 20
208.0489714341591
 30
0.0000000000002274
  0
LINE
  5
D7
330
CB
100
AcDbEntity
  8
可視
100
AcDbLine
 10
309.2502870035088
 20
208.048971434159
 30
0.0
 11
309.2502870035087
 21
208.9073959152437
 31
0.0000000000001137
210
0.0000000000000001
220
0.8175471248425399
230
-0.5758617009853119
  0
LINE
  5
D8
330
CB
100
AcDbEntity
  8
可視
100
AcDbLine
 10
323.6502870035072
 20
208.0489714341592
 30
0.0000000000001137
 11
323.6502870035071
 21
208.9073959152437
 31
0.0000000000001137
210
0.0000000000000001
220
0.8175471248425399
230
-0.5758617009853119
  0
SPLINE
  5
D9
330
CB
100
AcDbEntity
  8
可視
100
AcDbSpline
210
-0.0000000000000051
220
-0.0000000000000113
230
1.0
 70
     8
 71
     3
 72
    26
 73
    22
 74
     0
 42
0.000000001
 43
0.0000000001
 40
2.356194490192492
 40
2.356194490192492
 40
2.356194490192492
 40
2.356194490192492
 40
2.663433402973048
 40
2.663433402973048
 40
2.979197929158186
 40
2.979197929158186
 40
3.302099978046334
 40
3.302099978046334
 40
3.625540535885846
 40
3.625540535885846
 40
3.948376287985983
 40
3.948376287985983
 40
4.270982118633453
 40
4.270982118633453
 40
4.593885117226671
 40
4.593885117226671
 40
4.917389356809615
 40
4.917389356809615
 40
5.23987410626588
 40
5.23987410626588
 40
5.497787143782285
 40
5.497787143782285
 40
5.497787143782285
 40
5.497787143782285
 10
309.2502870035087
 20
208.9073959152438
 30
0.0000000000002274
 10
309.2502870035087
 20
209.3498511037054
 30
0.0000000000001137
 10
309.3698184532369
 20
209.7915501918919
 30
0.0000000000002274
 10
309.8346314591216
 20
210.6351682170276
 30
0.0000000000003411
 10
310.1853049873434
 20
211.0360478386955
 30
0.0000000000002274
 10
311.0866871693208
 20
211.7585328311899
 30
0.0000000000002274
 10
311.6418790433411
 20
212.0782896750213
 30
0.0000000000002274
 10
312.8960358600322
 20
212.599240933807
 30
0.0000000000003411
 10
313.5951150821079
 20
212.8001018649783
 30
0.0000000000003411
 10
315.0648430877082
 20
213.0632572335389
 30
0.0000000000002274
 10
315.83510237009
 20
213.1257380178684
 30
0.0000000000003411
 10
317.3701317862419
 20
213.1068311350993
 30
0.0000000000003411
 10
318.1346303275615
 20
213.02555181899
 30
0.0000000000003411
 10
319.5824080074604
 20
212.7268850834309
 30
0.0000000000002274
 10
320.2653682864838
 20
212.5094557483759
 30
0.0000000000002274
 10
321.4817379483427
 20
211.9580450126766
 30
0.0000000000002274
 10
322.0147694415258
 20
211.6239761351429
 30
0.0000000000003411
 10
322.8734563834001
 20
210.8698859691447
 30
0.0000000000003411
 10
323.1998709395885
 20
210.4498583645675
 30
0.0000000000003411
 10
323.5663146409266
 20
209.6498947890891
 30
0.0000000000003411
 10
323.6502870035072
 20
209.2788168416761
 30
0.0000000000003411
 10
323.6502870035072
 20
208.9073959152438
 30
0.0000000000002274
  0
SPLINE
  5
DA
330
CB
100
AcDbEntity
  8
可視
100
AcDbSpline
210
-0.0000000000016395
220
0.0000000000004794
230
1.0
 70
     8
 71
     3
 72
     8
 73
     4
 74
     0
 42
0.000000001
 43
0.0000000001
 40
5.497787143782285
 40
5.497787143782285
 40
5.497787143782285
 40
5.497787143782285
 40
5.776827169271714
 40
5.776827169271714
 40
5.776827169271714
 40
5.776827169271714
 10
323.9502870035069
 20
210.1337166025079
 30
0.0000000000002274
 10
323.9502870035068
 20
209.7158018247435
 30
0.0000000000002274
 10
323.8479472719047
 20
209.2983796121814
 30
0.0000000000002274
 10
323.6502870035072
 20
208.9011059087387
 30
0.0000000000003411
  0
SPLINE
  5
DB
330
CB
100
AcDbEntity
  8
可視
100
AcDbSpline
210
0.0000000000021933
220
0.0000000000006546
230
1.0
 70
     8
 71
     3
 72
    10
 73
     6
 74
     0
 42
0.000000001
 43
0.0000000001
 40
8.360339771882649
 40
8.360339771882649
 40
8.360339771882649
 40
8.360339771882649
 40
8.381322947106006
 40
8.381322947106006
 40
8.639379797372079
 40
8.639379797372079
 40
8.639379797372079
 40
8.639379797372079
 10
309.2502870035088
 20
208.9011059087387
 30
0.0000000000002274
 10
309.2354234009155
 20
208.9309799876144
 30
0.0000000000003411
 10
309.2210938324313
 20
208.960964501795
 30
0.0000000000003411
 10
309.037701799042
 20
209.3610844799234
 30
0.0000000000003411
 10
308.9502870035091
 20
209.7472280654589
 30
0.0000000000002274
 10
308.9502870035091
 20
210.1337166025079
 30
0.0000000000002274
  0
LINE
  5
DC
330
CB
100
AcDbEntity
  8
可視
100
AcDbLine
 10
308.9502870035092
 20
210.1337166025078
 30
0.0000000000001137
 11
308.9502870035092
 21
210.869509014865
 31
0.0000000000001137
210
0.0000000000000001
220
0.8175471248425399
230
-0.5758617009853119
  0
LINE
  5
DD
330
CB
100
AcDbEntity
  8
可視
100
AcDbLine
 10
323.950287003507
 20
210.1337166025079
 30
0.0000000000002274
 11
323.9502870035069
 21
210.869509014865
 31
0.0000000000001137
210
0.0000000000000001
220
0.8175471248425399
230
-0.5758617009853119
  0
SPLINE
  5
DE
330
CB
100
AcDbEntity
  8
可視
100
AcDbSpline
210
0.0
220
-0.0000000000000013
230
1.0
 70
     8
 71
     3
 72
    26
 73
    22
 74
     0
 42
0.000000001
 43
0.0000000001
 40
2.356194490192492
 40
2.356194490192492
 40
2.356194490192492
 40
2.356194490192492
 40
2.663918904255815
 40
2.663918904255815
 40
2.979875204070561
 40
2.979875204070561
 40
3.302669749813714
 40
3.302669749813714
 40
3.625970699275564
 40
3.625970699275564
 40
3.94869088340916
 40
3.94869088340916
 40
4.271191010155336
 40
4.271191010155336
 40
4.593976705964095
 40
4.593976705964095
 40
4.917340044409831
 40
4.917340044409831
 40
5.239730293516214
 40
5.239730293516214
 40
5.497787143782285
 40
5.497787143782285
 40
5.497787143782285
 40
5.497787143782285
 10
308.9502870035091
 20
210.8695090148649
 30
0.0000000000002274
 10
308.9502870035092
 20
211.3303840448553
 30
0.0000000000003411
 10
309.0749719506338
 20
211.7904950145077
 30
0.0000000000003411
 10
309.5598771413977
 20
212.6690996099258
 30
0.0000000000003411
 10
309.9255246025628
 20
213.086553915524
 30
0.0000000000003411
 10
310.8651505679306
 20
213.838617024654
 30
0.0000000000002274
 10
311.4436013120703
 20
214.1713789023624
 30
0.0000000000003411
 10
312.7501996428981
 20
214.7134618038967
 30
0.0000000000002274
 10
313.4784470491654
 20
214.9224498155855
 30
0.0000000000003411
 10
315.009483303618
 20
215.1961665804123
 30
0.0000000000003411
 10
315.8118719497385
 20
215.2610800126934
 30
0.0000000000003411
 10
317.4108718147644
 20
215.2410953941894
 30
0.0000000000003411
 10
318.2072003737627
 20
215.1563055991711
 30
0.0000000000003411
 10
319.7151160844782
 20
214.845028110245
 30
0.0000000000002274
 10
320.4263737213616
 20
214.6185005558483
 30
0.0000000000002274
 10
321.6929398434045
 20
214.0442263047366
 30
0.0000000000003411
 10
322.2478609634637
 20
213.6963960759448
 30
0.0000000000003411
 10
323.1417103012201
 20
212.9115110576604
 30
0.0000000000003411
 10
323.4813879616113
 20
212.4744535639489
 30
0.0000000000003411
 10
323.862872207974
 20
211.6421411374495
 30
0.0000000000003411
 10
323.9502870035068
 20
211.2559975519139
 30
0.0000000000003411
 10
323.9502870035069
 20
210.8695090148649
 30
0.0000000000002274
  0
LINE
  5
DF
330
CB
100
AcDbEntity
  8
可視
100
AcDbLine
 10
308.9502870035083
 20
210.9921410835919
 30
0.0000000000001137
 11
308.9502870035082
 21
211.1147731523184
 31
0.0000000000001137
210
0.0000000000000001
220
0.8175471248425399
230
-0.5758617009853119
  0
LINE
  5
E0
330
CB
100
AcDbEntity
  8
可視
100
AcDbLine
 10
323.9502870035077
 20
210.9921410835921
 30
0.0000000000001137
 11
323.9502870035078
 21
211.1147731523185
 31
0.0000000000003411
210
0.0000000000000001
220
0.8175471248425399
230
-0.5758617009853119
  0
ELLIPSE
  5
E1
330
CB
100
AcDbEntity
  8
細線
100
AcDbEllipse
 10
316.450287003508
 20
211.1366894621143
 30
0.0000000000002274
 11
-7.574149864564164
 21
0.0000000000004461
 31
-0.0000000000000065
210
0.0000000000000009
220
0.0000000000000004
230
-1.0
 40
0.5758617009853119
 41
-0.1400419586945185
 42
3.281634612283218
  0
ELLIPSE
  5
E2
330
CB
100
AcDbEntity
  8
細線
100
AcDbEllipse
 10
316.4502870035081
 20
220.2043677037694
 30
0.0000000000001137
 11
-38.25299679800286
 21
0.0000000000022586
 31
-0.0000000000000333
210
0.0000000000000009
220
0.0000000000000004
230
-1.0
 40
0.5758617009853119
 41
-1.395203178673833
 42
4.53679583226406
  0
ELLIPSE
  5
E3
330
CB
100
AcDbEntity
  8
細線
100
AcDbEllipse
 10
316.4502870035081
 20
220.5503476001543
 30
0.0000000000001137
 11
-38.54999999999948
 21
0.0000000000022708
 31
-0.000000000000037
210
0.000000000000001
220
0.0000000000000004
230
-1.0
 40
0.5758617009853121
 41
-0.0000000000005291
 42
3.141592653589264
  0
ELLIPSE
  5
E4
330
CB
100
AcDbEntity
  8
可視
100
AcDbEllipse
 10
316.450287003508
 20
220.6363507096018
 30
0.0000000000001137
 11
-38.5499999999995
 21
0.0000000000022708
 31
-0.000000000000037
210
0.000000000000001
220
0.0000000000000003
230
-1.0
 40
0.5758617009853121
 41
-0.000000000000529
 42
3.141592653589264
  0
ELLIPSE
  5
E5
330
CB
100
AcDbEntity
  8
可視
100
AcDbEllipse
 10
316.450287003508
 20
220.6363507096018
 30
0.0000000000001137
 11
-39.0000000000003
 21
0.0000000000023057
 31
-0.0000000000000434
210
0.0000000000000011
220
0.0000000000000005
230
-1.0
 40
0.5758617009853121
 41
-1.268478504366579
 42
4.410071157955308
  0
ELLIPSE
  5
E6
330
CB
100
AcDbEntity
  8
可視
100
AcDbEllipse
 10
316.4502870035081
 20
223.0889920841295
 30
0.0000000000001137
 11
-39.0000000000003
 21
0.0000000000023057
 31
-0.0000000000000434
210
0.0000000000000011
220
0.0000000000000005
230
-1.0
 40
0.5758617009853121
 41
-0.0000000000005314
 42
3.141592653589261
  0
ELLIPSE
  5
E7
330
CB
100
AcDbEntity
  8
可視
100
AcDbEllipse
 10
316.4502870035081
 20
188.3052083692117
 30
0.0000000000001137
 11
-6.682499999999663
 21
0.0000000000003936
 31
-0.0000000000000064
210
0.000000000000001
220
0.0000000000000002
230
-0.9999999999999998
 40
0.5758617009853121
 41
-2.356194490192863
 42
3.926990816986722
  0
ELLIPSE
  5
E8
330
CB
100
AcDbEntity
  8
可視
100
AcDbEllipse
 10
316.4502870035081
 20
207.9263393654327
 30
0.0000000000001137
 11
-6.682499999999642
 21
0.0000000000003939
 31
-0.0000000000000066
210
0.000000000000001
220
0.0000000000000003
230
-0.9999999999999998
 40
0.5758617009853121
 41
-0.0000000000005318
 42
3.141592653589261
  0
ELLIPSE
  5
E9
330
CB
100
AcDbEntity
  8
細線
100
AcDbEllipse
 10
316.4502870035081
 20
207.9263393654327
 30
0.0000000000001137
 11
-7.049999999999157
 21
0.0000000000004154
 31
-0.0000000000000062
210
0.0000000000000009
220
0.0000000000000005
230
-0.9999999999999998
 40
0.5758617009853121
 41
-0.3243052407289694
 42
3.465897894317711
  0
ELLIPSE
  5
EA
330
CB
100
AcDbEntity
  8
細線
100
AcDbEllipse
 10
316.450287003508
 20
208.0489714341591
 30
0.0000000000001137
 11
-7.19999999999916
 21
0.0000000000004234
 31
-0.0000000000000073
210
0.000000000000001
220
0.0000000000000003
230
-0.9999999999999998
 40
0.5758617009853121
 41
-0.0000000000005372
 42
3.141592653589255
  0
ELLIPSE
  5
EB
330
CB
100
AcDbEntity
  8
細線
100
AcDbEllipse
 10
316.4502870035081
 20
208.9073959152438
 30
0.0000000000001137
 11
-7.199999999999159
 21
0.0000000000004254
 31
-0.0000000000000072
210
0.000000000000001
220
0.0000000000000003
230
-1.0
 40
0.5758617009853121
 41
-0.0000000000005253
 42
3.141592653589267
  0
ELLIPSE
  5
EC
330
CB
100
AcDbEntity
  8
細線
100
AcDbEllipse
 10
316.450287003508
 20
209.8884524650551
 30
0.0000000000001137
 11
-5.699999999999024
 21
0.0000000000003359
 31
-0.0000000000000056
210
0.000000000000001
220
0.0000000000000003
230
-1.0
 40
0.5758617009853118
 41
1.17660846716748
 42
1.964984186422911
  0
ELLIPSE
  5
ED
330
CB
100
AcDbEntity
  8
細線
100
AcDbEllipse
 10
316.4502870035081
 20
210.0110845337815
 30
0.0000000000001137
 11
-5.849999999999022
 21
0.0000000000003447
 31
-0.0000000000000057
210
0.000000000000001
220
0.0000000000000004
230
-1.0
 40
0.5758617009853121
 41
0.7361822999301828
 42
2.405410353658566
  0
ELLIPSE
  5
EE
330
CB
100
AcDbEntity
  8
細線
100
AcDbEllipse
 10
316.4502870035081
 20
210.0110845337815
 30
0.0000000000001137
 11
-7.349999999998882
 21
0.0000000000004323
 31
-0.0000000000000075
210
0.000000000000001
220
0.0000000000000005
230
-0.9999999999999998
 40
0.5758617009853119
 41
-0.2091491815797578
 42
3.3507418351695
  0
ELLIPSE
  5
EF
330
CB
100
AcDbEntity
  8
細線
100
AcDbEllipse
 10
316.4502870035081
 20
210.1337166025078
 30
0.0000000000001137
 11
-7.499999999998884
 21
0.000000000000442
 31
-0.0000000000000074
210
0.000000000000001
220
0.0000000000000006
230
-1.0
 40
0.5758617009853121
 41
-0.0000000000005327
 42
3.14159265358926
  0
ELLIPSE
  5
F0
330
CB
100
AcDbEntity
  8
細線
100
AcDbEllipse
 10
316.4502870035081
 20
210.869509014865
 30
0.0000000000002274
 11
-7.499999999998879
 21
0.0000000000004418
 31
-0.0000000000000072
210
0.000000000000001
220
0.0000000000000006
230
-0.9999999999999998
 40
0.5758617009853121
 41
-0.0000000000005319
 42
3.141592653589261
  0
ELLIPSE
  5
F1
330
CB
100
AcDbEntity
  8
可視
100
AcDbEllipse
 10
316.4502870035081
 20
210.9921410835921
 30
0.0000000000001137
 11
-7.499999999999748
 21
0.0000000000004418
 31
-0.0000000000000065
210
0.0000000000000009
220
0.0000000000000003
230
-1.0
 40
0.5758617009853119
 41
-0.0140571523140521
 42
3.155649805902781
  0
ELLIPSE
  5
F2
330
CB
100
AcDbEntity
  8
可視
100
AcDbEllipse
 10
316.4502870035081
 20
211.1147731523184
 30
0.0000000000001137
 11
-7.499999999999748
 21
0.0000000000004418
 31
-0.0000000000000065
210
0.0000000000000009
220
0.0000000000000003
230
-1.0
 40
0.5758617009853119
 41
-0.0000000000005325
 42
3.14159265358926
  0
ENDBLK
  5
F3
330
CB
100
AcDbEntity
  8
0
100
AcDbBlockEnd
  0
BLOCK
  5
FA
330
F8
100
AcDbEntity
  8
0
100
AcDbBlockBegin
  2
ISO_A3_SHEET
 70
     0
 10
0.0
 20
0.0
 30
0.0
  3
ISO_A3_SHEET
  1

  0
LINE
  5
FB
330
F8
100
AcDbEntity
  8
Defpoints
100
AcDbLine
 10
0.0
 20
0.0
 30
0.0
 11
15.0
 21
0.0
 31
0.0
  0
LINE
  5
FC
330
F8
100
AcDbEntity
  8
Defpoints
100
AcDbLine
 10
405.0
 20
0.0
 30
0.0
 11
420.0
 21
0.0
 31
0.0
  0
LINE
  5
FD
330
F8
100
AcDbEntity
  8
Border
100
AcDbLine
 10
20.0
 20
10.0
 30
0.0
 11
410.0
 21
10.0
 31
0.0
  0
LINE
  5
FE
330
F8
100
AcDbEntity
  8
Defpoints
100
AcDbLine
 10
420.0
 20
0.0
 30
0.0
 11
420.0
 21
15.0
 31
0.0
  0
LINE
  5
FF
330
F8
100
AcDbEntity
  8
Defpoints
100
AcDbLine
 10
420.0
 20
282.0
 30
0.0
 11
420.0
 21
297.0
 31
0.0
  0
LINE
  5
100
330
F8
100
AcDbEntity
  8
Defpoints
100
AcDbLine
 10
420.0
 20
297.0
 30
0.0
 11
405.0
 21
297.0
 31
0.0
  0
LINE
  5
101
330
F8
100
AcDbEntity
  8
Defpoints
100
AcDbLine
 10
15.0
 20
297.0
 30
0.0
 11
0.0
 21
297.0
 31
0.0
  0
LINE
  5
102
330
F8
100
AcDbEntity
  8
Border
100
AcDbLine
 10
410.0
 20
287.0
 30
0.0
 11
20.0
 21
287.0
 31
0.0
  0
LINE
  5
103
330
F8
100
AcDbEntity
  8
Defpoints
100
AcDbLine
 10
0.0
 20
297.0
 30
0.0
 11
0.0
 21
282.0
 31
0.0
  0
LINE
  5
104
330
F8
100
AcDbEntity
  8
Defpoints
100
AcDbLine
 10
0.0
 20
15.0
 30
0.0
 11
0.0
 21
0.0
 31
0.0
  0
LINE
  5
105
330
F8
100
AcDbEntity
  8
Border
100
AcDbLine
 10
20.0
 20
287.0
 30
0.0
 11
20.0
 21
10.0
 31
0.0
  0
LINE
  5
106
330
F8
100
AcDbEntity
  8
Border
100
AcDbLine
 10
410.0
 20
287.0
 30
0.0
 11
410.0
 21
10.0
 31
0.0
  0
LINE
  5
107
330
F8
100
AcDbEntity
  8
Border
100
AcDbLine
 10
215.0
 20
5.0
 30
0.0
 11
215.0
 21
15.0
 31
0.0
  0
LINE
  5
108
330
F8
100
AcDbEntity
  8
Border
100
AcDbLine
 10
215.0
 20
292.0
 30
0.0
 11
215.0
 21
282.0
 31
0.0
  0
LINE
  5
109
330
F8
100
AcDbEntity
  8
Border
100
AcDbLine
 10
265.0
 20
292.0
 30
0.0
 11
265.0000000000001
 21
287.0
 31
0.0
  0
LINE
  5
10A
330
F8
100
AcDbEntity
  8
Border
100
AcDbLine
 10
315.0
 20
292.0
 30
0.0
 11
315.0000000000001
 21
287.0
 31
0.0
  0
LINE
  5
10B
330
F8
100
AcDbEntity
  8
Border
100
AcDbLine
 10
365.0
 20
292.0
 30
0.0
 11
365.0
 21
287.0
 31
0.0
  0
LINE
  5
10C
330
F8
100
AcDbEntity
  8
Border
100
AcDbLine
 10
165.0
 20
292.0
 30
0.0
 11
165.0000000000001
 21
287.0
 31
0.0
  0
LINE
  5
10D
330
F8
100
AcDbEntity
  8
Border
100
AcDbLine
 10
115.0
 20
292.0
 30
0.0
 11
115.0000000000001
 21
287.0
 31
0.0
  0
LINE
  5
10E
330
F8
100
AcDbEntity
  8
Border
100
AcDbLine
 10
65.0
 20
292.0
 30
0.0
 11
65.00000000000011
 21
287.0
 31
0.0
  0
LINE
  5
10F
330
F8
100
AcDbEntity
  8
Border
100
AcDbLine
 10
15.0
 20
148.5
 30
0.0
 11
25.0
 21
148.5
 31
0.0
  0
LINE
  5
110
330
F8
100
AcDbEntity
  8
Border
100
AcDbLine
 10
15.0
 20
100.66667
 30
0.0
 11
20.0
 21
100.66667
 31
0.0
  0
LINE
  5
111
330
F8
100
AcDbEntity
  8
Border
100
AcDbLine
 10
15.0
 20
52.83334
 30
0.0
 11
20.0
 21
52.83334
 31
0.0
  0
LINE
  5
112
330
F8
100
AcDbEntity
  8
Border
100
AcDbLine
 10
15.0
 20
196.33333
 30
0.0
 11
20.0
 21
196.33333
 31
0.0
  0
LINE
  5
113
330
F8
100
AcDbEntity
  8
Border
100
AcDbLine
 10
15.0
 20
244.16666
 30
0.0
 11
20.0
 21
244.1666599999999
 31
0.0
  0
LINE
  5
114
330
F8
100
AcDbEntity
  8
Border
100
AcDbLine
 10
415.0
 20
148.5
 30
0.0
 11
405.0
 21
148.5
 31
0.0
  0
LINE
  5
115
330
F8
100
AcDbEntity
  8
Border
100
AcDbLine
 10
265.0
 20
4.999999999999996
 30
0.0
 11
265.0000000000001
 21
9.999999999999996
 31
0.0
  0
LINE
  5
116
330
F8
100
AcDbEntity
  8
Border
100
AcDbLine
 10
315.0
 20
4.999999999999996
 30
0.0
 11
315.0000000000001
 21
9.999999999999996
 31
0.0
  0
LINE
  5
117
330
F8
100
AcDbEntity
  8
Border
100
AcDbLine
 10
365.0
 20
4.999999999999996
 30
0.0
 11
365.0
 21
9.999999999999996
 31
0.0
  0
LINE
  5
118
330
F8
100
AcDbEntity
  8
Border
100
AcDbLine
 10
165.0
 20
4.999999999999996
 30
0.0
 11
165.0000000000001
 21
9.999999999999996
 31
0.0
  0
LINE
  5
119
330
F8
100
AcDbEntity
  8
Border
100
AcDbLine
 10
115.0
 20
4.999999999999996
 30
0.0
 11
115.0000000000001
 21
9.999999999999996
 31
0.0
  0
LINE
  5
11A
330
F8
100
AcDbEntity
  8
Border
100
AcDbLine
 10
65.0
 20
4.999999999999996
 30
0.0
 11
65.00000000000011
 21
9.999999999999996
 31
0.0
  0
LINE
  5
11B
330
F8
100
AcDbEntity
  8
Border
100
AcDbLine
 10
415.0
 20
100.66667
 30
0.0
 11
410.0
 21
100.66667
 31
0.0
  0
LINE
  5
11C
330
F8
100
AcDbEntity
  8
Border
100
AcDbLine
 10
415.0
 20
52.83334
 30
0.0
 11
410.0
 21
52.83334
 31
0.0
  0
LINE
  5
11D
330
F8
100
AcDbEntity
  8
Border
100
AcDbLine
 10
415.0
 20
196.33333
 30
0.0
 11
410.0
 21
196.33333
 31
0.0
  0
LINE
  5
11E
330
F8
100
AcDbEntity
  8
Border
100
AcDbLine
 10
415.0
 20
244.16666
 30
0.0
 11
410.0
 21
244.1666599999999
 31
0.0
  0
TEXT
  5
11F
330
F8
100
AcDbEntity
  8
Border
100
AcDbText
 10
39.02881991814462
 20
288.2448840381992
 30
0.0
 40
2.5
  1
1
  7
FusionTitle
 72
     4
 11
40.0
 21
289.5
 31
0.0
100
AcDbText
  0
TEXT
  5
120
330
F8
100
AcDbEntity
  8
Border
100
AcDbText
 10
16.33526603001364
 20
266.83333
 30
0.0
 40
2.5
  1
A
  7
FusionTitle
 72
     4
 11
17.5
 21
268.0833299999999
 31
0.0
100
AcDbText
  0
TEXT
  5
121
330
F8
100
AcDbEntity
  8
Border
100
AcDbText
 10
89.0288199181446
 20
288.2448840381992
 30
0.0
 40
2.5
  1
2
  7
FusionTitle
 72
     4
 11
90.0
 21
289.5
 31
0.0
100
AcDbText
  0
TEXT
  5
122
330
F8
100
AcDbEntity
  8
Border
100
AcDbText
 10
139.0288199181446
 20
288.2670532060028
 30
0.0
 40
2.5
  1
3
  7
FusionTitle
 72
     4
 11
140.0
 21
289.5
 31
0.0
100
AcDbText
  0
TEXT
  5
123
330
F8
100
AcDbEntity
  8
Border
100
AcDbText
 10
189.0288199181445
 20
288.25
 30
0.0
 40
2.5
  1
4
  7
FusionTitle
 72
     4
 11
189.9999999999998
 21
289.5
 31
0.0
100
AcDbText
  0
TEXT
  5
124
330
F8
100
AcDbEntity
  8
Border
100
AcDbText
 10
239.0288199181446
 20
288.2883697135061
 30
0.0
 40
2.5
  1
5
  7
FusionTitle
 72
     4
 11
240.0
 21
289.5
 31
0.0
100
AcDbText
  0
TEXT
  5
125
330
F8
100
AcDbEntity
  8
Border
100
AcDbText
 10
289.0288199181446
 20
288.2662005457026
 30
0.0
 40
2.5
  1
6
  7
FusionTitle
 72
     4
 11
290.0
 21
289.5
 31
0.0
100
AcDbText
  0
TEXT
  5
126
330
F8
100
AcDbEntity
  8
Border
100
AcDbText
 10
339.0288199181445
 20
288.2662005457026
 30
0.0
 40
2.5
  1
7
  7
FusionTitle
 72
     4
 11
339.9999999999999
 21
289.5
 31
0.0
100
AcDbText
  0
TEXT
  5
127
330
F8
100
AcDbEntity
  8
Border
100
AcDbText
 10
389.0288199181444
 20
288.2662005457026
 30
0.0
 40
2.5
  1
8
  7
FusionTitle
 72
     4
 11
389.9999999999998
 21
289.5
 31
0.0
100
AcDbText
  0
TEXT
  5
128
330
F8
100
AcDbEntity
  8
Border
100
AcDbText
 10
39.02881991814462
 20
6.244884038199177
 30
0.0
 40
2.5
  1
1
  7
FusionTitle
 72
     4
 11
40.0
 21
7.499999999999996
 31
0.0
100
AcDbText
  0
TEXT
  5
129
330
F8
100
AcDbEntity
  8
Border
100
AcDbText
 10
89.0288199181446
 20
6.244884038199177
 30
0.0
 40
2.5
  1
2
  7
FusionTitle
 72
     4
 11
90.0
 21
7.499999999999996
 31
0.0
100
AcDbText
  0
TEXT
  5
12A
330
F8
100
AcDbEntity
  8
Border
100
AcDbText
 10
139.0288199181446
 20
6.267053206002724
 30
0.0
 40
2.5
  1
3
  7
FusionTitle
 72
     4
 11
140.0
 21
7.499999999999996
 31
0.0
100
AcDbText
  0
TEXT
  5
12B
330
F8
100
AcDbEntity
  8
Border
100
AcDbText
 10
189.0288199181445
 20
6.249999999999996
 30
0.0
 40
2.5
  1
4
  7
FusionTitle
 72
     4
 11
189.9999999999998
 21
7.499999999999996
 31
0.0
100
AcDbText
  0
TEXT
  5
12C
330
F8
100
AcDbEntity
  8
Border
100
AcDbText
 10
239.0288199181446
 20
6.288369713506135
 30
0.0
 40
2.5
  1
5
  7
FusionTitle
 72
     4
 11
240.0
 21
7.499999999999996
 31
0.0
100
AcDbText
  0
TEXT
  5
12D
330
F8
100
AcDbEntity
  8
Border
100
AcDbText
 10
289.0288199181446
 20
6.266200545702588
 30
0.0
 40
2.5
  1
6
  7
FusionTitle
 72
     4
 11
290.0
 21
7.499999999999996
 31
0.0
100
AcDbText
  0
TEXT
  5
12E
330
F8
100
AcDbEntity
  8
Border
100
AcDbText
 10
339.0288199181445
 20
6.266200545702588
 30
0.0
 40
2.5
  1
7
  7
FusionTitle
 72
     4
 11
339.9999999999999
 21
7.499999999999996
 31
0.0
100
AcDbText
  0
TEXT
  5
12F
330
F8
100
AcDbEntity
  8
Border
100
AcDbText
 10
389.0288199181444
 20
6.266200545702588
 30
0.0
 40
2.5
  1
8
  7
FusionTitle
 72
     4
 11
389.9999999999998
 21
7.499999999999996
 31
0.0
100
AcDbText
  0
TEXT
  5
130
330
F8
100
AcDbEntity
  8
Border
100
AcDbText
 10
16.33526603001364
 20
219.0
 30
0.0
 40
2.5
  1
B
  7
FusionTitle
 72
     4
 11
17.5
 21
220.25
 31
0.0
100
AcDbText
  0
TEXT
  5
131
330
F8
100
AcDbEntity
  8
Border
100
AcDbText
 10
16.23891541609823
 20
171.16667
 30
0.0
 40
2.5
  1
C
  7
FusionTitle
 72
     4
 11
17.5
 21
172.41667
 31
0.0
100
AcDbText
  0
TEXT
  5
132
330
F8
100
AcDbEntity
  8
Border
100
AcDbText
 10
16.23891541609823
 20
123.33334
 30
0.0
 40
2.5
  1
D
  7
FusionTitle
 72
     4
 11
17.5
 21
124.58334
 31
0.0
100
AcDbText
  0
TEXT
  5
133
330
F8
100
AcDbEntity
  8
Border
100
AcDbText
 10
16.33526603001364
 20
75.50001000000003
 30
0.0
 40
2.5
  1
E
  7
FusionTitle
 72
     4
 11
17.5
 21
76.75001000000003
 31
0.0
100
AcDbText
  0
TEXT
  5
134
330
F8
100
AcDbEntity
  8
Border
100
AcDbText
 10
16.43332196452933
 20
27.66668000000003
 30
0.0
 40
2.5
  1
F
  7
FusionTitle
 72
     4
 11
17.5
 21
28.91668000000003
 31
0.0
100
AcDbText
  0
TEXT
  5
135
330
F8
100
AcDbEntity
  8
Border
100
AcDbText
 10
411.3352660300136
 20
266.83333
 30
0.0
 40
2.5
  1
A
  7
FusionTitle
 72
     4
 11
412.5
 21
268.0833299999999
 31
0.0
100
AcDbText
  0
TEXT
  5
136
330
F8
100
AcDbEntity
  8
Border
100
AcDbText
 10
411.3352660300136
 20
219.0
 30
0.0
 40
2.5
  1
B
  7
FusionTitle
 72
     4
 11
412.5
 21
220.25
 31
0.0
100
AcDbText
  0
TEXT
  5
137
330
F8
100
AcDbEntity
  8
Border
100
AcDbText
 10
411.2389154160982
 20
171.16667
 30
0.0
 40
2.5
  1
C
  7
FusionTitle
 72
     4
 11
412.5
 21
172.41667
 31
0.0
100
AcDbText
  0
TEXT
  5
138
330
F8
100
AcDbEntity
  8
Border
100
AcDbText
 10
411.2389154160982
 20
123.33334
 30
0.0
 40
2.5
  1
D
  7
FusionTitle
 72
     4
 11
412.5
 21
124.58334
 31
0.0
100
AcDbText
  0
TEXT
  5
139
330
F8
100
AcDbEntity
  8
Border
100
AcDbText
 10
411.3352660300136
 20
75.50001000000003
 30
0.0
 40
2.5
  1
E
  7
FusionTitle
 72
     4
 11
412.5
 21
76.75001000000003
 31
0.0
100
AcDbText
  0
TEXT
  5
13A
330
F8
100
AcDbEntity
  8
Border
100
AcDbText
 10
411.4333219645293
 20
27.66668000000003
 30
0.0
 40
2.5
  1
F
  7
FusionTitle
 72
     4
 11
412.5
 21
28.91668000000003
 31
0.0
100
AcDbText
  0
ENDBLK
  5
13B
330
F8
100
AcDbEntity
  8
0
100
AcDbBlockEnd
  0
BLOCK
  5
142
330
13F
100
AcDbEntity
  8
0
100
AcDbBlockBegin
  2
ISO_TITLEBLOCK
 70
     2
 10
0.0
 20
0.0
 30
0.0
  3
ISO_TITLEBLOCK
  1

  0
LINE
  5
143
330
13F
100
AcDbEntity
  8
TitleBlock
100
AcDbLine
 10
-180.0
 20
0.0
 30
0.0
 11
0.0
 21
0.0
 31
0.0
  0
LINE
  5
144
330
13F
100
AcDbEntity
  8
TitleBlock
100
AcDbLine
 10
-61.0
 20
10.0
 30
0.0
 11
0.0
 21
10.0
 31
0.0
  0
LINE
  5
145
330
13F
100
AcDbEntity
  8
TitleBlock
100
AcDbLine
 10
-122.0
 20
27.0
 30
0.0
 11
0.0
 21
27.0
 31
0.0
  0
LINE
  5
146
330
13F
100
AcDbEntity
  8
TitleBlock
100
AcDbLine
 10
-180.0
 20
37.0
 30
0.0
 11
0.0
 21
37.0
 31
0.0
  0
LINE
  5
147
330
13F
100
AcDbEntity
  8
TitleBlock
100
AcDbLine
 10
0.0
 20
0.0
 30
0.0
 11
0.0
 21
47.0
 31
0.0
  0
LINE
  5
148
330
13F
100
AcDbEntity
  8
TitleBlock
100
AcDbLine
 10
-15.0
 20
0.0
 30
0.0
 11
-15.0
 21
10.0
 31
0.0
  0
LINE
  5
149
330
13F
100
AcDbEntity
  8
TitleBlock
100
AcDbLine
 10
-51.0
 20
0.0
 30
0.0
 11
-50.99999999999994
 21
10.0
 31
0.0
  0
LINE
  5
14A
330
13F
100
AcDbEntity
  8
TitleBlock
100
AcDbLine
 10
-61.0
 20
0.0
 30
0.0
 11
-61.0
 21
47.0
 31
0.0
  0
LINE
  5
14B
330
13F
100
AcDbEntity
  8
TitleBlock
100
AcDbLine
 10
-122.0
 20
0.0
 30
0.0
 11
-122.0
 21
47.0
 31
0.0
  0
LINE
  5
14C
330
13F
100
AcDbEntity
  8
TitleBlock
100
AcDbLine
 10
-156.0
 20
37.0
 30
0.0
 11
-156.0
 21
47.0
 31
0.0
  0
LINE
  5
14D
330
13F
100
AcDbEntity
  8
TitleBlock
100
AcDbLine
 10
0.0
 20
47.0
 30
0.0
 11
-180.0
 21
47.0
 31
0.0
  0
LINE
  5
14E
330
13F
100
AcDbEntity
  8
TitleBlock
100
AcDbLine
 10
-180.0
 20
47.0
 30
0.0
 11
-180.0
 21
0.0
 31
0.0
  0
TEXT
  5
14F
330
13F
100
AcDbEntity
  8
TitleBlock
100
AcDbText
 10
-179.0
 20
44.2
 30
0.0
 40
1.8
  1
Dept.
  7
FusionTitle
 11
-179.0
 21
46.0
 31
0.0
100
AcDbText
 73
     3
  0
TEXT
  5
150
330
13F
100
AcDbEntity
  8
TitleBlock
100
AcDbText
 10
-155.0
 20
44.2
 30
0.0
 40
1.8
  1
Technical reference
  7
FusionTitle
 11
-155.0
 21
46.0
 31
0.0
100
AcDbText
 73
     3
  0
TEXT
  5
151
330
13F
100
AcDbEntity
  8
TitleBlock
100
AcDbText
 10
-121.0
 20
44.2
 30
0.0
 40
1.8
  1
Created by
  7
FusionTitle
 11
-121.0
 21
46.0
 31
0.0
100
AcDbText
 73
     3
  0
TEXT
  5
152
330
13F
100
AcDbEntity
  8
TitleBlock
100
AcDbText
 10
-60.0
 20
44.2
 30
0.0
 40
1.8
  1
Approved by
  7
FusionTitle
 11
-60.0
 21
46.0
 31
0.0
100
AcDbText
 73
     3
  0
TEXT
  5
153
330
13F
100
AcDbEntity
  8
TitleBlock
100
AcDbText
 10
-121.0
 20
34.2
 30
0.0
 40
1.8
  1
Document type
  7
FusionTitle
 11
-121.0
 21
36.0
 31
0.0
100
AcDbText
 73
     3
  0
TEXT
  5
154
330
13F
100
AcDbEntity
  8
TitleBlock
100
AcDbText
 10
-60.0
 20
34.2
 30
0.0
 40
1.8
  1
Document status
  7
FusionTitle
 11
-60.0
 21
36.0
 31
0.0
100
AcDbText
 73
     3
  0
TEXT
  5
155
330
13F
100
AcDbEntity
  8
TitleBlock
100
AcDbText
 10
-121.0
 20
24.2
 30
0.0
 40
1.8
  1
Title
  7
FusionTitle
 11
-121.0
 21
26.0
 31
0.0
100
AcDbText
 73
     3
  0
TEXT
  5
156
330
13F
100
AcDbEntity
  8
TitleBlock
100
AcDbText
 10
-60.0
 20
24.2
 30
0.0
 40
1.8
  1
DWG No.
  7
FusionTitle
 11
-60.0
 21
26.0
 31
0.0
100
AcDbText
 73
     3
  0
TEXT
  5
157
330
13F
100
AcDbEntity
  8
TitleBlock
100
AcDbText
 10
-60.0
 20
7.2
 30
0.0
 40
1.8
  1
Rev.
  7
FusionTitle
 11
-60.0
 21
9.0
 31
0.0
100
AcDbText
 73
     3
  0
TEXT
  5
158
330
13F
100
AcDbEntity
  8
TitleBlock
100
AcDbText
 10
-49.99999999999994
 20
7.2
 30
0.0
 40
1.8
  1
Date of issue
  7
FusionTitle
 11
-49.99999999999994
 21
9.0
 31
0.0
100
AcDbText
 73
     3
  0
TEXT
  5
159
330
13F
100
AcDbEntity
  8
TitleBlock
100
AcDbText
 10
-14.0
 20
7.2
 30
0.0
 40
1.8
  1
Sheet
  7
FusionTitle
 11
-14.0
 21
9.0
 31
0.0
100
AcDbText
 73
     3
  0
ATTDEF
  5
15A
102
{ACAD_XDICTIONARY
360
15B
102
}
330
13F
100
AcDbEntity
  8
TitleBlock
100
AcDbText
 10
-50.0
 20
1.5
 30
0.0
 40
3.5
  1

  7
FusionTitle
 11
-50.0
 21
5.0
 31
0.0
100
AcDbAttributeDefinition
280
     0
  3
Date of issue
  2
DATE_OF_ISSUE
 70
     0
 74
     3
280
     1
  0
ATTDEF
  5
15C
102
{ACAD_XDICTIONARY
360
15D
102
}
330
13F
100
AcDbEntity
  8
TitleBlock
100
AcDbText
 10
-61.02677353342429
 20
1.349999999999999
 30
0.0
 40
3.5
  1

  7
FusionTitle
 72
     1
 11
-56.0
 21
4.849999999999999
 31
0.0
100
AcDbAttributeDefinition
280
     0
  3
Revision
  2
REV
 70
     0
 74
     3
280
     1
  0
ATTDEF
  5
15E
102
{ACAD_XDICTIONARY
360
15F
102
}
330
13F
100
AcDbEntity
  8
TitleBlock
100
AcDbText
 10
-121.0
 20
1.5
 30
0.0
 40
5.0
  1

  7
FusionTitle
 11
-121.0
 21
6.5
 31
0.0
100
AcDbAttributeDefinition
280
     0
  3
3rd Title
  2
TITLE_3
 70
     0
 74
     3
280
     1
  0
ATTDEF
  5
160
102
{ACAD_XDICTIONARY
360
161
102
}
330
13F
100
AcDbEntity
  8
TitleBlock
100
AcDbText
 10
-60.0
 20
28.5
 30
0.0
 40
3.5
  1

  7
FusionTitle
 11
-60.0
 21
32.0
 31
0.0
100
AcDbAttributeDefinition
280
     0
  3
Document status
  2
DOCUMENT_STATUS
 70
     0
 74
     3
280
     1
  0
ATTDEF
  5
162
102
{ACAD_XDICTIONARY
360
163
102
}
330
13F
100
AcDbEntity
  8
TitleBlock
100
AcDbText
 10
-121.0
 20
28.5
 30
0.0
 40
3.5
  1

  7
FusionTitle
 11
-121.0
 21
32.0
 31
0.0
100
AcDbAttributeDefinition
280
     0
  3
Document type
  2
DOCUMENT_TYPE
 70
     0
 74
     3
280
     1
  0
ATTDEF
  5
164
102
{ACAD_XDICTIONARY
360
165
102
}
330
13F
100
AcDbEntity
  8
TitleBlock
100
AcDbText
 10
-43.92394270122783
 20
38.5
 30
0.0
 40
3.5
  1

  7
FusionTitle
 72
     2
 11
-0.9928376534788512
 21
42.0
 31
0.0
100
AcDbAttributeDefinition
280
     0
  3
Approved date
  2
APPROVED_DATE
 70
     0
 74
     3
280
     1
  0
ATTDEF
  5
166
102
{ACAD_XDICTIONARY
360
167
102
}
330
13F
100
AcDbEntity
  8
TitleBlock
100
AcDbText
 10
-101.1231241473397
 20
38.5
 30
0.0
 40
3.5
  1

  7
FusionTitle
 72
     2
 11
-61.99999999999999
 21
42.0
 31
0.0
100
AcDbAttributeDefinition
280
     0
  3
Created date
  2
CREATED_DATE
 70
     0
 74
     3
280
     1
  0
ATTDEF
  5
168
102
{ACAD_XDICTIONARY
360
169
102
}
330
13F
100
AcDbEntity
  8
TitleBlock
100
AcDbText
 10
-15.65075034106412
 20
1.349999999999999
 30
0.0
 40
3.5
  1

  7
FusionTitle
 72
     1
 11
-7.5
 21
4.849999999999999
 31
0.0
100
AcDbAttributeDefinition
280
     0
  3
Sheet
  2
SHEET
 70
     0
 74
     3
280
     1
  0
ATTDEF
  5
16A
102
{ACAD_XDICTIONARY
360
16B
102
}
330
13F
100
AcDbEntity
  8
TitleBlock
100
AcDbText
 10
-121.0
 20
9.0
 30
0.0
 40
5.0
  1

  7
FusionTitle
 11
-121.0
 21
14.0
 31
0.0
100
AcDbAttributeDefinition
280
     0
  3
2nd Title
  2
TITLE_2
 70
     0
 74
     3
280
     1
  0
ATTDEF
  5
16C
102
{ACAD_XDICTIONARY
360
16D
102
}
330
13F
100
AcDbEntity
  8
TitleBlock
100
AcDbText
 10
-64.45634379263302
 20
14.75143246930423
 30
0.0
 40
5.0
  1

  7
FusionTitle
 72
     1
 11
-30.50000000000001
 21
19.75143246930423
 31
0.0
100
AcDbAttributeDefinition
280
     0
  3
Drawing number
  2
DRAWING_NUMBER
 70
     0
 74
     3
280
     1
  0
ATTDEF
  5
16E
102
{ACAD_XDICTIONARY
360
16F
102
}
330
13F
100
AcDbEntity
  8
TitleBlock
100
AcDbText
 10
-121.0
 20
16.5
 30
0.0
 40
5.0
  1

  7
FusionTitle
 11
-121.0
 21
21.5
 31
0.0
100
AcDbAttributeDefinition
280
     0
  3
1st Title
  2
TITLE_1
 70
     0
 74
     3
280
     1
  0
ATTDEF
  5
170
102
{ACAD_XDICTIONARY
360
171
102
}
330
13F
100
AcDbEntity
  8
TitleBlock
100
AcDbText
 10
-60.0
 20
38.5
 30
0.0
 40
3.5
  1

  7
FusionTitle
 11
-60.0
 21
42.0
 31
0.0
100
AcDbAttributeDefinition
280
     0
  3
Approved by
  2
APPROVED_BY
 70
     0
 74
     3
280
     1
  0
ATTDEF
  5
172
102
{ACAD_XDICTIONARY
360
173
102
}
330
13F
100
AcDbEntity
  8
TitleBlock
100
AcDbText
 10
-121.0
 20
38.5
 30
0.0
 40
3.5
  1

  7
FusionTitle
 11
-121.0
 21
42.0
 31
0.0
100
AcDbAttributeDefinition
280
     0
  3
Created by
  2
CREATED_BY
 70
     0
 74
     3
280
     1
  0
ATTDEF
  5
174
102
{ACAD_XDICTIONARY
360
175
102
}
330
13F
100
AcDbEntity
  8
TitleBlock
100
AcDbText
 10
-155.0
 20
38.5
 30
0.0
 40
3.5
  1

  7
FusionTitle
 11
-155.0
 21
42.0
 31
0.0
100
AcDbAttributeDefinition
280
     0
  3
Technical reference
  2
TECHNICAL_REFERENCE
 70
     0
 74
     3
280
     1
  0
ATTDEF
  5
176
102
{ACAD_XDICTIONARY
360
177
102
}
330
13F
100
AcDbEntity
  8
TitleBlock
100
AcDbText
 10
-179.0
 20
38.5
 30
0.0
 40
3.5
  1

  7
FusionTitle
 11
-179.0
 21
42.0
 31
0.0
100
AcDbAttributeDefinition
280
     0
  3
Department
  2
DEPT
 70
     0
 74
     3
280
     1
  0
ENDBLK
  5
178
330
13F
100
AcDbEntity
  8
0
100
AcDbBlockEnd
  0
ENDSEC
  0
SECTION
  2
ENTITIES
  0
SPLINE
  5
1ED
330
70
100
AcDbEntity
  8
可視
100
AcDbSpline
210
-0.0000000000000014
220
-0.0000000000000006
230
1.0
 70
     8
 71
     3
 72
    16
 73
    12
 74
     0
 42
0.000000001
 43
0.0000000001
 40
5.497787143782285
 40
5.497787143782285
 40
5.497787143782285
 40
5.497787143782285
 40
5.810474309798163
 40
5.810474309798163
 40
6.128249370659032
 40
6.128249370659032
 40
6.449928179004221
 40
6.449928179004221
 40
6.771842987865598
 40
6.771842987865598
 40
6.893493535550555
 40
6.893493535550555
 40
6.893493535550555
 40
6.893493535550555
 10
115.649999999998
 20
96.73541769282792
 30
0.0000000000007846
 10
115.6499999999982
 20
89.63061231475865
 30
0.0000000000007846
 10
113.7000241988871
 20
82.53364774858813
 30
0.0000000000004435
 10
106.1083375287633
 20
69.01104707929005
 30
0.0000000000007846
 10
100.414720992406
 20
62.59513054182969
 30
0.0000000000007846
 10
85.82148385479809
 20
51.08043821281103
 30
0.0000000000007846
 10
76.88316061060323
 20
45.99849160743326
 30
0.0000000000004435
 10
56.7079085578157
 20
37.72774909062912
 30
0.0000000000007846
 10
45.47201119821647
 20
34.54218045797905
 30
0.0000000000004435
 10
29.19071990067209
 20
31.67536546070551
 30
0.0000000000004435
 10
24.64353370677532
 20
31.04592267560929
 30
0.0000000000004435
 10
20.04749999999853
 20
30.57772140805992
 30
0.0000000000007846
  0
SPLINE
  5
1EE
330
70
100
AcDbEntity
  8
可視
100
AcDbSpline
210
0.0000000000000025
220
0.0000000000000031
230
-1.0
 70
     8
 71
     3
 72
    16
 73
    12
 74
     0
 42
0.000000001
 43
0.0000000001
 40
7.243673405603809
 40
7.243673405603809
 40
7.243673405603809
 40
7.243673405603809
 40
7.414868965466419
 40
7.414868965466419
 40
7.736488003780251
 40
7.736488003780251
 40
8.058446739742683
 40
8.058446739742683
 40
8.379869883581948
 40
8.379869883581948
 40
8.639379797372079
 40
8.639379797372079
 40
8.639379797372079
 40
8.639379797372079
 10
-20.04749999999967
 20
30.57772140805992
 30
0.0000000000007846
 10
-26.51537522582032
 20
31.23660852079286
 30
0.0000000000007846
 10
-32.88633563174676
 20
32.21517905101121
 30
0.0000000000004435
 10
-50.68347953503963
 20
35.91316111808192
 30
0.0000000000004435
 10
-61.62648802771468
 20
39.41213966225485
 30
0.0000000000011256
 10
-81.08209987830878
 20
48.25020125888079
 30
0.0000000000007846
 10
-89.58974943406998
 20
53.58940001936492
 30
0.0000000000004435
 10
-103.2776932496679
 20
65.59599345164031
 30
0.0000000000004435
 10
-108.463432352099
 20
72.26270173797388
 30
0.0000000000007846
 10
-114.31085270285
 20
84.94573558381546
 30
0.0000000000004435
 10
-115.649999999999
 20
90.83889352571565
 30
0.0000000000007846
 10
-115.649999999999
 20
96.73541769282735
 30
0.0000000000007846
  0
LINE
  5
1EF
330
70
100
AcDbEntity
  8
可視
100
AcDbLine
 10
-115.6499999999989
 20
96.73541769282724
 30
0.0000000000001024
 11
-115.6499999999987
 21
96.99342702117007
 31
0.0000000000001024
210
0.0000000000000001
220
0.8175471248425397
230
-0.5758617009853119
  0
LINE
  5
1F0
330
70
100
AcDbEntity
  8
可視
100
AcDbLine
 10
115.649999999998
 20
96.73541769282781
 30
0.0000000000001024
 11
115.649999999998
 21
96.9934270211703
 31
0.0000000000004435
210
0.0000000000000001
220
0.8175471248425397
230
-0.5758617009853119
  0
LINE
  5
1F1
330
70
100
AcDbEntity
  8
可視
100
AcDbLine
 10
-117.0000000000012
 20
96.99342702117007
 30
0.0000000000001024
 11
-117.0000000000011
 21
104.351351144753
 31
0.0000000000004435
210
0.0000000000000001
220
0.8175471248425397
230
-0.5758617009853119
  0
LINE
  5
1F2
330
70
100
AcDbEntity
  8
可視
100
AcDbLine
 10
117.0000000000007
 20
96.99342702117053
 30
0.0000000000004435
 11
117.0000000000002
 21
104.3513511447531
 31
0.0000000000001024
210
0.0000000000000001
220
0.8175471248425397
230
-0.5758617009853119
  0
LINE
  5
1F3
330
70
100
AcDbEntity
  8
可視
100
AcDbLine
 10
-20.04749999999899
 20
0.0
 30
0.0000000000004435
 11
-20.04749999999922
 21
58.86339298866278
 31
0.0000000000001024
210
0.0000000000000001
220
0.8175471248425397
230
-0.5758617009853119
  0
LINE
  5
1F4
330
70
100
AcDbEntity
  8
可視
100
AcDbLine
 10
20.04749999999853
 20
0.0
 30
0.0000000000001024
 11
20.04749999999877
 21
58.86339298866278
 31
-0.0000000000002386
210
0.0000000000000001
220
0.8175471248425397
230
-0.5758617009853119
  0
SPLINE
  5
1F5
330
70
100
AcDbEntity
  8
可視
100
AcDbSpline
210
0.000000000000935
220
-0.0000000000003635
230
1.0
 70
     8
 71
     3
 72
    10
 73
     6
 74
     0
 42
0.000000001
 43
0.0000000001
 40
5.497787143782285
 40
5.497787143782285
 40
5.497787143782285
 40
5.497787143782285
 40
5.805026056562841
 40
5.805026056562841
 40
5.873310652293675
 40
5.873310652293675
 40
5.873310652293675
 40
5.873310652293675
 10
21.59999999999718
 20
59.23128919484213
 30
0.0000000000007846
 10
21.59999999999741
 20
57.90392362945772
 30
0.0000000000004435
 10
21.24140565081302
 20
56.57882636489773
 30
0.0000000000007846
 10
20.40088921131474
 20
55.05332081792198
 30
0.0000000000007846
 10
20.23196506555894
 20
54.77959692260651
 30
0.0000000000004435
 10
20.04749999999842
 20
54.51014505421824
 30
0.0000000000004435
  0
SPLINE
  5
1F6
330
70
100
AcDbEntity
  8
可視
100
AcDbSpline
210
-0.0000000000003938
220
-0.0000000000001469
230
-1.0
 70
     8
 71
     3
 72
    10
 73
     6
 74
     0
 42
0.000000001
 43
0.0000000001
 40
8.263856288860688
 40
8.263856288860688
 40
8.263856288860688
 40
8.263856288860688
 40
8.381466759855674
 40
8.381466759855674
 40
8.639379797372079
 40
8.639379797372079
 40
8.639379797372079
 40
8.639379797372079
 10
-20.04749999999922
 20
54.51014505421824
 30
0.0000000000004435
 10
-20.36521474972415
 20
54.97423744302785
 30
0.0000000000004435
 10
-20.63680405754451
 20
55.45103788356891
 30
0.0000000000007846
 10
-21.34808291225613
 20
57.00379257330599
 30
0.0000000000007846
 10
-21.59999999999798
 20
58.11702641554496
 30
0.0000000000004435
 10
-21.59999999999798
 20
59.23128919484213
 30
0.0000000000004435
  0
LINE
  5
1F7
330
70
100
AcDbEntity
  8
可視
100
AcDbLine
 10
-21.59999999999798
 20
59.23128919484168
 30
-0.0000000000002386
 11
-21.59999999999809
 21
61.8065626380959
 31
0.0000000000001024
210
0.0000000000000001
220
0.8175471248425397
230
-0.5758617009853119
  0
LINE
  5
1F8
330
70
100
AcDbEntity
  8
可視
100
AcDbLine
 10
21.59999999999741
 20
59.23128919484224
 30
0.0000000000001024
 11
21.59999999999695
 21
61.8065626380959
 31
0.0000000000001024
210
0.0000000000000001
220
0.8175471248425397
230
-0.5758617009853119
  0
SPLINE
  5
1F9
330
70
100
AcDbEntity
  8
可視
100
AcDbSpline
210
-0.0000000000000051
220
-0.0000000000000113
230
1.0
 70
     8
 71
     3
 72
    26
 73
    22
 74
     0
 42
0.000000001
 43
0.0000000001
 40
2.356194490192492
 40
2.356194490192492
 40
2.356194490192492
 40
2.356194490192492
 40
2.663433402973048
 40
2.663433402973048
 40
2.979197929158186
 40
2.979197929158186
 40
3.302099978046334
 40
3.302099978046334
 40
3.625540535885846
 40
3.625540535885846
 40
3.948376287985983
 40
3.948376287985983
 40
4.270982118633453
 40
4.270982118633453
 40
4.593885117226671
 40
4.593885117226671
 40
4.917389356809615
 40
4.917389356809615
 40
5.23987410626588
 40
5.23987410626588
 40
5.497787143782285
 40
5.497787143782285
 40
5.497787143782285
 40
5.497787143782285
 10
-21.59999999999809
 20
61.80656263809613
 30
0.0000000000004435
 10
-21.59999999999809
 20
63.13392820348088
 30
0.0000000000001024
 10
-21.2414056508137
 20
64.45902546804029
 30
0.0000000000004435
 10
-19.84696663315958
 20
66.9898795434475
 30
0.0000000000007846
 10
-18.79494604849435
 20
68.19251840845118
 30
0.0000000000004435
 10
-16.09079950256182
 20
70.3599733859345
 30
0.0000000000004435
 10
-14.42522388050111
 20
71.31924391742848
 30
0.0000000000004435
 10
-10.66275343042775
 20
72.88209769378568
 30
0.0000000000007846
 10
-8.565515764200881
 20
73.48468048729955
 30
0.0000000000007846
 10
-4.15633174739969
 20
74.27414659298154
 30
0.0000000000004435
 10
-1.845553900254344
 20
74.46158894596999
 30
0.0000000000007846
 10
2.759534348201214
 20
74.40486829766257
 30
0.0000000000007846
 10
5.053029972160175
 20
74.16103034933485
 30
0.0000000000007846
 10
9.396363011856919
 20
73.26503014265734
 30
0.0000000000004435
 10
11.44524384892702
 20
72.61274213749243
 30
0.0000000000004435
 10
15.09435283450375
 20
70.95850993039437
 30
0.0000000000004435
 10
16.69344731405317
 20
69.9563032977934
 30
0.0000000000007846
 10
19.26950813967607
 20
67.69403279979894
 30
0.0000000000007846
 10
20.24875180824131
 20
66.43394998606743
 30
0.0000000000007846
 10
21.34808291225545
 20
64.03405925963205
 30
0.0000000000007846
 10
21.59999999999718
 20
62.92082541739308
 30
0.0000000000007846
 10
21.59999999999718
 20
61.80656263809613
 30
0.0000000000004435
  0
SPLINE
  5
1FA
330
70
100
AcDbEntity
  8
可視
100
AcDbSpline
210
-0.0000000000016395
220
0.0000000000004794
230
1.0
 70
     8
 71
     3
 72
     8
 73
     4
 74
     0
 42
0.000000001
 43
0.0000000001
 40
5.497787143782285
 40
5.497787143782285
 40
5.497787143782285
 40
5.497787143782285
 40
5.776827169271714
 40
5.776827169271714
 40
5.776827169271714
 40
5.776827169271714
 10
22.49999999999636
 20
65.4855246998884
 30
0.0000000000004435
 10
22.49999999999614
 20
64.23178036659521
 30
0.0000000000004435
 10
22.19298080518979
 20
62.97951372890918
 30
0.0000000000004435
 10
21.59999999999718
 20
61.78769261858088
 30
0.0000000000007846
  0
SPLINE
  5
1FB
330
70
100
AcDbEntity
  8
可視
100
AcDbSpline
210
0.0000000000021933
220
0.0000000000006546
230
1.0
 70
     8
 71
     3
 72
    10
 73
     6
 74
     0
 42
0.000000001
 43
0.0000000001
 40
8.360339771882649
 40
8.360339771882649
 40
8.360339771882649
 40
8.360339771882649
 40
8.381322947106006
 40
8.381322947106006
 40
8.639379797372079
 40
8.639379797372079
 40
8.639379797372079
 40
8.639379797372079
 10
-21.59999999999798
 20
61.78769261858076
 30
0.0000000000004435
 10
-21.64459080777783
 20
61.87731485520806
 30
0.0000000000007846
 10
-21.68757951323028
 20
61.96726839774988
 30
0.0000000000007846
 10
-22.23775561339812
 20
63.16762833213499
 30
0.0000000000007846
 10
-22.49999999999716
 20
64.32605908874143
 30
0.0000000000004435
 10
-22.49999999999705
 20
65.4855246998884
 30
0.0000000000004435
  0
LINE
  5
1FC
330
70
100
AcDbEntity
  8
可視
100
AcDbLine
 10
-22.49999999999682
 20
65.48552469988806
 30
0.0000000000001024
 11
-22.49999999999682
 21
67.69290193695974
 31
0.0000000000001024
210
0.0000000000000001
220
0.8175471248425397
230
-0.5758617009853119
  0
LINE
  5
1FD
330
70
100
AcDbEntity
  8
可視
100
AcDbLine
 10
22.49999999999659
 20
65.4855246998884
 30
0.0000000000004435
 11
22.49999999999636
 21
67.69290193695974
 31
0.0000000000001024
210
0.0000000000000001
220
0.8175471248425397
230
-0.5758617009853119
  0
SPLINE
  5
1FE
330
70
100
AcDbEntity
  8
可視
100
AcDbSpline
210
-0.0000000000000004
220
-0.0000000000000014
230
1.0
 70
     8
 71
     3
 72
    26
 73
    22
 74
     0
 42
0.000000001
 43
0.0000000001
 40
2.356194490192492
 40
2.356194490192492
 40
2.356194490192492
 40
2.356194490192492
 40
2.663918904255815
 40
2.663918904255815
 40
2.979875204070561
 40
2.979875204070561
 40
3.302669749813714
 40
3.302669749813714
 40
3.625970699275564
 40
3.625970699275564
 40
3.94869088340916
 40
3.94869088340916
 40
4.271191010155336
 40
4.271191010155336
 40
4.593976705964095
 40
4.593976705964095
 40
4.917340044409831
 40
4.917340044409831
 40
5.239730293516214
 40
5.239730293516214
 40
5.497787143782285
 40
5.497787143782285
 40
5.497787143782285
 40
5.497787143782285
 10
-22.49999999999705
 20
67.69290193695963
 30
0.0000000000004435
 10
-22.49999999999682
 20
69.07552702693067
 30
0.0000000000007846
 10
-22.12594515862293
 20
70.45585993588781
 30
0.0000000000007846
 10
-20.67122958633104
 20
73.09167372214222
 30
0.0000000000007846
 10
-19.57428720283587
 20
74.3440366389367
 30
0.0000000000007846
 10
-16.75540930673242
 20
76.60022596632654
 30
0.0000000000004435
 10
-15.0200570743134
 20
77.59851159945208
 30
0.0000000000007846
 10
-11.10026208183001
 20
79.22476030405494
 30
0.0000000000004435
 10
-8.915519863028293
 20
79.85172433912123
 30
0.0000000000007846
 10
-4.322411099670489
 20
80.67287463360163
 30
0.0000000000007846
 10
-1.915245161308803
 20
80.86761493044503
 30
0.0000000000007846
 10
2.881754433768946
 20
80.80766107493298
 30
0.0000000000007846
 10
5.270740110763767
 20
80.55329168987805
 30
0.0000000000007846
 10
9.794487242910122
 20
79.61945922309962
 30
0.0000000000004435
 10
11.92826015356058
 20
78.93987655990975
 30
0.0000000000004435
 10
15.72795851968908
 20
77.21705380657465
 30
0.0000000000007846
 10
17.39272187986682
 20
76.17356312019911
 30
0.0000000000007846
 10
20.07426989313604
 20
73.81890806534613
 30
0.0000000000007846
 10
21.09330287430953
 20
72.50773558421144
 30
0.0000000000007846
 10
22.23775561339755
 20
70.01079830471337
 30
0.0000000000007846
 10
22.49999999999614
 20
68.8523675481066
 30
0.0000000000007846
 10
22.49999999999636
 20
67.69290193695963
 30
0.0000000000004435
  0
LINE
  5
1FF
330
70
100
AcDbEntity
  8
可視
100
AcDbLine
 10
-22.49999999999955
 20
68.06079814314057
 30
0.0000000000001024
 11
-22.49999999999977
 21
68.42869434931992
 31
0.0000000000001024
210
0.0000000000000001
220
0.8175471248425397
230
-0.5758617009853119
  0
LINE
  5
200
330
70
100
AcDbEntity
  8
可視
100
AcDbLine
 10
22.49999999999875
 20
68.06079814314092
 30
0.0000000000001024
 11
22.49999999999886
 21
68.42869434932016
 31
0.0000000000007846
210
0.0000000000000001
220
0.8175471248425397
230
-0.5758617009853119
  0
ELLIPSE
  5
201
330
70
100
AcDbEntity
  8
細線
 62
     5
370
     0
100
AcDbEllipse
 10
-0.0000000000004547
 20
68.49444327870765
 30
0.0000000000004435
 11
-22.72244959369249
 21
0.0000000000013384
 31
-0.0000000000000196
210
0.0000000000000009
220
0.0000000000000004
230
-1.0
 40
0.5758617009853119
 41
-0.1400419586945185
 42
3.281634612283218
  0
ELLIPSE
  5
202
330
70
100
AcDbEntity
  8
細線
 62
     5
370
     0
100
AcDbEllipse
 10
-0.0000000000002274
 20
95.69747800367304
 30
0.0000000000001024
 11
-114.7589903940085
 21
0.0000000000067759
 31
-0.0000000000000999
210
0.0000000000000009
220
0.0000000000000004
230
-1.0
 40
0.5758617009853119
 41
-1.395203178673833
 42
4.53679583226406
  0
ELLIPSE
  5
203
330
70
100
AcDbEntity
  8
細線
 62
     5
370
     0
100
AcDbEllipse
 10
0.0
 20
96.73541769282758
 30
0.0000000000001024
 11
-115.6499999999984
 21
0.0000000000068123
 31
-0.0000000000001111
210
0.000000000000001
220
0.0000000000000004
230
-1.0
 40
0.5758617009853121
 41
-0.0000000000005291
 42
3.141592653589264
  0
ELLIPSE
  5
204
330
70
100
AcDbEntity
  8
可視
100
AcDbEllipse
 10
-0.0000000000004547
 20
96.99342702117007
 30
0.0000000000001024
 11
-115.6499999999985
 21
0.0000000000068123
 31
-0.0000000000001111
210
0.000000000000001
220
0.0000000000000003
230
-1.0
 40
0.5758617009853121
 41
-0.000000000000529
 42
3.141592653589264
  0
ELLIPSE
  5
205
330
70
100
AcDbEntity
  8
可視
100
AcDbEllipse
 10
-0.0000000000004547
 20
96.99342702117007
 30
0.0000000000001024
 11
-117.0000000000009
 21
0.000000000006917
 31
-0.0000000000001301
210
0.0000000000000011
220
0.0000000000000005
230
-1.0
 40
0.5758617009853121
 41
-1.268478504366579
 42
4.410071157955308
  0
ELLIPSE
  5
206
330
70
100
AcDbEntity
  8
可視
100
AcDbEllipse
 10
-0.0000000000002274
 20
104.3513511447531
 30
0.0000000000001024
 11
-117.0000000000009
 21
0.000000000006917
 31
-0.0000000000001301
210
0.0000000000000011
220
0.0000000000000005
230
-1.0
 40
0.5758617009853121
 41
-0.0000000000005314
 42
3.141592653589261
  0
ELLIPSE
  5
207
330
70
100
AcDbEntity
  8
可視
100
AcDbEllipse
 10
0.0
 20
0.0
 30
0.0000000000001024
 11
-20.04749999999899
 21
0.0000000000011808
 31
-0.0000000000000192
210
0.000000000000001
220
0.0000000000000002
230
-1.0
 40
0.5758617009853121
 41
-2.356194490192863
 42
3.926990816986722
  0
ELLIPSE
  5
208
330
70
100
AcDbEntity
  8
可視
100
AcDbEllipse
 10
-0.0000000000002274
 20
58.86339298866289
 30
0.0000000000001024
 11
-20.04749999999893
 21
0.0000000000011818
 31
-0.0000000000000199
210
0.000000000000001
220
0.0000000000000003
230
-1.0
 40
0.5758617009853121
 41
-0.0000000000005318
 42
3.141592653589261
  0
ELLIPSE
  5
209
330
70
100
AcDbEntity
  8
細線
 62
     5
370
     0
100
AcDbEllipse
 10
-0.0000000000002274
 20
58.86339298866289
 30
0.0000000000001024
 11
-21.14999999999747
 21
0.0000000000012462
 31
-0.0000000000000186
210
0.0000000000000009
220
0.0000000000000005
230
-1.0
 40
0.5758617009853121
 41
-0.3243052407289694
 42
3.465897894317711
  0
ELLIPSE
  5
20A
330
70
100
AcDbEntity
  8
細線
 62
     5
370
     0
100
AcDbEllipse
 10
-0.0000000000004547
 20
59.23128919484213
 30
0.0000000000001024
 11
-21.59999999999748
 21
0.0000000000012703
 31
-0.0000000000000218
210
0.000000000000001
220
0.0000000000000003
230
-1.0
 40
0.5758617009853121
 41
-0.0000000000005372
 42
3.141592653589255
  0
ELLIPSE
  5
20B
330
70
100
AcDbEntity
  8
細線
 62
     5
370
     0
100
AcDbEllipse
 10
-0.0000000000002274
 20
61.80656263809613
 30
0.0000000000001024
 11
-21.59999999999748
 21
0.0000000000012763
 31
-0.0000000000000215
210
0.000000000000001
220
0.0000000000000003
230
-1.0
 40
0.5758617009853121
 41
-0.0000000000005253
 42
3.141592653589267
  0
ELLIPSE
  5
20C
330
70
100
AcDbEntity
  8
細線
 62
     5
370
     0
100
AcDbEllipse
 10
-0.0000000000004547
 20
64.74973228753004
 30
0.0000000000001024
 11
-17.09999999999707
 21
0.0000000000010077
 31
-0.0000000000000167
210
0.000000000000001
220
0.0000000000000003
230
-1.0
 40
0.5758617009853118
 41
1.17660846716748
 42
1.964984186422911
  0
ELLIPSE
  5
20D
330
70
100
AcDbEntity
  8
細線
 62
     5
370
     0
100
AcDbEllipse
 10
0.0
 20
65.11762849370905
 30
0.0000000000001024
 11
-17.54999999999707
 21
0.0000000000010341
 31
-0.0000000000000171
210
0.000000000000001
220
0.0000000000000004
230
-1.0
 40
0.5758617009853121
 41
0.7361822999301828
 42
2.405410353658566
  0
ELLIPSE
  5
20E
330
70
100
AcDbEntity
  8
細線
 62
     5
370
     0
100
AcDbEllipse
 10
0.0
 20
65.11762849370905
 30
0.0000000000001024
 11
-22.04999999999665
 21
0.000000000001297
 31
-0.0000000000000225
210
0.000000000000001
220
0.0000000000000005
230
-1.0
 40
0.5758617009853119
 41
-0.2091491815797578
 42
3.3507418351695
  0
ELLIPSE
  5
20F
330
70
100
AcDbEntity
  8
細線
 62
     5
370
     0
100
AcDbEllipse
 10
-0.0000000000002274
 20
65.48552469988829
 30
0.0000000000001024
 11
-22.49999999999666
 21
0.0000000000013261
 31
-0.0000000000000221
210
0.000000000000001
220
0.0000000000000006
230
-1.0
 40
0.5758617009853122
 41
-0.0000000000005327
 42
3.14159265358926
  0
ELLIPSE
  5
210
330
70
100
AcDbEntity
  8
細線
 62
     5
370
     0
100
AcDbEllipse
 10
-0.0000000000002274
 20
67.69290193695974
 30
0.0000000000004435
 11
-22.49999999999664
 21
0.0000000000013254
 31
-0.0000000000000216
210
0.000000000000001
220
0.0000000000000006
230
-1.0
 40
0.5758617009853121
 41
-0.0000000000005319
 42
3.141592653589261
  0
ELLIPSE
  5
211
330
70
100
AcDbEntity
  8
可視
100
AcDbEllipse
 10
0.0
 20
68.06079814314092
 30
0.0000000000001024
 11
-22.49999999999925
 21
0.0000000000013253
 31
-0.0000000000000194
210
0.0000000000000009
220
0.0000000000000003
230
-1.0
 40
0.5758617009853118
 41
-0.0140571523140521
 42
3.155649805902781
  0
ELLIPSE
  5
212
330
70
100
AcDbEntity
  8
可視
100
AcDbEllipse
 10
-0.0000000000002274
 20
68.42869434931992
 30
0.0000000000001024
 11
-22.49999999999925
 21
0.0000000000013253
 31
-0.0000000000000194
210
0.0000000000000009
220
0.0000000000000003
230
-1.0
 40
0.5758617009853118
 41
-0.0000000000005325
 42
3.14159265358926
  0
MTEXT
  5
21D
330
70
100
AcDbEntity
  8
7：文字
 62
     7
 48
2.0
100
AcDbMText
 10
66.60204586814041
 20
14.68439648489379
 30
0.0
 40
20.0
 41
188.2662939976999
 46
0.0
 71
     1
 72
     5
  1
{\fMS PGothic|b0|i0|c128|p50;LP-E2091B-22N}
 73
     1
 44
1.0
1001
ACAD
1000
ACAD_MTEXT_COLUMN_INFO_BEGIN
1070
    75
1070
     2
1070
    79
1070
     0
1070
    76
1070
     1
1070
    78
1070
     0
1070
    48
1040
188.2662939976999
1070
    49
1040
15.0
1070
    50
1070
     1
1040
0.0
1000
ACAD_MTEXT_COLUMN_INFO_END
  0
ENDSEC
  0
SECTION
  2
OBJECTS
  0
DICTIONARY
  5
C
330
0
100
AcDbDictionary
281
     1
  3
ACAD_CIP_PREVIOUS_PRODUCT_INFO
350
1EC
  3
ACAD_COLOR
350
63
  3
ACAD_DETAILVIEWSTYLE
350
6A
  3
ACAD_GROUP
350
D
  3
ACAD_LAYOUT
350
62
  3
ACAD_MATERIAL
350
10
  3
ACAD_MLEADERSTYLE
350
66
  3
ACAD_MLINESTYLE
350
5F
  3
ACAD_PLOTSETTINGS
350
61
  3
ACAD_PLOTSTYLENAME
350
E
  3
ACAD_SCALELIST
350
42
  3
ACAD_SECTIONVIEWSTYLE
350
68
  3
ACAD_TABLESTYLE
350
64
  3
ACAD_VISUALSTYLE
350
29
  3
ACDB_RECOMPOSE_DATA
350
246
  3
AcDbVariableDictionary
350
1DB
  0
DICTIONARY
  5
216
330
2
100
AcDbDictionary
280
     1
281
     1
  3
ACAD_LAYERSTATES
360
217
  0
DICTIONARY
  5
214
330
213
100
AcDbDictionary
280
     1
281
     1
  0
DICTIONARY
  5
81
330
70
100
AcDbDictionary
280
     1
281
     1
  3
ACAD_SORTENTS
360
82
  0
DICTIONARY
  5
F9
330
F8
100
AcDbDictionary
280
     1
281
     1
  0
DICTIONARY
  5
140
330
13F
100
AcDbDictionary
280
     1
281
     1
  3
ACAD_SORTENTS
360
199
  0
DICTIONARY
  5
15B
330
15A
100
AcDbDictionary
280
     1
281
     1
  3
ACAD_MLATT
360
225
  3
ACAD_XREC_ROUNDTRIP
360
224
  0
DICTIONARY
  5
15D
330
15C
100
AcDbDictionary
280
     1
281
     1
  3
ACAD_MLATT
360
227
  3
ACAD_XREC_ROUNDTRIP
360
226
  0
DICTIONARY
  5
15F
330
15E
100
AcDbDictionary
280
     1
281
     1
  3
ACAD_MLATT
360
229
  3
ACAD_XREC_ROUNDTRIP
360
228
  0
DICTIONARY
  5
161
330
160
100
AcDbDictionary
280
     1
281
     1
  3
ACAD_MLATT
360
22B
  3
ACAD_XREC_ROUNDTRIP
360
22A
  0
DICTIONARY
  5
163
330
162
100
AcDbDictionary
280
     1
281
     1
  3
ACAD_MLATT
360
22D
  3
ACAD_XREC_ROUNDTRIP
360
22C
  0
DICTIONARY
  5
165
330
164
100
AcDbDictionary
280
     1
281
     1
  3
ACAD_MLATT
360
22F
  3
ACAD_XREC_ROUNDTRIP
360
22E
  0
DICTIONARY
  5
167
330
166
100
AcDbDictionary
280
     1
281
     1
  3
ACAD_MLATT
360
231
  3
ACAD_XREC_ROUNDTRIP
360
230
  0
DICTIONARY
  5
169
330
168
100
AcDbDictionary
280
     1
281
     1
  3
ACAD_MLATT
360
233
  3
ACAD_XREC_ROUNDTRIP
360
232
  0
DICTIONARY
  5
16B
330
16A
100
AcDbDictionary
280
     1
281
     1
  3
ACAD_MLATT
360
235
  3
ACAD_XREC_ROUNDTRIP
360
234
  0
DICTIONARY
  5
16D
330
16C
100
AcDbDictionary
280
     1
281
     1
  3
ACAD_MLATT
360
237
  3
ACAD_XREC_ROUNDTRIP
360
236
  0
DICTIONARY
  5
16F
330
16E
100
AcDbDictionary
280
     1
281
     1
  3
ACAD_MLATT
360
239
  3
ACAD_XREC_ROUNDTRIP
360
238
  0
DICTIONARY
  5
171
330
170
100
AcDbDictionary
280
     1
281
     1
  3
ACAD_MLATT
360
23B
  3
ACAD_XREC_ROUNDTRIP
360
23A
  0
DICTIONARY
  5
173
330
172
100
AcDbDictionary
280
     1
281
     1
  3
ACAD_MLATT
360
23D
  3
ACAD_XREC_ROUNDTRIP
360
23C
  0
DICTIONARY
  5
175
330
174
100
AcDbDictionary
280
     1
281
     1
  3
ACAD_MLATT
360
23F
  3
ACAD_XREC_ROUNDTRIP
360
23E
  0
DICTIONARY
  5
177
330
176
100
AcDbDictionary
280
     1
281
     1
  3
ACAD_MLATT
360
241
  3
ACAD_XREC_ROUNDTRIP
360
240
  0
XRECORD
  5
1EC
102
{ACAD_REACTORS
330
C
102
}
330
C
100
AcDbXrecord
280
     1
300
ACDLT
300
2014
300
ACDLT_F_S
  0
DICTIONARY
  5
63
102
{ACAD_REACTORS
330
C
102
}
330
C
100
AcDbDictionary
281
     1
  0
DICTIONARY
  5
6A
102
{ACAD_REACTORS
330
C
102
}
330
C
100
AcDbDictionary
281
     1
  3
Imperial24
350
6B
  3
Metric50
350
1E4
  0
DICTIONARY
  5
D
102
{ACAD_REACTORS
330
C
102
}
330
C
100
AcDbDictionary
281
     1
  0
DICTIONARY
  5
62
102
{ACAD_REACTORS
330
C
102
}
330
C
100
AcDbDictionary
281
     1
  3
Model
350
73
  3
レイアウト1
350
6F
  3
レイアウト2
350
77
  0
DICTIONARY
  5
10
102
{ACAD_REACTORS
330
C
102
}
330
C
100
AcDbDictionary
281
     1
  3
ByBlock
350
19
  3
ByLayer
350
11
  3
Global
350
21
  0
DICTIONARY
  5
66
102
{ACAD_REACTORS
330
C
102
}
330
C
100
AcDbDictionary
281
     1
  3
Standard
350
67
  0
DICTIONARY
  5
5F
102
{ACAD_REACTORS
330
C
102
}
330
C
100
AcDbDictionary
281
     1
  3
Standard
350
60
  0
DICTIONARY
  5
61
102
{ACAD_REACTORS
330
C
102
}
330
C
100
AcDbDictionary
281
     1
  0
ACDBDICTIONARYWDFLT
  5
E
102
{ACAD_REACTORS
330
C
102
}
330
C
100
AcDbDictionary
281
     1
  3
Normal
350
F
100
AcDbDictionaryWithDefault
340
F
  0
DICTIONARY
  5
42
102
{ACAD_REACTORS
330
C
102
}
330
C
100
AcDbDictionary
281
     1
  3
A0
350
43
  3
A1
350
44
  3
A2
350
45
  3
A3
350
46
  3
A4
350
47
  3
A5
350
48
  3
A6
350
49
  3
A7
350
4A
  3
A8
350
4B
  3
A9
350
4C
  3
B0
350
4D
  3
B1
350
4E
  3
B2
350
4F
  3
B3
350
50
  3
B4
350
51
  3
B5
350
52
  3
B6
350
53
  0
DICTIONARY
  5
68
102
{ACAD_REACTORS
330
C
102
}
330
C
100
AcDbDictionary
281
     1
  3
Imperial24
350
69
  3
Metric50
350
1E3
  0
DICTIONARY
  5
64
102
{ACAD_REACTORS
330
C
102
}
330
C
100
AcDbDictionary
281
     1
  3
Standard
350
65
  0
DICTIONARY
  5
29
102
{ACAD_REACTORS
330
C
102
}
330
C
100
AcDbDictionary
281
     1
  3
2dWireframe
350
2F
  3
Basic
350
2E
  3
Brighten
350
35
  3
ColorChange
350
39
  3
Conceptual
350
32
  3
Dim
350
34
  3
EdgeColorOff
350
41
  3
Facepattern
350
38
  3
Flat
350
2A
  3
FlatWithEdges
350
2B
  3
Gouraud
350
2C
  3
GouraudWithEdges
350
2D
  3
Hidden
350
31
  3
JitterOff
350
3F
  3
Linepattern
350
37
  3
OverhangOff
350
40
  3
Realistic
350
33
  3
Shaded
350
3E
  3
Shaded with edges
350
3D
  3
Shades of Gray
350
3A
  3
Sketchy
350
3B
  3
Thicken
350
36
  3
Wireframe
350
30
  3
X-Ray
350
3C
  0
XRECORD
  5
246
102
{ACAD_REACTORS
330
C
102
}
330
C
100
AcDbXrecord
280
     1
 90
        1
330
65
330
69
330
6B
330
15A
330
15C
330
15E
330
160
330
162
330
164
330
166
330
168
330
16A
330
16C
330
16E
330
170
330
172
330
174
330
176
330
1E3
330
1E4
330
21D
  0
DICTIONARY
  5
1DB
102
{ACAD_REACTORS
330
C
102
}
330
C
100
AcDbDictionary
281
     1
  3
ANNOALLVISIBLE
350
1E0
  3
CANNOSCALE
350
1E1
  3
CMLEADERSTYLE
350
1DD
  3
CTABLESTYLE
350
1DC
  3
CVIEWDETAILSTYLE
350
1DE
  3
CVIEWSECTIONSTYLE
350
1DF
  0
DICTIONARY
  5
217
102
{ACAD_REACTORS
330
216
102
}
330
216
100
AcDbDictionary
281
     1
  0
SORTENTSTABLE
  5
82
102
{ACAD_REACTORS
330
81
102
}
330
81
100
AcDbSortentsTable
330
70
331
202
  5
202
331
1F1
  5
1F1
331
203
  5
203
331
1F2
  5
1F2
331
204
  5
204
331
1F3
  5
1F3
331
205
  5
205
331
1F4
  5
1F4
331
206
  5
206
331
1F5
  5
1F5
331
207
  5
207
331
1F6
  5
1F6
331
208
  5
208
331
1F7
  5
1F7
331
209
  5
209
331
1F8
  5
1F8
331
20A
  5
20A
331
1F9
  5
1F9
331
20B
  5
20B
331
1FA
  5
1FA
331
20C
  5
20C
331
1FB
  5
1FB
331
20D
  5
20D
331
1FC
  5
1FC
331
20E
  5
20E
331
1FD
  5
1FD
331
20F
  5
20F
331
1FE
  5
1FE
331
1ED
  5
1ED
331
210
  5
210
331
1FF
  5
1FF
331
1EE
  5
1EE
331
211
  5
211
331
200
  5
200
331
1EF
  5
1EF
331
212
  5
212
331
201
  5
201
331
1F0
  5
1F0
  0
SORTENTSTABLE
  5
199
102
{ACAD_REACTORS
330
140
102
}
330
140
100
AcDbSortentsTable
330
13F
  0
XRECORD
  5
225
102
{ACAD_REACTORS
330
15B
102
}
330
15B
100
AcDbXrecord
280
     1
 70
     4
 70
     0
 70
     0
 40
1.0
  2
DATE_OF_ISSUE
  1
Embedded Object
 10
-50.0
 20
5.0
 30
0.0
 40
3.5
 41
0.0
 46
0.0
 71
     1
 72
     5
  1

  7
FusionTitle
 73
     1
 44
1.0
  0
XRECORD
  5
224
102
{ACAD_REACTORS
330
15B
102
}
330
15B
100
AcDbXrecord
280
     1
102
ACAD_MATT_HEIGHT
140
3.5
  0
XRECORD
  5
227
102
{ACAD_REACTORS
330
15D
102
}
330
15D
100
AcDbXrecord
280
     1
 70
     4
 70
     0
 70
     0
 40
1.0
  2
REV
  1
Embedded Object
 10
-56.0
 20
4.849999999999999
 30
0.0
 40
3.5
 41
0.0
 46
0.0
 71
     2
 72
     5
  1

  7
FusionTitle
 73
     1
 44
1.0
  0
XRECORD
  5
226
102
{ACAD_REACTORS
330
15D
102
}
330
15D
100
AcDbXrecord
280
     1
102
ACAD_MATT_HEIGHT
140
3.5
  0
XRECORD
  5
229
102
{ACAD_REACTORS
330
15F
102
}
330
15F
100
AcDbXrecord
280
     1
 70
     4
 70
     0
 70
     0
 40
1.0
  2
TITLE_3
  1
Embedded Object
 10
-121.0
 20
6.5
 30
0.0
 40
5.0
 41
0.0
 46
0.0
 71
     1
 72
     5
  1

  7
FusionTitle
 73
     1
 44
1.0
  0
XRECORD
  5
228
102
{ACAD_REACTORS
330
15F
102
}
330
15F
100
AcDbXrecord
280
     1
102
ACAD_MATT_HEIGHT
140
5.0
  0
XRECORD
  5
22B
102
{ACAD_REACTORS
330
161
102
}
330
161
100
AcDbXrecord
280
     1
 70
     4
 70
     0
 70
     0
 40
1.0
  2
DOCUMENT_STATUS
  1
Embedded Object
 10
-60.0
 20
32.0
 30
0.0
 40
3.5
 41
0.0
 46
0.0
 71
     1
 72
     5
  1

  7
FusionTitle
 73
     1
 44
1.0
  0
XRECORD
  5
22A
102
{ACAD_REACTORS
330
161
102
}
330
161
100
AcDbXrecord
280
     1
102
ACAD_MATT_HEIGHT
140
3.5
  0
XRECORD
  5
22D
102
{ACAD_REACTORS
330
163
102
}
330
163
100
AcDbXrecord
280
     1
 70
     4
 70
     0
 70
     0
 40
1.0
  2
DOCUMENT_TYPE
  1
Embedded Object
 10
-121.0
 20
32.0
 30
0.0
 40
3.5
 41
0.0
 46
0.0
 71
     1
 72
     5
  1

  7
FusionTitle
 73
     1
 44
1.0
  0
XRECORD
  5
22C
102
{ACAD_REACTORS
330
163
102
}
330
163
100
AcDbXrecord
280
     1
102
ACAD_MATT_HEIGHT
140
3.5
  0
XRECORD
  5
22F
102
{ACAD_REACTORS
330
165
102
}
330
165
100
AcDbXrecord
280
     1
 70
     4
 70
     0
 70
     0
 40
1.0
  2
APPROVED_DATE
  1
Embedded Object
 10
-0.9928376534788512
 20
42.0
 30
0.0
 40
3.5
 41
0.0
 46
0.0
 71
     3
 72
     5
  1

  7
FusionTitle
 73
     1
 44
1.0
  0
XRECORD
  5
22E
102
{ACAD_REACTORS
330
165
102
}
330
165
100
AcDbXrecord
280
     1
102
ACAD_MATT_HEIGHT
140
3.5
  0
XRECORD
  5
231
102
{ACAD_REACTORS
330
167
102
}
330
167
100
AcDbXrecord
280
     1
 70
     4
 70
     0
 70
     0
 40
1.0
  2
CREATED_DATE
  1
Embedded Object
 10
-61.99999999999999
 20
42.0
 30
0.0
 40
3.5
 41
0.0
 46
0.0
 71
     3
 72
     5
  1

  7
FusionTitle
 73
     1
 44
1.0
  0
XRECORD
  5
230
102
{ACAD_REACTORS
330
167
102
}
330
167
100
AcDbXrecord
280
     1
102
ACAD_MATT_HEIGHT
140
3.5
  0
XRECORD
  5
233
102
{ACAD_REACTORS
330
169
102
}
330
169
100
AcDbXrecord
280
     1
 70
     4
 70
     0
 70
     0
 40
1.0
  2
SHEET
  1
Embedded Object
 10
-7.5
 20
4.849999999999999
 30
0.0
 40
3.5
 41
0.0
 46
0.0
 71
     2
 72
     5
  1

  7
FusionTitle
 73
     1
 44
1.0
  0
XRECORD
  5
232
102
{ACAD_REACTORS
330
169
102
}
330
169
100
AcDbXrecord
280
     1
102
ACAD_MATT_HEIGHT
140
3.5
  0
XRECORD
  5
235
102
{ACAD_REACTORS
330
16B
102
}
330
16B
100
AcDbXrecord
280
     1
 70
     4
 70
     0
 70
     0
 40
1.0
  2
TITLE_2
  1
Embedded Object
 10
-121.0
 20
14.0
 30
0.0
 40
5.0
 41
0.0
 46
0.0
 71
     1
 72
     5
  1

  7
FusionTitle
 73
     1
 44
1.0
  0
XRECORD
  5
234
102
{ACAD_REACTORS
330
16B
102
}
330
16B
100
AcDbXrecord
280
     1
102
ACAD_MATT_HEIGHT
140
5.0
  0
XRECORD
  5
237
102
{ACAD_REACTORS
330
16D
102
}
330
16D
100
AcDbXrecord
280
     1
 70
     4
 70
     0
 70
     0
 40
1.0
  2
DRAWING_NUMBER
  1
Embedded Object
 10
-30.50000000000001
 20
19.75143246930423
 30
0.0
 40
5.0
 41
0.0
 46
0.0
 71
     2
 72
     5
  1

  7
FusionTitle
 73
     1
 44
1.0
  0
XRECORD
  5
236
102
{ACAD_REACTORS
330
16D
102
}
330
16D
100
AcDbXrecord
280
     1
102
ACAD_MATT_HEIGHT
140
5.0
  0
XRECORD
  5
239
102
{ACAD_REACTORS
330
16F
102
}
330
16F
100
AcDbXrecord
280
     1
 70
     4
 70
     0
 70
     0
 40
1.0
  2
TITLE_1
  1
Embedded Object
 10
-121.0
 20
21.5
 30
0.0
 40
5.0
 41
0.0
 46
0.0
 71
     1
 72
     5
  1

  7
FusionTitle
 73
     1
 44
1.0
  0
XRECORD
  5
238
102
{ACAD_REACTORS
330
16F
102
}
330
16F
100
AcDbXrecord
280
     1
102
ACAD_MATT_HEIGHT
140
5.0
  0
XRECORD
  5
23B
102
{ACAD_REACTORS
330
171
102
}
330
171
100
AcDbXrecord
280
     1
 70
     4
 70
     0
 70
     0
 40
1.0
  2
APPROVED_BY
  1
Embedded Object
 10
-60.0
 20
42.0
 30
0.0
 40
3.5
 41
0.0
 46
0.0
 71
     1
 72
     5
  1

  7
FusionTitle
 73
     1
 44
1.0
  0
XRECORD
  5
23A
102
{ACAD_REACTORS
330
171
102
}
330
171
100
AcDbXrecord
280
     1
102
ACAD_MATT_HEIGHT
140
3.5
  0
XRECORD
  5
23D
102
{ACAD_REACTORS
330
173
102
}
330
173
100
AcDbXrecord
280
     1
 70
     4
 70
     0
 70
     0
 40
1.0
  2
CREATED_BY
  1
Embedded Object
 10
-121.0
 20
42.0
 30
0.0
 40
3.5
 41
0.0
 46
0.0
 71
     1
 72
     5
  1

  7
FusionTitle
 73
     1
 44
1.0
  0
XRECORD
  5
23C
102
{ACAD_REACTORS
330
173
102
}
330
173
100
AcDbXrecord
280
     1
102
ACAD_MATT_HEIGHT
140
3.5
  0
XRECORD
  5
23F
102
{ACAD_REACTORS
330
175
102
}
330
175
100
AcDbXrecord
280
     1
 70
     4
 70
     0
 70
     0
 40
1.0
  2
TECHNICAL_REFERENCE
  1
Embedded Object
 10
-155.0
 20
42.0
 30
0.0
 40
3.5
 41
0.0
 46
0.0
 71
     1
 72
     5
  1

  7
FusionTitle
 73
     1
 44
1.0
  0
XRECORD
  5
23E
102
{ACAD_REACTORS
330
175
102
}
330
175
100
AcDbXrecord
280
     1
102
ACAD_MATT_HEIGHT
140
3.5
  0
XRECORD
  5
241
102
{ACAD_REACTORS
330
177
102
}
330
177
100
AcDbXrecord
280
     1
 70
     4
 70
     0
 70
     0
 40
1.0
  2
DEPT
  1
Embedded Object
 10
-179.0
 20
42.0
 30
0.0
 40
3.5
 41
0.0
 46
0.0
 71
     1
 72
     5
  1

  7
FusionTitle
 73
     1
 44
1.0
  0
XRECORD
  5
240
102
{ACAD_REACTORS
330
177
102
}
330
177
100
AcDbXrecord
280
     1
102
ACAD_MATT_HEIGHT
140
3.5
  0
ACDBDETAILVIEWSTYLE
  5
6B
102
{ACAD_XDICTIONARY
360
19C
102
}
102
{ACAD_REACTORS
330
6A
102
}
330
6A
100
AcDbModelDocViewStyle
 70
     0
  3
Imperial24
290
     0
100
AcDbDetailViewStyle
 70
     0
 71
     0
 90
        3
 71
     1
340
55
 62
   256
 40
0.24
340
0
 62
   256
 40
0.24
300

 40
0.36
280
     3
 71
     2
340
5D
 90
       25
 62
   256
 71
     3
340
55
 62
   256
 40
0.24
 90
        1
 40
0.75
 90
        1
300
%<\AcVar ViewType \f "%tc1">% %<\AcVar ViewDetailId>%\PSCALE %<\AcVar ViewScale \f "%sn">%
 71
     4
340
5D
 90
       25
 62
   256
340
5D
 90
       25
 62
   256
280
     0
  0
ACDBDETAILVIEWSTYLE
  5
1E4
102
{ACAD_XDICTIONARY
360
244
102
}
102
{ACAD_REACTORS
330
6A
102
}
330
6A
100
AcDbModelDocViewStyle
 70
     0
  3
Metric50
290
     0
100
AcDbDetailViewStyle
 70
     0
 71
     0
 90
        3
 71
     1
340
55
 62
   256
 40
5.0
340
0
 62
   256
 40
5.0
300

 40
0.0
280
     1
 71
     2
340
5D
 90
       25
 62
   256
 71
     3
340
55
 62
   256
 40
5.0
 90
        0
 40
15.0
 90
        1
300
%<\AcVar ViewDetailId>% (%<\AcVar ViewScale \f "%sn">%)
 71
     4
340
5D
 90
       25
 62
   256
340
5D
 90
       25
 62
   256
280
     0
  0
LAYOUT
  5
73
102
{ACAD_REACTORS
330
62
102
}
330
62
100
AcDbPlotSettings
  1

  2
KONICA MINOLTA C554Series②
  4
A4
  6

 40
5.027082920074462
 41
5.027099609375
 42
5.027069091796875
 43
5.027069091796875
 44
209.9733276367187
 45
296.9259948730469
 46
0.0
 47
0.0
 48
0.0
 49
0.0
140
0.0
141
0.0
142
1.0
143
2.920019355716156
 70
 11952
 72
     1
 73
     0
 74
     0
  7

 75
     0
147
0.3424634833472679
 76
     0
 77
     2
 78
   300
148
-9.780680684085382
149
-18.63498744593505
100
AcDbLayout
  1
Model
 70
     1
 71
     0
 10
0.0
 20
0.0
 11
12.0
 21
9.0
 12
0.0
 22
0.0
 32
0.0
 14
0.0
 24
0.0
 34
0.0
 15
0.0
 25
0.0
 35
0.0
146
0.0
 13
0.0
 23
0.0
 33
0.0
 16
1.0
 26
0.0
 36
0.0
 17
0.0
 27
1.0
 37
0.0
 76
     0
330
70
331
57
1001
ACAD_PSEXT
1000
KONICA MINOLTA C554Series②
1000
KONICA MINOLTA C554SeriesPCL
1000
IP_192.168.4.222
1000

1070
     0
  0
LAYOUT
  5
6F
102
{ACAD_REACTORS
330
62
102
}
330
62
100
AcDbPlotSettings
  1

  2
KONICA MINOLTA C554Series②
  4

  6

 40
0.0
 41
0.0
 42
0.0
 43
0.0
 44
0.0
 45
0.0
 46
0.0
 47
0.0
 48
0.0
 49
0.0
140
0.0
141
0.0
142
1.0
143
1.0
 70
   688
 72
     0
 73
     0
 74
     5
  7
TAGAI1.CTB
 75
    16
147
1.0
 76
     0
 77
     2
 78
   300
148
0.0
149
0.0
100
AcDbLayout
  1
レイアウト1
 70
     1
 71
     1
 10
0.0
 20
0.0
 11
12.0
 21
9.0
 12
0.0
 22
0.0
 32
0.0
 14
1.000000000000000E+20
 24
1.000000000000000E+20
 34
1.000000000000000E+20
 15
-1.000000000000000E+20
 25
-1.000000000000000E+20
 35
-1.000000000000000E+20
146
0.0
 13
0.0
 23
0.0
 33
0.0
 16
1.0
 26
0.0
 36
0.0
 17
0.0
 27
1.0
 37
0.0
 76
     0
330
6C
  0
LAYOUT
  5
77
102
{ACAD_REACTORS
330
62
102
}
330
62
100
AcDbPlotSettings
  1

  2
KONICA MINOLTA C554Series②
  4

  6

 40
0.0
 41
0.0
 42
0.0
 43
0.0
 44
0.0
 45
0.0
 46
0.0
 47
0.0
 48
0.0
 49
0.0
140
0.0
141
0.0
142
1.0
143
1.0
 70
   688
 72
     0
 73
     0
 74
     5
  7
TAGAI1.CTB
 75
    16
147
1.0
 76
     0
 77
     2
 78
   300
148
0.0
149
0.0
100
AcDbLayout
  1
レイアウト2
 70
     1
 71
     2
 10
0.0
 20
0.0
 11
12.0
 21
9.0
 12
0.0
 22
0.0
 32
0.0
 14
0.0
 24
0.0
 34
0.0
 15
0.0
 25
0.0
 35
0.0
146
0.0
 13
0.0
 23
0.0
 33
0.0
 16
1.0
 26
0.0
 36
0.0
 17
0.0
 27
1.0
 37
0.0
 76
     0
330
74
  0
MATERIAL
  5
19
102
{ACAD_XDICTIONARY
360
1A
102
}
102
{ACAD_REACTORS
330
10
102
}
330
10
100
AcDbMaterial
  1
ByBlock
 72
     0
 43
0.0208333333333333
 43
0.0
 43
0.0
 43
0.0
 43
0.0
 43
0.0208333333333333
 43
0.0
 43
0.0
 43
0.0
 43
0.0
 43
1.0
 43
0.0
 43
0.0
 43
0.0
 43
0.0
 43
1.0
 77
     0
 47
0.0208333333333333
 47
0.0
 47
0.0
 47
0.0
 47
0.0
 47
0.0208333333333333
 47
0.0
 47
0.0
 47
0.0
 47
0.0
 47
1.0
 47
0.0
 47
0.0
 47
0.0
 47
0.0
 47
1.0
171
     0
 49
0.0208333333333333
 49
0.0
 49
0.0
 49
0.0
 49
0.0
 49
0.0208333333333333
 49
0.0
 49
0.0
 49
0.0
 49
0.0
 49
1.0
 49
0.0
 49
0.0
 49
0.0
 49
0.0
 49
1.0
175
     0
142
0.0208333333333333
142
0.0
142
0.0
142
0.0
142
0.0
142
0.0208333333333333
142
0.0
142
0.0
142
0.0
142
0.0
142
1.0
142
0.0
142
0.0
142
0.0
142
0.0
142
1.0
179
     0
144
0.0208333333333333
144
0.0
144
0.0
144
0.0
144
0.0
144
0.0208333333333333
144
0.0
144
0.0
144
0.0
144
0.0
144
1.0
144
0.0
144
0.0
144
0.0
144
0.0
144
1.0
147
0.0208333333333333
147
0.0
147
0.0
147
0.0
147
0.0
147
0.0208333333333333
147
0.0
147
0.0
147
0.0
147
0.0
147
1.0
147
0.0
147
0.0
147
0.0
147
0.0
147
1.0
  0
MATERIAL
  5
11
102
{ACAD_XDICTIONARY
360
12
102
}
102
{ACAD_REACTORS
330
10
102
}
330
10
100
AcDbMaterial
  1
ByLayer
 72
     0
 43
0.0208333333333333
 43
0.0
 43
0.0
 43
0.0
 43
0.0
 43
0.0208333333333333
 43
0.0
 43
0.0
 43
0.0
 43
0.0
 43
1.0
 43
0.0
 43
0.0
 43
0.0
 43
0.0
 43
1.0
 77
     0
 47
0.0208333333333333
 47
0.0
 47
0.0
 47
0.0
 47
0.0
 47
0.0208333333333333
 47
0.0
 47
0.0
 47
0.0
 47
0.0
 47
1.0
 47
0.0
 47
0.0
 47
0.0
 47
0.0
 47
1.0
171
     0
 49
0.0208333333333333
 49
0.0
 49
0.0
 49
0.0
 49
0.0
 49
0.0208333333333333
 49
0.0
 49
0.0
 49
0.0
 49
0.0
 49
1.0
 49
0.0
 49
0.0
 49
0.0
 49
0.0
 49
1.0
175
     0
142
0.0208333333333333
142
0.0
142
0.0
142
0.0
142
0.0
142
0.0208333333333333
142
0.0
142
0.0
142
0.0
142
0.0
142
1.0
142
0.0
142
0.0
142
0.0
142
0.0
142
1.0
179
     0
144
0.0208333333333333
144
0.0
144
0.0
144
0.0
144
0.0
144
0.0208333333333333
144
0.0
144
0.0
144
0.0
144
0.0
144
1.0
144
0.0
144
0.0
144
0.0
144
0.0
144
1.0
147
0.0208333333333333
147
0.0
147
0.0
147
0.0
147
0.0
147
0.0208333333333333
147
0.0
147
0.0
147
0.0
147
0.0
147
1.0
147
0.0
147
0.0
147
0.0
147
0.0
147
1.0
  0
MATERIAL
  5
21
102
{ACAD_XDICTIONARY
360
22
102
}
102
{ACAD_REACTORS
330
10
102
}
330
10
100
AcDbMaterial
  1
Global
 72
     0
 43
0.0208333333333333
 43
0.0
 43
0.0
 43
0.0
 43
0.0
 43
0.0208333333333333
 43
0.0
 43
0.0
 43
0.0
 43
0.0
 43
1.0
 43
0.0
 43
0.0
 43
0.0
 43
0.0
 43
1.0
 77
     0
 47
0.0208333333333333
 47
0.0
 47
0.0
 47
0.0
 47
0.0
 47
0.0208333333333333
 47
0.0
 47
0.0
 47
0.0
 47
0.0
 47
1.0
 47
0.0
 47
0.0
 47
0.0
 47
0.0
 47
1.0
171
     0
 49
0.0208333333333333
 49
0.0
 49
0.0
 49
0.0
 49
0.0
 49
0.0208333333333333
 49
0.0
 49
0.0
 49
0.0
 49
0.0
 49
1.0
 49
0.0
 49
0.0
 49
0.0
 49
0.0
 49
1.0
175
     0
142
0.0208333333333333
142
0.0
142
0.0
142
0.0
142
0.0
142
0.0208333333333333
142
0.0
142
0.0
142
0.0
142
0.0
142
1.0
142
0.0
142
0.0
142
0.0
142
0.0
142
1.0
179
     0
144
0.0208333333333333
144
0.0
144
0.0
144
0.0
144
0.0
144
0.0208333333333333
144
0.0
144
0.0
144
0.0
144
0.0
144
1.0
144
0.0
144
0.0
144
0.0
144
0.0
144
1.0
147
0.0208333333333333
147
0.0
147
0.0
147
0.0
147
0.0
147
0.0208333333333333
147
0.0
147
0.0
147
0.0
147
0.0
147
1.0
147
0.0
147
0.0
147
0.0
147
0.0
147
1.0
  0
MLEADERSTYLE
  5
67
102
{ACAD_REACTORS
330
66
102
}
330
66
100
AcDbMLeaderStyle
179
     2
170
     2
171
     1
172
     0
 90
        2
 40
0.0
 41
0.0
173
     1
 91
-1056964608
340
5B
 92
       -2
290
     1
 42
0.09
291
     1
 43
0.36
  3
Standard
 44
0.18
300

342
55
174
     1
178
     6
175
     1
176
     0
 93
-1056964608
 45
0.18
292
     0
297
     0
 46
0.18
 94
-1056964608
 47
1.0
 49
1.0
140
1.0
293
     1
141
0.0
294
     1
177
     0
142
1.0
295
     1
296
     0
143
0.125
271
     0
272
     9
273
     9
298
     1
  0
MLINESTYLE
  5
60
102
{ACAD_REACTORS
330
5F
102
}
330
5F
100
AcDbMlineStyle
  2
STANDARD
 70
     0
  3

 62
   256
 51
90.0
 52
90.0
 71
     2
 49
0.5
 62
   256
  6
BYLAYER
 49
-0.5
 62
   256
  6
BYLAYER
  0
ACDBPLACEHOLDER
  5
F
102
{ACAD_REACTORS
330
E
102
}
330
E
  0
SCALE
  5
43
102
{ACAD_REACTORS
330
42
102
}
330
42
100
AcDbScale
 70
     0
300
1:1
140
1.0
141
1.0
290
     1
  0
SCALE
  5
44
102
{ACAD_REACTORS
330
42
102
}
330
42
100
AcDbScale
 70
     0
300
1:2
140
1.0
141
2.0
290
     0
  0
SCALE
  5
45
102
{ACAD_REACTORS
330
42
102
}
330
42
100
AcDbScale
 70
     0
300
1:4
140
1.0
141
4.0
290
     0
  0
SCALE
  5
46
102
{ACAD_REACTORS
330
42
102
}
330
42
100
AcDbScale
 70
     0
300
1:5
140
1.0
141
5.0
290
     0
  0
SCALE
  5
47
102
{ACAD_REACTORS
330
42
102
}
330
42
100
AcDbScale
 70
     0
300
1:8
140
1.0
141
8.0
290
     0
  0
SCALE
  5
48
102
{ACAD_REACTORS
330
42
102
}
330
42
100
AcDbScale
 70
     0
300
1:10
140
1.0
141
10.0
290
     0
  0
SCALE
  5
49
102
{ACAD_REACTORS
330
42
102
}
330
42
100
AcDbScale
 70
     0
300
1:16
140
1.0
141
16.0
290
     0
  0
SCALE
  5
4A
102
{ACAD_REACTORS
330
42
102
}
330
42
100
AcDbScale
 70
     0
300
1:20
140
1.0
141
20.0
290
     0
  0
SCALE
  5
4B
102
{ACAD_REACTORS
330
42
102
}
330
42
100
AcDbScale
 70
     0
300
1:30
140
1.0
141
30.0
290
     0
  0
SCALE
  5
4C
102
{ACAD_REACTORS
330
42
102
}
330
42
100
AcDbScale
 70
     0
300
1:40
140
1.0
141
40.0
290
     0
  0
SCALE
  5
4D
102
{ACAD_REACTORS
330
42
102
}
330
42
100
AcDbScale
 70
     0
300
1:50
140
1.0
141
50.0
290
     0
  0
SCALE
  5
4E
102
{ACAD_REACTORS
330
42
102
}
330
42
100
AcDbScale
 70
     0
300
1:100
140
1.0
141
100.0
290
     0
  0
SCALE
  5
4F
102
{ACAD_REACTORS
330
42
102
}
330
42
100
AcDbScale
 70
     0
300
2:1
140
2.0
141
1.0
290
     0
  0
SCALE
  5
50
102
{ACAD_REACTORS
330
42
102
}
330
42
100
AcDbScale
 70
     0
300
4:1
140
4.0
141
1.0
290
     0
  0
SCALE
  5
51
102
{ACAD_REACTORS
330
42
102
}
330
42
100
AcDbScale
 70
     0
300
8:1
140
8.0
141
1.0
290
     0
  0
SCALE
  5
52
102
{ACAD_REACTORS
330
42
102
}
330
42
100
AcDbScale
 70
     0
300
10:1
140
10.0
141
1.0
290
     0
  0
SCALE
  5
53
102
{ACAD_REACTORS
330
42
102
}
330
42
100
AcDbScale
 70
     0
300
100:1
140
100.0
141
1.0
290
     0
  0
ACDBSECTIONVIEWSTYLE
  5
69
102
{ACAD_XDICTIONARY
360
19A
102
}
102
{ACAD_REACTORS
330
68
102
}
330
68
100
AcDbModelDocViewStyle
 70
     0
  3
Imperial24
290
     0
100
AcDbSectionViewStyle
 70
     0
 71
     0
 90
       78
 71
     1
340
55
 62
   256
 40
0.24
340
0
340
0
 62
   256
 40
0.24
300
I, O, Q, S, X, Z
 40
0.48
 90
        3
 40
0.18
 90
        1
 71
     2
340
5D
 90
       25
 62
   256
340
5D
 90
       50
 62
   256
 40
0.24
 40
0.0
 40
0.24
 71
     3
340
55
 62
   256
 40
0.24
 90
        1
 40
0.75
 90
        1
300
%<\AcVar ViewType \f "%tc1">% %<\AcVar ViewSectionStartId>%-%<\AcVar ViewSectionEndId>%\PSCALE %<\AcVar ViewScale \f "%sn">%
 71
     4
 62
   256
 62
   257
300
ANSI31
 40
1.0
 90
        0
290
     0
290
     0
 90
        6
 40
0.0
 40
1.570796326794896
 40
0.2617993877991494
 40
1.308996938995747
 40
-0.2617993877991494
 40
1.832595714594046
  0
ACDBSECTIONVIEWSTYLE
  5
1E3
102
{ACAD_XDICTIONARY
360
242
102
}
102
{ACAD_REACTORS
330
68
102
}
330
68
100
AcDbModelDocViewStyle
 70
     0
  3
Metric50
290
     0
100
AcDbSectionViewStyle
 70
     0
 71
     0
 90
      102
 71
     1
340
55
 62
   256
 40
5.0
340
0
340
0
 62
   256
 40
5.0
300
I, O, Q, S, X, Z
 40
10.0
 90
        0
 40
2.5
 90
        0
 71
     2
340
5D
 90
       25
 62
   256
340
5D
 90
       50
 62
   256
 40
5.0
 40
2.5
 40
5.0
 71
     3
340
55
 62
   256
 40
5.0
 90
        0
 40
15.0
 90
        1
300
%<\AcVar ViewSectionStartId>%-%<\AcVar ViewSectionEndId>% (%<\AcVar ViewScale \f "%sn">%)
 71
     4
 62
   256
 62
   257
300
ANSI31
 40
1.0
 90
        0
290
     0
290
     0
 90
        6
 40
0.0
 40
1.570796326794896
 40
0.2617993877991494
 40
1.308996938995747
 40
-0.2617993877991494
 40
1.832595714594046
  0
TABLESTYLE
  5
65
102
{ACAD_XDICTIONARY
360
220
102
}
102
{ACAD_REACTORS
330
64
102
}
330
64
100
AcDbTableStyle
280
     0
  3
Standard
 70
     0
 71
     3
 40
1.5
 41
1.5
280
     0
281
     0
  7
Standard
140
4.5
170
     2
 62
     0
 63
     7
283
     0
 90
      512
 91
        0
  1

274
    -2
284
     1
 64
     0
275
    -2
285
     1
 65
     0
276
    -2
286
     1
 66
     0
277
    -2
287
     1
 67
     0
278
    -2
288
     1
 68
     0
279
    -2
289
     1
 69
     0
  7
Standard
140
6.0
170
     5
 62
     0
 63
     7
283
     0
 90
      512
 91
        0
  1

274
    -2
284
     1
 64
     0
275
    -2
285
     1
 65
     0
276
    -2
286
     1
 66
     0
277
    -2
287
     1
 67
     0
278
    -2
288
     1
 68
     0
279
    -2
289
     1
 69
     0
  7
Standard
140
4.5
170
     5
 62
     0
 63
     7
283
     0
 90
      512
 91
        0
  1

274
    -2
284
     1
 64
     0
275
    -2
285
     1
 65
     0
276
    -2
286
     1
 66
     0
277
    -2
287
     1
 67
     0
278
    -2
288
     1
 68
     0
279
    -2
289
     1
 69
     0
  0
VISUALSTYLE
  5
2F
102
{ACAD_REACTORS
330
29
102
}
330
29
100
AcDbVisualStyle
  2
2dWireframe
 70
     4
177
     3
291
     0
 70
    58
 90
        0
176
     1
 90
        2
176
     1
 90
        0
176
     1
 90
        0
176
     1
 40
0.6
176
     1
 40
30.0
176
     1
 62
     7
420
 16777215
176
     1
 90
        1
176
     1
 90
        4
176
     1
 62
     7
176
     1
 62
   257
176
     1
 90
        1
176
     1
 90
        1
176
     1
 40
1.0
176
     1
 90
        0
176
     1
 62
   257
176
     1
 40
1.0
176
     1
 90
        1
176
     1
 90
        6
176
     1
 90
        2
176
     1
 62
     7
176
     1
 90
        5
176
     1
 90
        0
176
     1
 90
        0
176
     1
290
     0
176
     1
 90
        1
176
     1
 40
0.0
176
     1
 90
        0
176
     1
290
     1
176
     1
290
     1
176
     1
290
     0
176
     1
290
     0
176
     1
290
     0
176
     1
290
     0
176
     1
290
     0
176
     1
290
     0
176
     1
290
     0
176
     1
 90
       50
176
     1
 40
0.0
176
     1
 40
1.0
176
     1
 90
        0
176
     1
 62
    18
420
        0
176
     1
 90
       50
176
     1
 90
        3
176
     1
 62
     5
420
      255
176
     1
290
     0
176
     1
 90
       50
176
     1
 90
       50
176
     1
 90
       50
176
     1
290
     0
176
     1
 90
       50
176
     1
 62
   256
176
     0
 40
1.0
176
     0
 90
        2
176
     1
  1
strokes_ogs.tif
176
     1
290
     0
176
     1
 40
1.0
176
     1
 40
1.0
176
     1
  0
VISUALSTYLE
  5
2E
102
{ACAD_REACTORS
330
29
102
}
330
29
100
AcDbVisualStyle
  2
Basic
 70
     7
177
     3
291
     1
 70
    58
 90
        1
176
     1
 90
        0
176
     1
 90
        1
176
     1
 90
        0
176
     1
 40
0.6
176
     1
 40
30.0
176
     1
 62
     7
420
 16777215
176
     1
 90
        0
176
     1
 90
        4
176
     1
 62
     7
176
     1
 62
   257
176
     1
 90
        1
176
     1
 90
        1
176
     1
 40
1.0
176
     1
 90
        8
176
     1
 62
     7
176
     1
 40
1.0
176
     1
 90
        1
176
     1
 90
        6
176
     1
 90
        2
176
     1
 62
     7
176
     1
 90
        5
176
     1
 90
        0
176
     1
 90
        0
176
     1
290
     0
176
     1
 90
        1
176
     1
 40
0.0
176
     1
 90
        0
176
     1
290
     0
176
     1
290
     1
176
     1
290
     1
176
     1
290
     0
176
     1
290
     0
176
     1
290
     0
176
     1
290
     0
176
     1
290
     0
176
     1
290
     0
176
     1
 90
       50
176
     1
 40
0.0
176
     1
 40
1.0
176
     1
 90
        0
176
     1
 62
    18
420
        0
176
     1
 90
       50
176
     1
 90
        3
176
     1
 62
     5
420
      255
176
     1
290
     0
176
     1
 90
       50
176
     1
 90
       50
176
     1
 90
       50
176
     1
290
     0
176
     1
 90
       50
176
     1
 62
   256
176
     0
 40
1.0
176
     0
 90
        2
176
     1
  1
strokes_ogs.tif
176
     1
290
     0
176
     1
 40
1.0
176
     1
 40
1.0
176
     1
  0
VISUALSTYLE
  5
35
102
{ACAD_REACTORS
330
29
102
}
330
29
100
AcDbVisualStyle
  2
Brighten
 70
    12
177
     3
291
     1
 70
    58
 90
        2
176
     1
 90
        2
176
     1
 90
        0
176
     1
 90
        0
176
     1
 40
0.6
176
     1
 40
30.0
176
     1
 62
     7
420
 16777215
176
     1
 90
        1
176
     1
 90
        4
176
     1
 62
     7
176
     1
 62
   257
176
     1
 90
        1
176
     1
 90
        1
176
     1
 40
1.0
176
     1
 90
        8
176
     1
 62
     7
176
     1
 40
1.0
176
     1
 90
        1
176
     1
 90
        6
176
     1
 90
        2
176
     1
 62
     7
176
     1
 90
        5
176
     1
 90
        0
176
     1
 90
        0
176
     1
290
     0
176
     1
 90
        1
176
     1
 40
50.0
176
     1
 90
        0
176
     1
290
     0
176
     1
290
     1
176
     1
290
     1
176
     1
290
     0
176
     1
290
     0
176
     1
290
     0
176
     1
290
     0
176
     1
290
     0
176
     1
290
     0
176
     1
 90
       50
176
     1
 40
0.0
176
     1
 40
1.0
176
     1
 90
        0
176
     1
 62
    18
420
        0
176
     1
 90
       50
176
     1
 90
        3
176
     1
 62
     5
420
      255
176
     1
290
     0
176
     1
 90
       50
176
     1
 90
       50
176
     1
 90
       50
176
     1
290
     0
176
     1
 90
       50
176
     1
 62
   256
176
     0
 40
1.0
176
     0
 90
        2
176
     1
  1
strokes_ogs.tif
176
     1
290
     0
176
     1
 40
1.0
176
     1
 40
1.0
176
     1
  0
VISUALSTYLE
  5
39
102
{ACAD_REACTORS
330
29
102
}
330
29
100
AcDbVisualStyle
  2
ColorChange
 70
    16
177
     3
291
     1
 70
    58
 90
        2
176
     1
 90
        2
176
     1
 90
        3
176
     1
 90
        0
176
     1
 40
0.6
176
     1
 40
30.0
176
     1
 62
     8
420
  8421504
176
     1
 90
        1
176
     1
 90
        4
176
     1
 62
     7
176
     1
 62
   257
176
     1
 90
        1
176
     1
 90
        1
176
     1
 40
1.0
176
     1
 90
        8
176
     1
 62
     8
420
  8421504
176
     1
 40
1.0
176
     1
 90
        1
176
     1
 90
        6
176
     1
 90
        2
176
     1
 62
     7
176
     1
 90
        5
176
     1
 90
        0
176
     1
 90
        0
176
     1
290
     0
176
     1
 90
        1
176
     1
 40
0.0
176
     1
 90
        0
176
     1
290
     0
176
     1
290
     1
176
     1
290
     1
176
     1
290
     0
176
     1
290
     0
176
     1
290
     0
176
     1
290
     0
176
     1
290
     0
176
     1
290
     0
176
     1
 90
       50
176
     1
 40
0.0
176
     1
 40
1.0
176
     1
 90
        0
176
     1
 62
    18
420
        0
176
     1
 90
       50
176
     1
 90
        3
176
     1
 62
     5
420
      255
176
     1
290
     0
176
     1
 90
       50
176
     1
 90
       50
176
     1
 90
       50
176
     1
290
     0
176
     1
 90
       50
176
     1
 62
   256
176
     0
 40
1.0
176
     0
 90
        2
176
     1
  1
strokes_ogs.tif
176
     1
290
     0
176
     1
 40
1.0
176
     1
 40
1.0
176
     1
  0
VISUALSTYLE
  5
32
102
{ACAD_REACTORS
330
29
102
}
330
29
100
AcDbVisualStyle
  2
Conceptual
 70
     9
177
     3
291
     0
 70
    58
 90
        3
176
     1
 90
        2
176
     1
 90
        0
176
     1
 90
        0
176
     1
 40
0.6
176
     1
 40
30.0
176
     1
 62
     7
420
 16777215
176
     1
 90
        2
176
     1
 90
        2
176
     1
 62
     7
176
     1
 62
   257
176
     1
 90
        1
176
     1
 90
        1
176
     1
 40
179.0
176
     1
 90
        8
176
     1
 62
     7
176
     1
 40
1.0
176
     1
 90
        1
176
     1
 90
        6
176
     1
 90
        2
176
     1
 62
     7
176
     1
 90
        3
176
     1
 90
        0
176
     1
 90
        0
176
     1
290
     0
176
     1
 90
        1
176
     1
 40
0.0
176
     1
 90
        0
176
     1
290
     0
176
     1
290
     1
176
     1
290
     1
176
     1
290
     0
176
     1
290
     0
176
     1
290
     0
176
     1
290
     0
176
     1
290
     0
176
     1
290
     0
176
     1
 90
       50
176
     1
 40
0.0
176
     1
 40
1.0
176
     1
 90
        0
176
     1
 62
    18
420
        0
176
     1
 90
       50
176
     1
 90
        3
176
     1
 62
     5
420
      255
176
     1
290
     0
176
     1
 90
       50
176
     1
 90
       50
176
     1
 90
       50
176
     1
290
     0
176
     1
 90
       50
176
     1
 62
   256
176
     0
 40
1.0
176
     0
 90
        2
176
     1
  1
strokes_ogs.tif
176
     1
290
     0
176
     1
 40
1.0
176
     1
 40
1.0
176
     1
  0
VISUALSTYLE
  5
34
102
{ACAD_REACTORS
330
29
102
}
330
29
100
AcDbVisualStyle
  2
Dim
 70
    11
177
     3
291
     1
 70
    58
 90
        2
176
     1
 90
        2
176
     1
 90
        0
176
     1
 90
        0
176
     1
 40
0.6
176
     1
 40
30.0
176
     1
 62
     7
420
 16777215
176
     1
 90
        1
176
     1
 90
        4
176
     1
 62
     7
176
     1
 62
   257
176
     1
 90
        1
176
     1
 90
        1
176
     1
 40
1.0
176
     1
 90
        8
176
     1
 62
     7
176
     1
 40
1.0
176
     1
 90
        1
176
     1
 90
        6
176
     1
 90
        2
176
     1
 62
     7
176
     1
 90
        5
176
     1
 90
        0
176
     1
 90
        0
176
     1
290
     0
176
     1
 90
        1
176
     1
 40
-50.0
176
     1
 90
        0
176
     1
290
     0
176
     1
290
     1
176
     1
290
     1
176
     1
290
     0
176
     1
290
     0
176
     1
290
     0
176
     1
290
     0
176
     1
290
     0
176
     1
290
     0
176
     1
 90
       50
176
     1
 40
0.0
176
     1
 40
1.0
176
     1
 90
        0
176
     1
 62
    18
420
        0
176
     1
 90
       50
176
     1
 90
        3
176
     1
 62
     5
420
      255
176
     1
290
     0
176
     1
 90
       50
176
     1
 90
       50
176
     1
 90
       50
176
     1
290
     0
176
     1
 90
       50
176
     1
 62
   256
176
     0
 40
1.0
176
     0
 90
        2
176
     1
  1
strokes_ogs.tif
176
     1
290
     0
176
     1
 40
1.0
176
     1
 40
1.0
176
     1
  0
VISUALSTYLE
  5
41
102
{ACAD_REACTORS
330
29
102
}
330
29
100
AcDbVisualStyle
  2
EdgeColorOff
 70
    22
177
     3
291
     1
 70
    58
 90
        2
176
     0
 90
        2
176
     0
 90
        0
176
     0
 90
        0
176
     0
 40
0.6
176
     0
 40
30.0
176
     0
 62
     7
420
 16777215
176
     0
 90
        1
176
     0
 90
        4
176
     0
 62
     7
176
     0
 62
   257
176
     0
 90
        1
176
     0
 90
        1
176
     0
 40
1.0
176
     0
 90
        8
176
     2
 62
     7
176
     0
 40
1.0
176
     0
 90
        1
176
     0
 90
        6
176
     0
 90
        2
176
     0
 62
     7
176
     0
 90
        5
176
     0
 90
        0
176
     0
 90
        0
176
     0
290
     0
176
     0
 90
        1
176
     0
 40
0.0
176
     0
 90
        0
176
     0
290
     0
176
     0
290
     1
176
     0
290
     1
176
     0
290
     0
176
     0
290
     0
176
     0
290
     0
176
     0
290
     0
176
     0
290
     0
176
     0
290
     0
176
     0
 90
       50
176
     0
 40
0.0
176
     0
 40
1.0
176
     0
 90
        0
176
     0
 62
    18
420
        0
176
     0
 90
       50
176
     0
 90
        3
176
     0
 62
     5
420
      255
176
     0
290
     0
176
     0
 90
       50
176
     0
 90
       50
176
     0
 90
       50
176
     0
290
     0
176
     0
 90
       50
176
     0
 62
   256
176
     0
 40
1.0
176
     0
 90
        2
176
     0
  1
strokes_ogs.tif
176
     0
290
     0
176
     0
 40
1.0
176
     0
 40
1.0
176
     0
  0
VISUALSTYLE
  5
38
102
{ACAD_REACTORS
330
29
102
}
330
29
100
AcDbVisualStyle
  2
Facepattern
 70
    15
177
     3
291
     1
 70
    58
 90
        2
176
     1
 90
        2
176
     1
 90
        0
176
     1
 90
        0
176
     1
 40
0.6
176
     1
 40
30.0
176
     1
 62
     7
420
 16777215
176
     1
 90
        1
176
     1
 90
        4
176
     1
 62
     7
176
     1
 62
   257
176
     1
 90
        1
176
     1
 90
        1
176
     1
 40
1.0
176
     1
 90
        8
176
     1
 62
     7
176
     1
 40
1.0
176
     1
 90
        1
176
     1
 90
        6
176
     1
 90
        2
176
     1
 62
     7
176
     1
 90
        5
176
     1
 90
        0
176
     1
 90
        0
176
     1
290
     0
176
     1
 90
        1
176
     1
 40
0.0
176
     1
 90
        0
176
     1
290
     0
176
     1
290
     1
176
     1
290
     1
176
     1
290
     0
176
     1
290
     0
176
     1
290
     0
176
     1
290
     0
176
     1
290
     0
176
     1
290
     0
176
     1
 90
       50
176
     1
 40
0.0
176
     1
 40
1.0
176
     1
 90
        0
176
     1
 62
    18
420
        0
176
     1
 90
       50
176
     1
 90
        3
176
     1
 62
     5
420
      255
176
     1
290
     0
176
     1
 90
       50
176
     1
 90
       50
176
     1
 90
       50
176
     1
290
     0
176
     1
 90
       50
176
     1
 62
   256
176
     0
 40
1.0
176
     0
 90
        2
176
     1
  1
strokes_ogs.tif
176
     1
290
     0
176
     1
 40
1.0
176
     1
 40
1.0
176
     1
  0
VISUALSTYLE
  5
2A
102
{ACAD_REACTORS
330
29
102
}
330
29
100
AcDbVisualStyle
  2
Flat
 70
     0
177
     3
291
     1
 70
    58
 90
        2
176
     1
 90
        1
176
     1
 90
        1
176
     1
 90
        2
176
     1
 40
0.6
176
     1
 40
30.0
176
     1
 62
     7
420
 16777215
176
     1
 90
        0
176
     1
 90
        0
176
     1
 62
     7
176
     1
 62
   257
176
     1
 90
        1
176
     1
 90
        1
176
     1
 40
1.0
176
     1
 90
        8
176
     1
 62
     7
176
     1
 40
1.0
176
     1
 90
        1
176
     1
 90
        6
176
     1
 90
        2
176
     1
 62
     7
176
     1
 90
        5
176
     1
 90
        0
176
     1
 90
        0
176
     1
290
     0
176
     1
 90
       13
176
     1
 40
0.0
176
     1
 90
        0
176
     1
290
     0
176
     1
290
     1
176
     1
290
     1
176
     1
290
     0
176
     1
290
     0
176
     1
290
     0
176
     1
290
     0
176
     1
290
     0
176
     1
290
     0
176
     1
 90
       50
176
     1
 40
0.0
176
     1
 40
1.0
176
     1
 90
        0
176
     1
 62
    18
420
        0
176
     1
 90
       50
176
     1
 90
        3
176
     1
 62
     5
420
      255
176
     1
290
     0
176
     1
 90
       50
176
     1
 90
       50
176
     1
 90
       50
176
     1
290
     0
176
     1
 90
       50
176
     1
 62
   256
176
     0
 40
1.0
176
     0
 90
        2
176
     1
  1
strokes_ogs.tif
176
     1
290
     0
176
     1
 40
1.0
176
     1
 40
1.0
176
     1
  0
VISUALSTYLE
  5
2B
102
{ACAD_REACTORS
330
29
102
}
330
29
100
AcDbVisualStyle
  2
FlatWithEdges
 70
     1
177
     3
291
     1
 70
    58
 90
        2
176
     1
 90
        1
176
     1
 90
        1
176
     1
 90
        2
176
     1
 40
0.6
176
     1
 40
30.0
176
     1
 62
     7
420
 16777215
176
     1
 90
        1
176
     1
 90
        0
176
     1
 62
     7
176
     1
 62
   257
176
     1
 90
        1
176
     1
 90
        1
176
     1
 40
1.0
176
     1
 90
        0
176
     1
 62
   257
176
     1
 40
1.0
176
     1
 90
        1
176
     1
 90
        6
176
     1
 90
        2
176
     1
 62
     7
176
     1
 90
        5
176
     1
 90
        0
176
     1
 90
        0
176
     1
290
     0
176
     1
 90
       13
176
     1
 40
0.0
176
     1
 90
        0
176
     1
290
     0
176
     1
290
     1
176
     1
290
     1
176
     1
290
     0
176
     1
290
     0
176
     1
290
     0
176
     1
290
     0
176
     1
290
     0
176
     1
290
     0
176
     1
 90
       50
176
     1
 40
0.0
176
     1
 40
1.0
176
     1
 90
        0
176
     1
 62
    18
420
        0
176
     1
 90
       50
176
     1
 90
        3
176
     1
 62
     5
420
      255
176
     1
290
     0
176
     1
 90
       50
176
     1
 90
       50
176
     1
 90
       50
176
     1
290
     0
176
     1
 90
       50
176
     1
 62
   256
176
     0
 40
1.0
176
     0
 90
        2
176
     1
  1
strokes_ogs.tif
176
     1
290
     0
176
     1
 40
1.0
176
     1
 40
1.0
176
     1
  0
VISUALSTYLE
  5
2C
102
{ACAD_REACTORS
330
29
102
}
330
29
100
AcDbVisualStyle
  2
Gouraud
 70
     2
177
     3
291
     1
 70
    58
 90
        2
176
     1
 90
        2
176
     1
 90
        1
176
     1
 90
        2
176
     1
 40
0.6
176
     1
 40
30.0
176
     1
 62
     7
420
 16777215
176
     1
 90
        0
176
     1
 90
        0
176
     1
 62
     7
176
     1
 62
   257
176
     1
 90
        1
176
     1
 90
        1
176
     1
 40
1.0
176
     1
 90
        0
176
     1
 62
     7
176
     1
 40
1.0
176
     1
 90
        1
176
     1
 90
        6
176
     1
 90
        2
176
     1
 62
     7
176
     1
 90
        5
176
     1
 90
        0
176
     1
 90
        0
176
     1
290
     0
176
     1
 90
       13
176
     1
 40
0.0
176
     1
 90
        0
176
     1
290
     0
176
     1
290
     1
176
     1
290
     1
176
     1
290
     0
176
     1
290
     0
176
     1
290
     0
176
     1
290
     0
176
     1
290
     0
176
     1
290
     0
176
     1
 90
       50
176
     1
 40
0.0
176
     1
 40
1.0
176
     1
 90
        0
176
     1
 62
    18
420
        0
176
     1
 90
       50
176
     1
 90
        3
176
     1
 62
     5
420
      255
176
     1
290
     0
176
     1
 90
       50
176
     1
 90
       50
176
     1
 90
       50
176
     1
290
     0
176
     1
 90
       50
176
     1
 62
   256
176
     0
 40
1.0
176
     0
 90
        2
176
     1
  1
strokes_ogs.tif
176
     1
290
     0
176
     1
 40
1.0
176
     1
 40
1.0
176
     1
  0
VISUALSTYLE
  5
2D
102
{ACAD_REACTORS
330
29
102
}
330
29
100
AcDbVisualStyle
  2
GouraudWithEdges
 70
     3
177
     3
291
     1
 70
    58
 90
        2
176
     1
 90
        2
176
     1
 90
        1
176
     1
 90
        2
176
     1
 40
0.6
176
     1
 40
30.0
176
     1
 62
     7
420
 16777215
176
     1
 90
        1
176
     1
 90
        0
176
     1
 62
     7
176
     1
 62
   257
176
     1
 90
        1
176
     1
 90
        1
176
     1
 40
1.0
176
     1
 90
        0
176
     1
 62
   257
176
     1
 40
1.0
176
     1
 90
        1
176
     1
 90
        6
176
     1
 90
        2
176
     1
 62
     7
176
     1
 90
        5
176
     1
 90
        0
176
     1
 90
        0
176
     1
290
     0
176
     1
 90
       13
176
     1
 40
0.0
176
     1
 90
        0
176
     1
290
     0
176
     1
290
     1
176
     1
290
     1
176
     1
290
     0
176
     1
290
     0
176
     1
290
     0
176
     1
290
     0
176
     1
290
     0
176
     1
290
     0
176
     1
 90
       50
176
     1
 40
0.0
176
     1
 40
1.0
176
     1
 90
        0
176
     1
 62
    18
420
        0
176
     1
 90
       50
176
     1
 90
        3
176
     1
 62
     5
420
      255
176
     1
290
     0
176
     1
 90
       50
176
     1
 90
       50
176
     1
 90
       50
176
     1
290
     0
176
     1
 90
       50
176
     1
 62
   256
176
     0
 40
1.0
176
     0
 90
        2
176
     1
  1
strokes_ogs.tif
176
     1
290
     0
176
     1
 40
1.0
176
     1
 40
1.0
176
     1
  0
VISUALSTYLE
  5
31
102
{ACAD_REACTORS
330
29
102
}
330
29
100
AcDbVisualStyle
  2
Hidden
 70
     6
177
     3
291
     0
 70
    58
 90
        1
176
     1
 90
        2
176
     1
 90
        2
176
     1
 90
        0
176
     1
 40
0.6
176
     1
 40
30.0
176
     1
 62
     7
420
 16777215
176
     1
 90
        2
176
     1
 90
        2
176
     1
 62
     7
176
     1
 62
   257
176
     1
 90
        2
176
     1
 90
        1
176
     1
 40
40.0
176
     1
 90
        0
176
     1
 62
   257
176
     1
 40
1.0
176
     1
 90
        1
176
     1
 90
        6
176
     1
 90
        2
176
     1
 62
     7
176
     1
 90
        3
176
     1
 90
        0
176
     1
 90
        0
176
     1
290
     0
176
     1
 90
        1
176
     1
 40
0.0
176
     1
 90
        0
176
     1
290
     0
176
     1
290
     1
176
     1
290
     1
176
     1
290
     0
176
     1
290
     0
176
     1
290
     0
176
     1
290
     0
176
     1
290
     0
176
     1
290
     0
176
     1
 90
       50
176
     1
 40
0.0
176
     1
 40
1.0
176
     1
 90
        0
176
     1
 62
    18
420
        0
176
     1
 90
       50
176
     1
 90
        3
176
     1
 62
     5
420
      255
176
     1
290
     0
176
     1
 90
       50
176
     1
 90
       50
176
     1
 90
       50
176
     1
290
     0
176
     1
 90
       50
176
     1
 62
   256
176
     0
 40
1.0
176
     0
 90
        2
176
     1
  1
strokes_ogs.tif
176
     1
290
     0
176
     1
 40
1.0
176
     1
 40
1.0
176
     1
  0
VISUALSTYLE
  5
3F
102
{ACAD_REACTORS
330
29
102
}
330
29
100
AcDbVisualStyle
  2
JitterOff
 70
    20
177
     3
291
     1
 70
    58
 90
        2
176
     0
 90
        2
176
     0
 90
        0
176
     0
 90
        0
176
     0
 40
0.6
176
     0
 40
30.0
176
     0
 62
     7
420
 16777215
176
     0
 90
        1
176
     0
 90
        4
176
     0
 62
     7
176
     0
 62
   257
176
     0
 90
        1
176
     0
 90
        1
176
     0
 40
1.0
176
     0
 90
       10
176
     2
 62
     7
176
     0
 40
1.0
176
     0
 90
        1
176
     0
 90
        6
176
     0
 90
        2
176
     0
 62
     7
176
     0
 90
        5
176
     0
 90
        0
176
     0
 90
        0
176
     0
290
     0
176
     0
 90
        1
176
     0
 40
0.0
176
     0
 90
        0
176
     0
290
     0
176
     0
290
     1
176
     0
290
     1
176
     0
290
     0
176
     0
290
     0
176
     0
290
     0
176
     0
290
     0
176
     0
290
     0
176
     0
290
     0
176
     0
 90
       50
176
     0
 40
0.0
176
     0
 40
1.0
176
     0
 90
        0
176
     0
 62
    18
420
        0
176
     0
 90
       50
176
     0
 90
        3
176
     0
 62
     5
420
      255
176
     0
290
     0
176
     0
 90
       50
176
     0
 90
       50
176
     0
 90
       50
176
     0
290
     0
176
     0
 90
       50
176
     0
 62
   256
176
     0
 40
1.0
176
     0
 90
        2
176
     0
  1
strokes_ogs.tif
176
     0
290
     0
176
     0
 40
1.0
176
     0
 40
1.0
176
     0
  0
VISUALSTYLE
  5
37
102
{ACAD_REACTORS
330
29
102
}
330
29
100
AcDbVisualStyle
  2
Linepattern
 70
    14
177
     3
291
     1
 70
    58
 90
        2
176
     1
 90
        2
176
     1
 90
        0
176
     1
 90
        0
176
     1
 40
0.6
176
     1
 40
30.0
176
     1
 62
     7
420
 16777215
176
     1
 90
        1
176
     1
 90
        4
176
     1
 62
     7
176
     1
 62
   257
176
     1
 90
        7
176
     1
 90
        7
176
     1
 40
1.0
176
     1
 90
        8
176
     1
 62
     7
176
     1
 40
1.0
176
     1
 90
        1
176
     1
 90
        6
176
     1
 90
        2
176
     1
 62
     7
176
     1
 90
        5
176
     1
 90
        0
176
     1
 90
        0
176
     1
290
     0
176
     1
 90
        1
176
     1
 40
0.0
176
     1
 90
        0
176
     1
290
     0
176
     1
290
     1
176
     1
290
     1
176
     1
290
     0
176
     1
290
     0
176
     1
290
     0
176
     1
290
     0
176
     1
290
     0
176
     1
290
     0
176
     1
 90
       50
176
     1
 40
0.0
176
     1
 40
1.0
176
     1
 90
        0
176
     1
 62
    18
420
        0
176
     1
 90
       50
176
     1
 90
        3
176
     1
 62
     5
420
      255
176
     1
290
     0
176
     1
 90
       50
176
     1
 90
       50
176
     1
 90
       50
176
     1
290
     0
176
     1
 90
       50
176
     1
 62
   256
176
     0
 40
1.0
176
     0
 90
        2
176
     1
  1
strokes_ogs.tif
176
     1
290
     0
176
     1
 40
1.0
176
     1
 40
1.0
176
     1
  0
VISUALSTYLE
  5
40
102
{ACAD_REACTORS
330
29
102
}
330
29
100
AcDbVisualStyle
  2
OverhangOff
 70
    21
177
     3
291
     1
 70
    58
 90
        2
176
     0
 90
        2
176
     0
 90
        0
176
     0
 90
        0
176
     0
 40
0.6
176
     0
 40
30.0
176
     0
 62
     7
420
 16777215
176
     0
 90
        1
176
     0
 90
        4
176
     0
 62
     7
176
     0
 62
   257
176
     0
 90
        1
176
     0
 90
        1
176
     0
 40
1.0
176
     0
 90
        9
176
     2
 62
     7
176
     0
 40
1.0
176
     0
 90
        1
176
     0
 90
        6
176
     0
 90
        2
176
     0
 62
     7
176
     0
 90
        5
176
     0
 90
        0
176
     0
 90
        0
176
     0
290
     0
176
     0
 90
        1
176
     0
 40
0.0
176
     0
 90
        0
176
     0
290
     0
176
     0
290
     1
176
     0
290
     1
176
     0
290
     0
176
     0
290
     0
176
     0
290
     0
176
     0
290
     0
176
     0
290
     0
176
     0
290
     0
176
     0
 90
       50
176
     0
 40
0.0
176
     0
 40
1.0
176
     0
 90
        0
176
     0
 62
    18
420
        0
176
     0
 90
       50
176
     0
 90
        3
176
     0
 62
     5
420
      255
176
     0
290
     0
176
     0
 90
       50
176
     0
 90
       50
176
     0
 90
       50
176
     0
290
     0
176
     0
 90
       50
176
     0
 62
   256
176
     0
 40
1.0
176
     0
 90
        2
176
     0
  1
strokes_ogs.tif
176
     0
290
     0
176
     0
 40
1.0
176
     0
 40
1.0
176
     0
  0
VISUALSTYLE
  5
33
102
{ACAD_REACTORS
330
29
102
}
330
29
100
AcDbVisualStyle
  2
Realistic
 70
     8
177
     3
291
     0
 70
    58
 90
        2
176
     1
 90
        3
176
     1
 90
        0
176
     1
 90
        2
176
     1
 40
0.6
176
     1
 40
30.0
176
     1
 62
     7
420
 16777215
176
     1
 90
        0
176
     1
 90
        0
176
     1
 62
     7
176
     1
 62
   257
176
     1
 90
        1
176
     1
 90
        1
176
     1
 40
1.0
176
     1
 90
        8
176
     1
 62
   257
176
     1
 40
1.0
176
     1
 90
        1
176
     1
 90
        6
176
     1
 90
        2
176
     1
 62
     7
176
     1
 90
        3
176
     1
 90
        0
176
     1
 90
        0
176
     1
290
     0
176
     1
 90
       13
176
     1
 40
0.0
176
     1
 90
        0
176
     1
290
     0
176
     1
290
     1
176
     1
290
     1
176
     1
290
     0
176
     1
290
     0
176
     1
290
     0
176
     1
290
     0
176
     1
290
     0
176
     1
290
     0
176
     1
 90
       50
176
     1
 40
0.0
176
     1
 40
1.0
176
     1
 90
        0
176
     1
 62
    18
420
        0
176
     1
 90
       50
176
     1
 90
        3
176
     1
 62
     5
420
      255
176
     1
290
     0
176
     1
 90
       50
176
     1
 90
       50
176
     1
 90
       50
176
     1
290
     0
176
     1
 90
       50
176
     1
 62
   256
176
     0
 40
1.0
176
     0
 90
        2
176
     1
  1
strokes_ogs.tif
176
     1
290
     0
176
     1
 40
1.0
176
     1
 40
1.0
176
     1
  0
VISUALSTYLE
  5
3E
102
{ACAD_REACTORS
330
29
102
}
330
29
100
AcDbVisualStyle
  2
Shaded
 70
    27
177
     3
291
     0
 70
    58
 90
        2
176
     1
 90
        2
176
     1
 90
        1
176
     1
 90
        2
176
     1
 40
0.6
176
     1
 40
30.0
176
     1
 62
     7
420
 16777215
176
     1
 90
        0
176
     1
 90
        4
176
     1
 62
     7
176
     1
 62
   257
176
     1
 90
        1
176
     1
 90
        1
176
     1
 40
1.0
176
     1
 90
        8
176
     1
 62
   257
176
     1
 40
1.0
176
     1
 90
        1
176
     1
 90
        6
176
     1
 90
        2
176
     1
 62
     8
420
  7895160
176
     1
 90
        3
176
     1
 90
        0
176
     1
 90
        0
176
     1
290
     0
176
     1
 90
        5
176
     1
 40
0.0
176
     1
 90
        0
176
     1
290
     0
176
     1
290
     1
176
     1
290
     1
176
     1
290
     0
176
     1
290
     0
176
     1
290
     0
176
     1
290
     0
176
     1
290
     0
176
     1
290
     0
176
     1
 90
       50
176
     1
 40
0.0
176
     1
 40
1.0
176
     1
 90
        0
176
     1
 62
    18
420
        0
176
     1
 90
       50
176
     1
 90
        3
176
     1
 62
     5
420
      255
176
     1
290
     0
176
     1
 90
       50
176
     1
 90
       50
176
     1
 90
       50
176
     1
290
     0
176
     1
 90
       50
176
     1
 62
   256
176
     0
 40
1.0
176
     0
 90
        2
176
     1
  1
strokes_ogs.tif
176
     1
290
     0
176
     1
 40
1.0
176
     1
 40
1.0
176
     1
  0
VISUALSTYLE
  5
3D
102
{ACAD_REACTORS
330
29
102
}
330
29
100
AcDbVisualStyle
  2
Shaded with edges
 70
    26
177
     3
291
     0
 70
    58
 90
        2
176
     1
 90
        2
176
     1
 90
        1
176
     1
 90
        2
176
     1
 40
0.6
176
     1
 40
30.0
176
     1
 62
     7
420
 16777215
176
     1
 90
        1
176
     1
 90
       10
176
     1
 62
     7
176
     1
 62
   257
176
     1
 90
        2
176
     1
 90
        1
176
     1
 40
1.0
176
     1
 90
        8
176
     1
 62
   257
176
     1
 40
1.0
176
     1
 90
        1
176
     1
 90
        6
176
     1
 90
        2
176
     1
 62
     7
176
     1
 90
        3
176
     1
 90
        0
176
     1
 90
        0
176
     1
290
     0
176
     1
 90
        5
176
     1
 40
0.0
176
     1
 90
        0
176
     1
290
     0
176
     1
290
     1
176
     1
290
     1
176
     1
290
     0
176
     1
290
     0
176
     1
290
     0
176
     1
290
     0
176
     1
290
     0
176
     1
290
     0
176
     1
 90
       50
176
     1
 40
0.0
176
     1
 40
1.0
176
     1
 90
        0
176
     1
 62
    18
420
        0
176
     1
 90
       50
176
     1
 90
        3
176
     1
 62
     5
420
      255
176
     1
290
     0
176
     1
 90
       50
176
     1
 90
       50
176
     1
 90
       50
176
     1
290
     0
176
     1
 90
       50
176
     1
 62
   256
176
     0
 40
1.0
176
     0
 90
        2
176
     1
  1
strokes_ogs.tif
176
     1
290
     0
176
     1
 40
1.0
176
     1
 40
1.0
176
     1
  0
VISUALSTYLE
  5
3A
102
{ACAD_REACTORS
330
29
102
}
330
29
100
AcDbVisualStyle
  2
Shades of Gray
 70
    23
177
     3
291
     0
 70
    58
 90
        2
176
     1
 90
        2
176
     1
 90
        3
176
     1
 90
        0
176
     1
 40
0.6
176
     1
 40
30.0
176
     1
 62
     7
420
 16777215
176
     1
 90
        2
176
     1
 90
        2
176
     1
 62
     7
176
     1
 62
     7
176
     1
 90
        1
176
     1
 90
        1
176
     1
 40
40.0
176
     1
 90
        8
176
     1
 62
     7
176
     1
 40
1.0
176
     1
 90
        1
176
     1
 90
        6
176
     1
 90
        2
176
     1
 62
     7
176
     1
 90
        3
176
     1
 90
        0
176
     1
 90
        0
176
     1
290
     0
176
     1
 90
        1
176
     1
 40
0.0
176
     1
 90
        0
176
     1
290
     0
176
     1
290
     1
176
     1
290
     1
176
     1
290
     0
176
     1
290
     0
176
     1
290
     0
176
     1
290
     0
176
     1
290
     0
176
     1
290
     0
176
     1
 90
       50
176
     1
 40
0.0
176
     1
 40
1.0
176
     1
 90
        0
176
     1
 62
    18
420
        0
176
     1
 90
       50
176
     1
 90
        3
176
     1
 62
     5
420
      255
176
     1
290
     0
176
     1
 90
       50
176
     1
 90
       50
176
     1
 90
       50
176
     1
290
     0
176
     1
 90
       50
176
     1
 62
   256
176
     0
 40
1.0
176
     0
 90
        2
176
     1
  1
strokes_ogs.tif
176
     1
290
     0
176
     1
 40
1.0
176
     1
 40
1.0
176
     1
  0
VISUALSTYLE
  5
3B
102
{ACAD_REACTORS
330
29
102
}
330
29
100
AcDbVisualStyle
  2
Sketchy
 70
    24
177
     3
291
     0
 70
    58
 90
        1
176
     1
 90
        2
176
     1
 90
        2
176
     1
 90
        0
176
     1
 40
0.6
176
     1
 40
30.0
176
     1
 62
     7
420
 16777215
176
     1
 90
        2
176
     1
 90
        2
176
     1
 62
     7
176
     1
 62
     7
176
     1
 90
        1
176
     1
 90
        1
176
     1
 40
40.0
176
     1
 90
       11
176
     1
 62
     7
176
     1
 40
1.0
176
     1
 90
        1
176
     1
 90
        6
176
     1
 90
        2
176
     1
 62
     7
176
     1
 90
        6
176
     1
 90
        0
176
     1
 90
        0
176
     1
290
     0
176
     1
 90
        1
176
     1
 40
0.0
176
     1
 90
        0
176
     1
290
     0
176
     1
290
     1
176
     1
290
     1
176
     1
290
     0
176
     1
290
     0
176
     1
290
     0
176
     1
290
     0
176
     1
290
     0
176
     1
290
     0
176
     1
 90
       50
176
     1
 40
0.0
176
     1
 40
1.0
176
     1
 90
        0
176
     1
 62
    18
420
        0
176
     1
 90
       50
176
     1
 90
        3
176
     1
 62
     5
420
      255
176
     1
290
     0
176
     1
 90
       50
176
     1
 90
       50
176
     1
 90
       50
176
     1
290
     0
176
     1
 90
       50
176
     1
 62
   256
176
     0
 40
1.0
176
     0
 90
        2
176
     1
  1
strokes_ogs.tif
176
     1
290
     0
176
     1
 40
1.0
176
     1
 40
1.0
176
     1
  0
VISUALSTYLE
  5
36
102
{ACAD_REACTORS
330
29
102
}
330
29
100
AcDbVisualStyle
  2
Thicken
 70
    13
177
     3
291
     1
 70
    58
 90
        2
176
     1
 90
        2
176
     1
 90
        0
176
     1
 90
        0
176
     1
 40
0.6
176
     1
 40
30.0
176
     1
 62
     7
420
 16777215
176
     1
 90
        1
176
     1
 90
        4
176
     1
 62
     7
176
     1
 62
   257
176
     1
 90
        1
176
     1
 90
        1
176
     1
 40
1.0
176
     1
 90
       12
176
     1
 62
     7
176
     1
 40
1.0
176
     1
 90
        1
176
     1
 90
        6
176
     1
 90
        2
176
     1
 62
     7
176
     1
 90
        5
176
     1
 90
        0
176
     1
 90
        0
176
     1
290
     0
176
     1
 90
        1
176
     1
 40
0.0
176
     1
 90
        0
176
     1
290
     0
176
     1
290
     1
176
     1
290
     1
176
     1
290
     0
176
     1
290
     0
176
     1
290
     0
176
     1
290
     0
176
     1
290
     0
176
     1
290
     0
176
     1
 90
       50
176
     1
 40
0.0
176
     1
 40
1.0
176
     1
 90
        0
176
     1
 62
    18
420
        0
176
     1
 90
       50
176
     1
 90
        3
176
     1
 62
     5
420
      255
176
     1
290
     0
176
     1
 90
       50
176
     1
 90
       50
176
     1
 90
       50
176
     1
290
     0
176
     1
 90
       50
176
     1
 62
   256
176
     0
 40
1.0
176
     0
 90
        2
176
     1
  1
strokes_ogs.tif
176
     1
290
     0
176
     1
 40
1.0
176
     1
 40
1.0
176
     1
  0
VISUALSTYLE
  5
30
102
{ACAD_REACTORS
330
29
102
}
330
29
100
AcDbVisualStyle
  2
Wireframe
 70
     5
177
     3
291
     0
 70
    58
 90
        0
176
     1
 90
        2
176
     1
 90
        0
176
     1
 90
        0
176
     1
 40
0.6
176
     1
 40
30.0
176
     1
 62
     7
420
 16777215
176
     1
 90
        1
176
     1
 90
        4
176
     1
 62
     7
176
     1
 62
   257
176
     1
 90
        1
176
     1
 90
        1
176
     1
 40
1.0
176
     1
 90
        0
176
     1
 62
   257
176
     1
 40
1.0
176
     1
 90
        1
176
     1
 90
        6
176
     1
 90
        2
176
     1
 62
     7
176
     1
 90
        3
176
     1
 90
        0
176
     1
 90
        0
176
     1
290
     0
176
     1
 90
        1
176
     1
 40
0.0
176
     1
 90
        0
176
     1
290
     0
176
     1
290
     1
176
     1
290
     1
176
     1
290
     0
176
     1
290
     0
176
     1
290
     0
176
     1
290
     0
176
     1
290
     0
176
     1
290
     0
176
     1
 90
       50
176
     1
 40
0.0
176
     1
 40
1.0
176
     1
 90
        0
176
     1
 62
    18
420
        0
176
     1
 90
       50
176
     1
 90
        3
176
     1
 62
     5
420
      255
176
     1
290
     0
176
     1
 90
       50
176
     1
 90
       50
176
     1
 90
       50
176
     1
290
     0
176
     1
 90
       50
176
     1
 62
   256
176
     0
 40
1.0
176
     0
 90
        2
176
     1
  1
strokes_ogs.tif
176
     1
290
     0
176
     1
 40
1.0
176
     1
 40
1.0
176
     1
  0
VISUALSTYLE
  5
3C
102
{ACAD_REACTORS
330
29
102
}
330
29
100
AcDbVisualStyle
  2
X-Ray
 70
    25
177
     3
291
     0
 70
    58
 90
        2
176
     1
 90
        2
176
     1
 90
        1
176
     1
 90
        1
176
     1
 40
0.5
176
     1
 40
30.0
176
     1
 62
     7
420
 16777215
176
     1
 90
        1
176
     1
 90
        0
176
     1
 62
     7
176
     1
 62
   257
176
     1
 90
        1
176
     1
 90
        1
176
     1
 40
1.0
176
     1
 90
        8
176
     1
 62
     7
176
     1
 40
1.0
176
     1
 90
        1
176
     1
 90
        6
176
     1
 90
        2
176
     1
 62
     7
176
     1
 90
        3
176
     1
 90
        0
176
     1
 90
        0
176
     1
290
     0
176
     1
 90
       13
176
     1
 40
0.0
176
     1
 90
        0
176
     1
290
     0
176
     1
290
     1
176
     1
290
     1
176
     1
290
     0
176
     1
290
     0
176
     1
290
     0
176
     1
290
     0
176
     1
290
     0
176
     1
290
     0
176
     1
 90
       50
176
     1
 40
0.0
176
     1
 40
1.0
176
     1
 90
        0
176
     1
 62
    18
420
        0
176
     1
 90
       50
176
     1
 90
        3
176
     1
 62
     5
420
      255
176
     1
290
     0
176
     1
 90
       50
176
     1
 90
       50
176
     1
 90
       50
176
     1
290
     0
176
     1
 90
       50
176
     1
 62
   256
176
     0
 40
1.0
176
     0
 90
        2
176
     1
  1
strokes_ogs.tif
176
     1
290
     0
176
     1
 40
1.0
176
     1
 40
1.0
176
     1
  0
DICTIONARYVAR
  5
1E0
102
{ACAD_REACTORS
330
1DB
102
}
330
1DB
100
DictionaryVariables
280
     0
  1
0
  0
DICTIONARYVAR
  5
1E1
102
{ACAD_REACTORS
330
1DB
102
}
330
1DB
100
DictionaryVariables
280
     0
  1
1:1
  0
DICTIONARYVAR
  5
1DD
102
{ACAD_REACTORS
330
1DB
102
}
330
1DB
100
DictionaryVariables
280
     0
  1
STANDARD
  0
DICTIONARYVAR
  5
1DC
102
{ACAD_REACTORS
330
1DB
102
}
330
1DB
100
DictionaryVariables
280
     0
  1
STANDARD
  0
DICTIONARYVAR
  5
1DE
102
{ACAD_REACTORS
330
1DB
102
}
330
1DB
100
DictionaryVariables
280
     0
  1
Imperial24
  0
DICTIONARYVAR
  5
1DF
102
{ACAD_REACTORS
330
1DB
102
}
330
1DB
100
DictionaryVariables
280
     0
  1
Imperial24
  0
DICTIONARY
  5
19C
330
6B
100
AcDbDictionary
280
     1
281
     1
  3
ACAD_XREC_ROUNDTRIP
360
223
  0
DICTIONARY
  5
244
330
1E4
100
AcDbDictionary
280
     1
281
     1
  3
ACAD_XREC_ROUNDTRIP
360
245
  0
DICTIONARY
  5
1A
330
19
100
AcDbDictionary
280
     1
281
     1
  3
BUMPTILE
360
1C
  3
DIFFUSETILE
360
1B
  3
OPACITYTILE
360
1F
  3
REFLECTIONTILE
360
1E
  3
REFRACTIONTILE
360
20
  3
SPECULARTILE
360
1D
  0
DICTIONARY
  5
12
330
11
100
AcDbDictionary
280
     1
281
     1
  3
BUMPTILE
360
14
  3
DIFFUSETILE
360
13
  3
OPACITYTILE
360
17
  3
REFLECTIONTILE
360
16
  3
REFRACTIONTILE
360
18
  3
SPECULARTILE
360
15
  0
DICTIONARY
  5
22
330
21
100
AcDbDictionary
280
     1
281
     1
  3
BUMPTILE
360
24
  3
DIFFUSETILE
360
23
  3
OPACITYTILE
360
27
  3
REFLECTIONTILE
360
26
  3
REFRACTIONTILE
360
28
  3
SPECULARTILE
360
25
  0
DICTIONARY
  5
19A
330
69
100
AcDbDictionary
280
     1
281
     1
  3
ACAD_XREC_ROUNDTRIP
360
222
  0
DICTIONARY
  5
242
330
1E3
100
AcDbDictionary
280
     1
281
     1
  3
ACAD_XREC_ROUNDTRIP
360
243
  0
DICTIONARY
  5
220
330
65
100
AcDbDictionary
280
     1
281
     1
  3
ACAD_ROUNDTRIP_2008_TABLESTYLE_CELLSTYLEMAP
360
221
  0
XRECORD
  5
223
102
{ACAD_REACTORS
330
19C
102
}
330
19C
100
AcDbXrecord
280
     1
102
DISPLAYNAME
  1
Imperial24
102
FLAGS
 90
        0
  0
XRECORD
  5
245
102
{ACAD_REACTORS
330
244
102
}
330
244
100
AcDbXrecord
280
     1
102
DISPLAYNAME
  1
Metric50
102
FLAGS
 90
        0
  0
XRECORD
  5
1C
102
{ACAD_REACTORS
330
1A
102
}
330
1A
100
AcDbXrecord
280
     1
270
     1
271
     1
  0
XRECORD
  5
1B
102
{ACAD_REACTORS
330
1A
102
}
330
1A
100
AcDbXrecord
280
     1
270
     1
271
     1
  0
XRECORD
  5
1F
102
{ACAD_REACTORS
330
1A
102
}
330
1A
100
AcDbXrecord
280
     1
270
     1
271
     1
  0
XRECORD
  5
1E
102
{ACAD_REACTORS
330
1A
102
}
330
1A
100
AcDbXrecord
280
     1
270
     1
271
     1
  0
XRECORD
  5
20
102
{ACAD_REACTORS
330
1A
102
}
330
1A
100
AcDbXrecord
280
     1
270
     1
271
     1
  0
XRECORD
  5
1D
102
{ACAD_REACTORS
330
1A
102
}
330
1A
100
AcDbXrecord
280
     1
270
     1
271
     1
  0
XRECORD
  5
14
102
{ACAD_REACTORS
330
12
102
}
330
12
100
AcDbXrecord
280
     1
270
     1
271
     1
  0
XRECORD
  5
13
102
{ACAD_REACTORS
330
12
102
}
330
12
100
AcDbXrecord
280
     1
270
     1
271
     1
  0
XRECORD
  5
17
102
{ACAD_REACTORS
330
12
102
}
330
12
100
AcDbXrecord
280
     1
270
     1
271
     1
  0
XRECORD
  5
16
102
{ACAD_REACTORS
330
12
102
}
330
12
100
AcDbXrecord
280
     1
270
     1
271
     1
  0
XRECORD
  5
18
102
{ACAD_REACTORS
330
12
102
}
330
12
100
AcDbXrecord
280
     1
270
     1
271
     1
  0
XRECORD
  5
15
102
{ACAD_REACTORS
330
12
102
}
330
12
100
AcDbXrecord
280
     1
270
     1
271
     1
  0
XRECORD
  5
24
102
{ACAD_REACTORS
330
22
102
}
330
22
100
AcDbXrecord
280
     1
270
     1
271
     1
  0
XRECORD
  5
23
102
{ACAD_REACTORS
330
22
102
}
330
22
100
AcDbXrecord
280
     1
270
     1
271
     1
  0
XRECORD
  5
27
102
{ACAD_REACTORS
330
22
102
}
330
22
100
AcDbXrecord
280
     1
270
     1
271
     1
  0
XRECORD
  5
26
102
{ACAD_REACTORS
330
22
102
}
330
22
100
AcDbXrecord
280
     1
270
     1
271
     1
  0
XRECORD
  5
28
102
{ACAD_REACTORS
330
22
102
}
330
22
100
AcDbXrecord
280
     1
270
     1
271
     1
  0
XRECORD
  5
25
102
{ACAD_REACTORS
330
22
102
}
330
22
100
AcDbXrecord
280
     1
270
     1
271
     1
  0
XRECORD
  5
222
102
{ACAD_REACTORS
330
19A
102
}
330
19A
100
AcDbXrecord
280
     1
102
DISPLAYNAME
  1
Imperial24
102
FLAGS
 90
        0
  0
XRECORD
  5
243
102
{ACAD_REACTORS
330
242
102
}
330
242
100
AcDbXrecord
280
     1
102
DISPLAYNAME
  1
Metric50
102
FLAGS
 90
        0
  0
CELLSTYLEMAP
  5
221
102
{ACAD_REACTORS
330
220
102
}
330
220
100
AcDbCellStyleMap
 90
        3
300
CELLSTYLE
  1
TABLEFORMAT_BEGIN
 90
        5
170
     1
 91
        0
 92
    32768
 62
   257
 93
        1
300
CONTENTFORMAT
  1
CONTENTFORMAT_BEGIN
 90
        0
 91
        0
 92
      512
 93
        0
300

 40
0.0
140
1.0
 94
        5
 62
     0
340
55
144
6.0
309
CONTENTFORMAT_END
171
     1
301
MARGIN
  1
CELLMARGIN_BEGIN
 40
1.5
 40
1.5
 40
1.5
 40
1.5
 40
4.5
 40
4.5
309
CELLMARGIN_END
 94
        6
 95
        1
302
GRIDFORMAT
  1
GRIDFORMAT_BEGIN
 90
        0
 91
        1
 62
     0
 92
       -2
340
5B
 93
        0
 40
1.125
309
GRIDFORMAT_END
 95
        2
302
GRIDFORMAT
  1
GRIDFORMAT_BEGIN
 90
        0
 91
        1
 62
     0
 92
       -2
340
5B
 93
        0
 40
1.125
309
GRIDFORMAT_END
 95
        4
302
GRIDFORMAT
  1
GRIDFORMAT_BEGIN
 90
        0
 91
        1
 62
     0
 92
       -2
340
5B
 93
        0
 40
1.125
309
GRIDFORMAT_END
 95
        8
302
GRIDFORMAT
  1
GRIDFORMAT_BEGIN
 90
        0
 91
        1
 62
     0
 92
       -2
340
5B
 93
        0
 40
1.125
309
GRIDFORMAT_END
 95
       16
302
GRIDFORMAT
  1
GRIDFORMAT_BEGIN
 90
        0
 91
        1
 62
     0
 92
       -2
340
5B
 93
        0
 40
1.125
309
GRIDFORMAT_END
 95
       32
302
GRIDFORMAT
  1
GRIDFORMAT_BEGIN
 90
        0
 91
        1
 62
     0
 92
       -2
340
5B
 93
        0
 40
1.125
309
GRIDFORMAT_END
309
TABLEFORMAT_END
  1
CELLSTYLE_BEGIN
 90
        1
 91
        1
300
_TITLE
309
CELLSTYLE_END
300
CELLSTYLE
  1
TABLEFORMAT_BEGIN
 90
        5
170
     1
 91
        0
 92
        0
 62
   257
 93
        1
300
CONTENTFORMAT
  1
CONTENTFORMAT_BEGIN
 90
        0
 91
        0
 92
      512
 93
        0
300

 40
0.0
140
1.0
 94
        5
 62
     0
340
55
144
4.5
309
CONTENTFORMAT_END
171
     1
301
MARGIN
  1
CELLMARGIN_BEGIN
 40
1.5
 40
1.5
 40
1.5
 40
1.5
 40
4.5
 40
4.5
309
CELLMARGIN_END
 94
        6
 95
        1
302
GRIDFORMAT
  1
GRIDFORMAT_BEGIN
 90
        0
 91
        1
 62
     0
 92
       -2
340
5B
 93
        0
 40
1.125
309
GRIDFORMAT_END
 95
        2
302
GRIDFORMAT
  1
GRIDFORMAT_BEGIN
 90
        0
 91
        1
 62
     0
 92
       -2
340
5B
 93
        0
 40
1.125
309
GRIDFORMAT_END
 95
        4
302
GRIDFORMAT
  1
GRIDFORMAT_BEGIN
 90
        0
 91
        1
 62
     0
 92
       -2
340
5B
 93
        0
 40
1.125
309
GRIDFORMAT_END
 95
        8
302
GRIDFORMAT
  1
GRIDFORMAT_BEGIN
 90
        0
 91
        1
 62
     0
 92
       -2
340
5B
 93
        0
 40
1.125
309
GRIDFORMAT_END
 95
       16
302
GRIDFORMAT
  1
GRIDFORMAT_BEGIN
 90
        0
 91
        1
 62
     0
 92
       -2
340
5B
 93
        0
 40
1.125
309
GRIDFORMAT_END
 95
       32
302
GRIDFORMAT
  1
GRIDFORMAT_BEGIN
 90
        0
 91
        1
 62
     0
 92
       -2
340
5B
 93
        0
 40
1.125
309
GRIDFORMAT_END
309
TABLEFORMAT_END
  1
CELLSTYLE_BEGIN
 90
        2
 91
        1
300
_HEADER
309
CELLSTYLE_END
300
CELLSTYLE
  1
TABLEFORMAT_BEGIN
 90
        5
170
     1
 91
        0
 92
        0
 62
   257
 93
        1
300
CONTENTFORMAT
  1
CONTENTFORMAT_BEGIN
 90
        0
 91
        0
 92
      512
 93
        0
300

 40
0.0
140
1.0
 94
        2
 62
     0
340
55
144
4.5
309
CONTENTFORMAT_END
171
     1
301
MARGIN
  1
CELLMARGIN_BEGIN
 40
1.5
 40
1.5
 40
1.5
 40
1.5
 40
4.5
 40
4.5
309
CELLMARGIN_END
 94
        6
 95
        1
302
GRIDFORMAT
  1
GRIDFORMAT_BEGIN
 90
        0
 91
        1
 62
     0
 92
       -2
340
5B
 93
        0
 40
1.125
309
GRIDFORMAT_END
 95
        2
302
GRIDFORMAT
  1
GRIDFORMAT_BEGIN
 90
        0
 91
        1
 62
     0
 92
       -2
340
5B
 93
        0
 40
1.125
309
GRIDFORMAT_END
 95
        4
302
GRIDFORMAT
  1
GRIDFORMAT_BEGIN
 90
        0
 91
        1
 62
     0
 92
       -2
340
5B
 93
        0
 40
1.125
309
GRIDFORMAT_END
 95
        8
302
GRIDFORMAT
  1
GRIDFORMAT_BEGIN
 90
        0
 91
        1
 62
     0
 92
       -2
340
5B
 93
        0
 40
1.125
309
GRIDFORMAT_END
 95
       16
302
GRIDFORMAT
  1
GRIDFORMAT_BEGIN
 90
        0
 91
        1
 62
     0
 92
       -2
340
5B
 93
        0
 40
1.125
309
GRIDFORMAT_END
 95
       32
302
GRIDFORMAT
  1
GRIDFORMAT_BEGIN
 90
        0
 91
        1
 62
     0
 92
       -2
340
5B
 93
        0
 40
1.125
309
GRIDFORMAT_END
309
TABLEFORMAT_END
  1
CELLSTYLE_BEGIN
 90
        3
 91
        2
300
_DATA
309
CELLSTYLE_END
  0
ENDSEC
  0
EOF
